  0
SECTION
  2
HEADER
  9
$ACADVER
  1
AC1009
  9
$INSBASE
 10
0
 20
0
 30
0
  9
$EXTMIN
 10
0
 20
0
  9
$EXTMAX
 10
1782
 20
1260
  9
$LIMMIN
 10
0
 20
0
  9
$LIMMAX
 10
1782
 20
1260
  9
$LTSCALE
 40
6
  0
ENDSEC
  0
SECTION
  2
TABLES
  0
TABLE
  2
LTYPE
 70
     9
  0
LTYPE
  2
CONTINUOUS
 70
    64
  3
実線
 72
    65
 73
     0
 40
0.0
  0
LTYPE
  2
DASHED1
 70
    64
  3
--  --  --  --  --  --  --  --  
 72
    65
 73
     2
 40
2.5
 49
1.25
 49
-1.25
  0
LTYPE
  2
DASHED2
 70
    64
  3
----    ----    ----    ----    
 72
    65
 73
     2
 40
5.0
 49
2.5
 49
-2.5
  0
LTYPE
  2
DASHED3
 70
    64
  3
------  ------  ------  ------  
 72
    65
 73
     2
 40
5.0
 49
3.75
 49
-1.25
  0
LTYPE
  2
CENTER1
 70
    64
  3
----- - ----- - ----- - ----- - 
 72
    65
 73
     4
 40
10.0
 49
6.25
 49
-1.25
 49
1.25
 49
-1.25
  0
LTYPE
  2
CENTER2
 70
    64
  3
----------  --  ----------  --  
 72
    65
 73
     4
 40
20.0
 49
12.5
 49
-2.5
 49
2.5
 49
-2.5
  0
LTYPE
  2
PHANTOM1
 70
    64
  3
--- - - --- - - --- - - --- - - 
 72
    65
 73
     6
 40
10.0
 49
3.25
 49
-1.25
 49
1.25
 49
-1.25
 49
1.25
 49
-1.25
  0
LTYPE
  2
PHANTOM2
 70
    64
  3
--------  -  -  --------  -  -  
 72
    65
 73
     6
 40
20.0
 49
10.0
 49
-2.5
 49
1.25
 49
-2.5
 49
1.25
 49
-2.5
  0
LTYPE
  2
DOT
 70
    64
  3
-   -   -   -   -   -   -   -   
 72
    65
 73
     2
 40
2.5
 49
0.625
 49
-1.875
  0
LTYPE
  2
DUMMY
 70
    64
  3
ダミー
 72
    65
 73
     0
 40
0.0
  0
LTYPE
  2
RAND1
 70
    64
  3
ランダム線1
 72
    65
 73
     4
 40
10.0
 49
1.0
 49
-2.0
 49
3.0
 49
-4.0
  0
LTYPE
  2
RAND2
 70
    64
  3
ランダム線2
 72
    65
 73
     4
 40
14.0
 49
2.0
 49
-3.0
 49
4.0
 49
-5.0
  0
LTYPE
  2
RAND3
 70
    64
  3
ランダム線3
 72
    65
 73
     4
 40
18.0
 49
3.0
 49
-4.0
 49
5.0
 49
-6.0
  0
LTYPE
  2
RAND4
 70
    64
  3
ランダム線4
 72
    65
 73
     4
 40
22.0
 49
4.0
 49
-5.0
 49
6.0
 49
-7.0
  0
LTYPE
  2
RAND5
 70
    64
  3
ランダム線5
 72
    65
 73
     4
 40
26.0
 49
5.0
 49
-6.0
 49
7.0
 49
-8.0
  0
LTYPE
  2
LONG1
 70
    64
  3
----------  --  ----------  --  
 72
    65
 73
     4
 40
40.0
 49
32.5
 49
-2.5
 49
2.5
 49
-2.5
  0
LTYPE
  2
LONG2
 70
    64
  3
--------  -  -  --------  -  -  
 72
    65
 73
     6
 40
40.0
 49
30.0
 49
-2.5
 49
1.25
 49
-2.5
 49
1.25
 49
-2.5
  0
LTYPE
  2
LONG3
 70
    64
  3
+++++++++++++++..+++++++++++++++
 72
    65
 73
     2
 40
40.0
 49
37.5
 49
-2.5
  0
LTYPE
  2
LONG4
 70
    64
  3
+++++++++++++++..+++++++++++++++
 72
    65
 73
     2
 40
80.0
 49
75.0
 49
-5.0
  0
LTYPE
  2
LONG5
 70
    64
  3
----------  --  ----------  --  
 72
    65
 73
     4
 40
60.0
 49
37.5
 49
-7.5
 49
7.5
 49
-7.5
  0
LTYPE
  2
dashed
 70
   64
  3
-------   -------------   ------
 72
   65
 73
    2
 40
7.5
 49
6
 49
-1.5
  0
LTYPE
  2
dashed_spaced
 70
   64
  3
----        --------        ----
 72
   65
 73
    2
 40
12
 49
6
 49
-6
  0
LTYPE
  2
long_dashed_dotted
 70
   64
  3
------------- --- --------------
 72
   65
 73
    4
 40
15.25
 49
12
 49
-1.5
 49
0.25
 49
-1.5
  0
LTYPE
  2
long_dashed_double-dotted
 70
   64
  3
----------- --- --- ------------
 72
   65
 73
    6
 40
17
 49
12
 49
-1.5
 49
0.25
 49
-1.5
 49
0.25
 49
-1.5
  0
LTYPE
  2
long_dashed_triplicate-dotted
 70
   64
  3
--------- --- --- --- ----------
 72
   65
 73
    8
 40
18.75
 49
12
 49
-1.5
 49
0.25
 49
-1.5
 49
0.25
 49
-1.5
 49
0.25
 49
-1.5
  0
LTYPE
  2
dotted
 70
   64
  3
   -       -       -       -    
 72
   65
 73
    2
 40
1.75
 49
0.25
 49
-1.5
  0
LTYPE
  2
chain
 70
   64
  3
-------------- -- --------------
 72
   65
 73
    4
 40
18.5
 49
12
 49
-1.5
 49
3.5
 49
-1.5
  0
LTYPE
  2
chain_double_dash
 70
   64
  3
------------ -- -- -------------
 72
   65
 73
    6
 40
23.5
 49
12
 49
-1.5
 49
3.5
 49
-1.5
 49
3.5
 49
-1.5
  0
LTYPE
  2
dashed_dotted
 70
   64
  3
-----------     -     ----------
 72
   65
 73
    4
 40
9.25
 49
6
 49
-1.5
 49
0.25
 49
-1.5
  0
LTYPE
  2
double-dashed_dotted
 70
   64
  3
------   -----------   -   -----
 72
   65
 73
    6
 40
16.75
 49
6
 49
-1.5
 49
6
 49
-1.5
 49
0.25
 49
-1.5
  0
LTYPE
  2
dashed_double-dotted
 70
   64
  3
---------    -    -    ---------
 72
   65
 73
    6
 40
11
 49
6
 49
-1.5
 49
0.25
 49
-1.5
 49
0.25
 49
-1.5
  0
LTYPE
  2
double-dashed_double-dotted
 70
   64
  3
-----   ---------   -   -   ----
 72
   65
 73
    8
 40
18.5
 49
6
 49
-1.5
 49
6
 49
-1.5
 49
0.25
 49
-1.5
 49
0.25
 49
-1.5
  0
LTYPE
  2
dashed_triplicate-dotted
 70
   64
  3
-------    -    -    -    ------
 72
   65
 73
    8
 40
12.75
 49
6
 49
-1.5
 49
0.25
 49
-1.5
 49
0.25
 49
-1.5
 49
0.25
 49
-1.5
  0
LTYPE
  2
double-dashed_triplicate-dotted
 70
   64
  3
-----  ---------  -  -  -  -----
 72
   65
 73
   10
 40
20.25
 49
6
 49
-1.5
 49
6
 49
-1.5
 49
0.25
 49
-1.5
 49
0.25
 49
-1.5
 49
0.25
 49
-1.5
  0
LTYPE
  2
undefined
 70
   64
  3
--------------------------------
 72
   65
 73
    0
 40
0
  0
ENDTAB
  0
TABLE
  2
STYLE
  5
3
100
AcDbSymbolTable
 70
     1
  0
STYLE
  5
10
100
AcDbSymbolTableRecord
100
AcDbTextStyleTableRecord
  2
STANDARD
 70
     0
 40
0.0
 41
1.0
 50
0.0
 71
     0
 42
0.2
  3
txt
  4
bigfont.shx
  0
STYLE
  5
26
100
AcDbSymbolTableRecord
100
AcDbTextStyleTableRecord
  2
TATEGAKI
 70
    68
 40
0.0
 41
1.0
 50
0.0
 71
     0
 42
1.0
  3
txt
  4
bigfont.shx
  0
ENDTAB
  0
TABLE
  2
LAYER
 70
    9
  0
LAYER
  2
_0-0_計極細
 70
   64
 62
    7
  6
CONTINUOUS
  0
LAYER
  2
_0-1_計細線
 70
   64
 62
    7
  6
CONTINUOUS
  0
LAYER
  2
_0-5_寸法線
 70
   64
 62
    7
  6
CONTINUOUS
  0
LAYER
  2
_0-7_枠細線
 70
   64
 62
    7
  6
CONTINUOUS
  0
LAYER
  2
_0-8_枠中線
 70
   64
 62
    7
  6
CONTINUOUS
  0
LAYER
  2
_1-2_極細2
 70
   64
 62
    7
  6
CONTINUOUS
  0
LAYER
  2
_1-3_細線2
 70
   64
 62
    7
  6
CONTINUOUS
  0
LAYER
  2
_1-5_寸法2
 70
   64
 62
    7
  6
CONTINUOUS
  0
LAYER
  2
ADD_LINE
 70
   64
 62
    7
  6
CONTINUOUS
  0
ENDTAB
  0
ENDSEC
  0
SECTION
  2
BLOCKS
  0
ENDSEC
  0
SECTION
  2
ENTITIES
  0
LINE
  8
_0-8_枠中線
  6
CONTINUOUS
 62
    5
 10
72
 20
72
 11
72
 21
1152
  0
LINE
  8
_0-8_枠中線
  6
CONTINUOUS
 62
    5
 10
72
 20
1152
 11
1710
 21
1152
  0
LINE
  8
_0-8_枠中線
  6
CONTINUOUS
 62
    5
 10
1710
 20
1152
 11
1710
 21
72
  0
LINE
  8
_0-8_枠中線
  6
CONTINUOUS
 62
    5
 10
1710
 20
72
 11
72
 21
72
  0
LINE
  8
_0-7_枠細線
  6
CONTINUOUS
 62
    5
 10
1422
 20
216
 11
1422
 21
120
  0
TEXT
  8
_0-7_枠細線
 62
    5
 10
1125
 20
117
 40
21
 41
1
 50
0
  1
備考
  7
TATEGAKI
  0
TEXT
  8
_0-7_枠細線
 62
    5
 10
1125
 20
165
 40
21
 41
1
 50
0
  1
品番
  7
TATEGAKI
  0
TEXT
  8
_0-7_枠細線
 62
    5
 10
1125
 20
213
 40
21
 41
1
 50
0
  1
品名
  7
TATEGAKI
  0
LINE
  8
_0-7_枠細線
  6
CONTINUOUS
 62
    5
 10
1422
 20
168
 11
1110
 21
168
  0
LINE
  8
_0-7_枠細線
  6
CONTINUOUS
 62
    5
 10
1140
 20
216
 11
1140
 21
72
  0
LINE
  8
_0-8_枠中線
  6
CONTINUOUS
 62
    5
 10
1710
 20
216
 11
1110
 21
216
  0
LINE
  8
_0-8_枠中線
  6
CONTINUOUS
 62
    5
 10
1110
 20
216
 11
1110
 21
72
  0
LINE
  8
_0-7_枠細線
  6
CONTINUOUS
 62
    5
 10
1494
 20
216
 11
1494
 21
72
  0
TEXT
  8
_0-7_枠細線
 62
    5
 10
1431
 20
192
 40
18
 41
1
 50
0
  1
縮　尺
  0
LINE
  8
_0-7_枠細線
  6
CONTINUOUS
 62
    5
 10
1422
 20
186
 11
1494
 21
186
  0
LINE
  8
_0-7_枠細線
  6
CONTINUOUS
 62
    5
 10
1494
 20
120
 11
1110
 21
120
  0
LINE
  8
_0-7_枠細線
  6
CONTINUOUS
 62
    5
 10
1710
 20
108
 11
1494
 21
108
  0
LINE
  8
_0-7_枠細線
  6
CONTINUOUS
 62
    5
 10
1494
 20
144
 11
1710
 21
144
  0
LINE
  8
_0-7_枠細線
  6
CONTINUOUS
 62
    5
 10
1710
 20
168
 11
1494
 21
168
  0
TEXT
  8
_0-7_枠細線
 62
    5
 10
1506
 20
177
 40
30
 41
0.8
 50
0
  1
株式会社シマブン
  0
TEXT
  8
_0-7_枠細線
 62
    5
 10
1503
 20
72
 40
18
 41
1
 50
0
  1
年月日
  0
TEXT
  8
_0-7_枠細線
 62
    5
 10
1503
 20
90
 40
18
 41
1
 50
0
  1
作　成
  0
TEXT
  8
_0-7_枠細線
 62
    5
 10
1507.5
 20
147
 40
18
 41
1
 50
0
  1
承 認
  0
LINE
  8
_0-7_枠細線
  6
CONTINUOUS
 62
    5
 10
1566
 20
168
 11
1566
 21
72
  0
TEXT
  8
_0-7_枠細線
 62
    5
 10
1579.5
 20
147
 40
18
 41
1
 50
0
  1
検 図
  0
LINE
  8
_0-7_枠細線
  6
CONTINUOUS
 62
    5
 10
1638
 20
168
 11
1638
 21
108
  0
TEXT
  8
_0-7_枠細線
 62
    5
 10
1651.5
 20
147
 40
18
 41
1
 50
0
  1
設 計
  0
LINE
  8
_0-7_枠細線
  6
CONTINUOUS
 62
    5
 10
1710
 20
1131
 11
1068
 21
1131
  0
TEXT
  8
_0-7_枠細線
 62
    5
 10
1074
 20
1133.9999999999995
 40
15
 41
1
 50
0
  1
記号
  0
TEXT
  8
_0-7_枠細線
 62
    5
 10
1196.25
 20
1134
 40
15
 41
1
 50
0
  1
訂　 正　 記　 事
  0
TEXT
  8
_0-7_枠細線
 62
    5
 10
1417.5
 20
1134
 40
15
 41
1
 50
0
  1
訂 正 年 月 日
  0
TEXT
  8
_0-7_枠細線
 62
    5
 10
1567.5
 20
1134
 40
15
 41
1
 50
0
  1
備　　　　　考
  0
LINE
  8
_0-7_枠細線
  6
CONTINUOUS
 62
    5
 10
1710
 20
1110
 11
1068
 21
1110
  0
TEXT
  8
_0-7_枠細線
 62
    5
 10
1650
 20
114
 40
24
 41
1
 50
0
  1
藤戸
  0
TEXT
  8
_0-7_枠細線
 62
    5
 10
1432.7999999999997
 20
141
 40
24
 41
0.6999999999999998
 50
0
  1
１：６
  0
LINE
  8
_0-1_計細線
  6
CONTINUOUS
 62
    3
 10
1723.4465993058161
 20
796.64196472428898
 11
1723.446594369296
 21
796.6433281967345
  0
LINE
  8
_0-7_枠細線
  6
CONTINUOUS
 62
    5
 10
1068
 20
1110
 11
1068
 21
1151.9999999999993
  0
LINE
  8
_0-7_枠細線
  6
CONTINUOUS
 62
    5
 10
1110
 20
1110
 11
1110
 21
1151.9999999999993
  0
LINE
  8
_0-7_枠細線
  6
CONTINUOUS
 62
    5
 10
1410
 20
1110
 11
1410
 21
1152
  0
LINE
  8
_0-7_枠細線
  6
CONTINUOUS
 62
    5
 10
1530
 20
1110
 11
1530
 21
1151.9999999999993
  0
TEXT
  8
_0-7_枠細線
 62
    5
 10
1506
 20
114
 40
24
 41
1
 50
0
  1
大野
  0
TEXT
  8
_0-7_枠細線
 62
    5
 10
1578
 20
114
 40
24
 41
1
 50
0
  1
深川
  0
TEXT
  8
_0-7_枠細線
 62
    5
 10
1572
 20
81
 40
18
 41
0.6666666666666666
 50
0
  1
２０１５年０４月０１日
  0
LINE
  8
_0-0_計極細
  6
CONTINUOUS
 62
    2
 10
745.11304121194621
 20
634.65787947158083
 11
771.11304143616076
 21
634.65787947158083
  0
LINE
  8
_0-0_計極細
  6
CONTINUOUS
 62
    2
 10
785.51304112999617
 20
634.65787947158083
 11
811.51304128848619
 21
634.65787947158083
  0
LINE
  8
_0-1_計細線
  6
CONTINUOUS
 62
    3
 10
810.06304118019636
 20
629.75787947158085
 11
810.06304118019636
 21
627.95787947160875
  0
LINE
  8
_0-1_計細線
  6
CONTINUOUS
 62
    3
 10
772.31304143616183
 20
647.45787947158249
 11
770.31304143616194
 21
645.45787947158249
  0
LINE
  8
_0-1_計細線
  6
CONTINUOUS
 62
    3
 10
770.31304143616194
 20
635.45787947158249
 11
770.31304143616194
 21
645.45787947158249
  0
LINE
  8
_0-1_計細線
  6
CONTINUOUS
 62
    3
 10
786.31304113000056
 20
645.45787947158249
 11
784.31304113000056
 21
647.45787947158249
  0
LINE
  8
_0-1_計細線
  6
CONTINUOUS
 62
    3
 10
786.31304113000056
 20
635.45787947158249
 11
786.31304113000056
 21
645.45787947158249
  0
LINE
  8
_0-1_計細線
  6
CONTINUOUS
 62
    3
 10
772.31304143616183
 20
631.45787947158237
 11
770.31304143616194
 21
629.45787947158249
  0
LINE
  8
_0-1_計細線
  6
CONTINUOUS
 62
    3
 10
772.31304143616183
 20
633.45787947158249
 11
772.31304143616183
 21
631.45787947158237
  0
LINE
  8
_0-1_計細線
  6
CONTINUOUS
 62
    3
 10
770.31304143616194
 20
635.45787947158249
 11
772.31304143616183
 21
633.45787947158249
  0
LINE
  8
_0-1_計細線
  6
CONTINUOUS
 62
    3
 10
784.31304113000056
 20
631.45787947158237
 11
786.31304113000056
 21
629.45787947158249
  0
LINE
  8
_0-1_計細線
  6
CONTINUOUS
 62
    3
 10
784.31304113000056
 20
633.45787947158249
 11
784.31304113000056
 21
631.45787947158237
  0
LINE
  8
_0-1_計細線
  6
CONTINUOUS
 62
    3
 10
786.31304113000056
 20
635.45787947158249
 11
784.31304113000056
 21
633.45787947158249
  0
LINE
  8
_0-1_計細線
  6
CONTINUOUS
 62
    3
 10
770.31304143616194
 20
629.45787947158249
 11
770.31304143616194
 21
615.45787947158249
  0
ARC
  8
_0-1_計細線
  6
CONTINUOUS
 62
    3
 10
773.31304143616194
 20
615.45787947158249
 40
3
 50
179.99999999999983
 51
269.99999999999977
  0
LINE
  8
_0-1_計細線
  6
CONTINUOUS
 62
    3
 10
773.31304143616194
 20
612.45787947158249
 11
783.31304113000056
 21
612.45787947158249
  0
LINE
  8
_0-1_計細線
  6
CONTINUOUS
 62
    3
 10
786.31304113000056
 20
629.45787947158249
 11
786.31304113000056
 21
615.45787947158249
  0
ARC
  8
_0-1_計細線
  6
CONTINUOUS
 62
    3
 10
783.31304113000056
 20
615.45787947158249
 40
3
 50
269.99999999999977
 51
359.99999999999966
  0
LINE
  8
_0-1_計細線
  6
CONTINUOUS
 62
    3
 10
811.51304128848653
 20
635.45787947158067
 11
811.51304128848653
 21
631.25787947158085
  0
LINE
  8
_0-1_計細線
  6
CONTINUOUS
 62
    3
 10
745.11304121194667
 20
635.45787947158067
 11
745.11304121194667
 21
631.25787947158085
  0
LINE
  8
_0-1_計細線
  6
CONTINUOUS
 62
    3
 10
810.01304128848653
 20
629.75787947158085
 11
786.01304113000174
 21
629.75787947158085
  0
LINE
  8
_0-1_計細線
  6
CONTINUOUS
 62
    3
 10
746.61304121194667
 20
629.75787947158085
 11
770.61304143616064
 21
629.75787947158085
  0
ARC
  8
_0-1_計細線
  6
CONTINUOUS
 62
    3
 10
746.61304121194667
 20
631.25787947158085
 40
1.5
 50
179.99999999999983
 51
269.99999999999977
  0
ARC
  8
_0-1_計細線
  6
CONTINUOUS
 62
    3
 10
810.01304128848653
 20
631.25787947158085
 40
1.5
 50
269.99999999999977
 51
359.99999999999966
  0
ARC
  8
_0-1_計細線
  6
CONTINUOUS
 62
    3
 10
807.06304118319633
 20
627.95787947160875
 40
2.9999999969999998
 50
269.99999999999977
 51
359.99999999999966
  0
LINE
  8
_0-0_計極細
  6
CONTINUOUS
 62
    2
 10
801.31304118894627
 20
624.95787947163876
 11
801.31304118894627
 21
614.95787947173892
  0
LINE
  8
_0-1_計細線
  6
CONTINUOUS
 62
    3
 10
804.31304118594676
 20
624.95787947163876
 11
804.31304118594676
 21
614.95787947173892
  0
LINE
  8
_0-1_計細線
  6
CONTINUOUS
 62
    3
 10
786.31304112999783
 20
624.95787947163876
 11
807.06304118319633
 21
624.95787947163876
  0
LINE
  8
_0-1_計細線
  6
CONTINUOUS
 62
    3
 10
786.31304112999783
 20
614.95787947173892
 11
804.31304118594676
 21
614.95787947173892
  0
LINE
  8
_0-1_計細線
  6
CONTINUOUS
 62
    3
 10
746.56304124369649
 20
629.75787947158085
 11
746.56304124369649
 21
627.95787947160875
  0
ARC
  8
_0-1_計細線
  6
CONTINUOUS
 62
    3
 10
749.56304124069652
 20
627.95787947160875
 40
2.9999999969999998
 50
179.99999999999983
 51
269.99999999999977
  0
LINE
  8
_0-0_計極細
  6
CONTINUOUS
 62
    2
 10
755.3130412349467
 20
624.95787947163876
 11
755.3130412349467
 21
614.95787947173892
  0
LINE
  8
_0-1_計細線
  6
CONTINUOUS
 62
    3
 10
752.31304123794621
 20
624.95787947163876
 11
752.31304123794621
 21
614.95787947173892
  0
LINE
  8
_0-1_計細線
  6
CONTINUOUS
 62
    3
 10
770.31304129389503
 20
624.95787947163876
 11
749.56304124069652
 21
624.95787947163876
  0
LINE
  8
_0-1_計細線
  6
CONTINUOUS
 62
    3
 10
770.31304129389503
 20
614.95787947173892
 11
752.31304123794621
 21
614.95787947173892
  0
LINE
  8
_0-0_計極細
  6
CONTINUOUS
 62
    2
 10
778.31304121194694
 20
591.4548168049057
 11
801.66304118859648
 21
591.4548168049057
  0
LINE
  8
_0-1_計細線
  6
CONTINUOUS
 62
    3
 10
778.31304121194694
 20
590.45787947158146
 11
800.66304118959636
 21
590.45787947158146
  0
LINE
  8
_0-0_計極細
  6
CONTINUOUS
 62
    2
 10
800.66304118959636
 20
614.95787947173892
 11
800.66304118959636
 21
590.45787947158146
  0
LINE
  8
_0-1_計細線
  6
CONTINUOUS
 62
    3
 10
801.66304118859648
 20
614.95787947173892
 11
801.66304118859648
 21
591.4548168049057
  0
LINE
  8
_0-0_計極細
  6
CONTINUOUS
 62
    2
 10
778.31304121194694
 20
591.4548168049057
 11
754.9630412352974
 21
591.4548168049057
  0
LINE
  8
_0-1_計細線
  6
CONTINUOUS
 62
    3
 10
778.31304121194694
 20
590.45787947158146
 11
755.96304123429741
 21
590.45787947158146
  0
LINE
  8
_0-0_計極細
  6
CONTINUOUS
 62
    2
 10
755.96304123429741
 20
614.95787947173892
 11
755.96304123429741
 21
590.45787947158146
  0
LINE
  8
_0-1_計細線
  6
CONTINUOUS
 62
    3
 10
754.9630412352974
 20
614.95787947173892
 11
754.9630412352974
 21
591.4548168049057
  0
LINE
  8
_0-1_計細線
  6
CONTINUOUS
 62
    3
 10
801.66304118859648
 20
591.4548168049057
 11
800.66304118959636
 21
590.45787947158146
  0
LINE
  8
_0-1_計細線
  6
CONTINUOUS
 62
    3
 10
754.9630412352974
 20
591.4548168049057
 11
755.96304123429741
 21
590.45787947158146
  0
LINE
  8
_0-5_寸法線
  6
CONTINUOUS
 62
    7
 10
759.5842231494737
 20
600.35561656854668
 11
756.43920872924173
 21
588.77507753547343
  0
LINE
  8
_0-5_寸法線
  6
CONTINUOUS
 62
    7
 10
759.5842231494737
 20
600.35561656854668
 11
751.07029124974781
 21
591.89908278650387
  0
LINE
  8
_0-5_寸法線
  6
CONTINUOUS
 62
    7
 10
759.5842231494737
 20
600.35561656854668
 11
733.57454922815054
 21
555.65537385734592
  0
LINE
  8
_0-5_寸法線
  6
CONTINUOUS
 62
    7
 10
733.57454922815054
 20
555.65537385734592
 11
690.37454922815061
 21
555.65537385734592
  0
TEXT
  8
_0-5_寸法線
 62
    7
 10
690.3745492281505
 20
555.65537385734592
 40
18
 41
0.7999999999999998
 50
0
  1
排水口
  0
LINE
  8
_0-5_寸法線
  6
CONTINUOUS
 62
    7
 10
816.31304118594676
 20
614.95787947173881
 11
870.31304118594676
 21
614.95787947173812
  0
LINE
  8
_0-5_寸法線
  6
CONTINUOUS
 62
    7
 10
864.31304118594676
 20
614.95787947173824
 11
861.20721264471649
 21
626.54898938720703
  0
LINE
  8
_0-5_寸法線
  6
CONTINUOUS
 62
    7
 10
864.31304118594676
 20
614.95787947173824
 11
867.41886972717691
 21
626.54898938720703
  0
LINE
  8
_0-5_寸法線
  6
CONTINUOUS
 62
    7
 10
816.31304118594676
 20
655.45787947158101
 11
870.31304118594676
 21
655.45787947158033
  0
LINE
  8
_0-5_寸法線
  6
CONTINUOUS
 62
    7
 10
864.31304118594676
 20
655.45787947158033
 11
867.41886972717691
 21
643.86676955611165
  0
LINE
  8
_0-5_寸法線
  6
CONTINUOUS
 62
    7
 10
864.31304118594676
 20
655.45787947158033
 11
861.20721264471649
 21
643.86676955611165
  0
LINE
  8
_0-5_寸法線
  6
CONTINUOUS
 62
    7
 10
864.31304118594676
 20
614.95787947173824
 11
864.31304118594676
 21
655.45787947158033
  0
TEXT
  8
_0-5_寸法線
 62
    7
 10
864.31304118594676
 20
616.38558052521932
 40
18
 41
1
 50
90
  1
42
  0
LINE
  8
_0-5_寸法線
  6
CONTINUOUS
 62
    7
 10
754.96304123529717
 20
579.4548168049057
 11
754.96304123529694
 21
525.4548168049057
  0
LINE
  8
_0-5_寸法線
  6
CONTINUOUS
 62
    7
 10
754.96304123529694
 20
531.4548168049057
 11
766.55415115076562
 21
534.56064534613608
  0
LINE
  8
_0-5_寸法線
  6
CONTINUOUS
 62
    7
 10
754.96304123529694
 20
531.4548168049057
 11
766.55415115076562
 21
528.34898826367555
  0
LINE
  8
_0-5_寸法線
  6
CONTINUOUS
 62
    7
 10
801.66304118859625
 20
579.4548168049057
 11
801.66304118859603
 21
525.4548168049057
  0
LINE
  8
_0-5_寸法線
  6
CONTINUOUS
 62
    7
 10
801.66304118859603
 20
531.4548168049057
 11
790.07193127312712
 21
528.34898826367566
  0
LINE
  8
_0-5_寸法線
  6
CONTINUOUS
 62
    7
 10
801.66304118859603
 20
531.4548168049057
 11
790.07193127312712
 21
534.56064534613608
  0
LINE
  8
_0-5_寸法線
  6
CONTINUOUS
 62
    7
 10
754.96304123529694
 20
531.4548168049057
 11
801.66304118859603
 21
531.4548168049057
  0
TEXT
  8
_0-5_寸法線
 62
    7
 10
760.31304121194648
 20
531.4548168049057
 40
18
 41
1
 50
0
  1
46.7
  0
LINE
  8
_1-3_細線2
  6
CONTINUOUS
 62
    4
 10
376.32888421547221
 20
337.02027097951634
 11
376.32888421547221
 21
331.62027097960072
  0
LINE
  8
_1-3_細線2
  6
CONTINUOUS
 62
    4
 10
185.82888440597225
 20
337.02027097951623
 11
203.39762627135198
 21
337.02027097951623
  0
LINE
  8
_1-3_細線2
  6
CONTINUOUS
 62
    4
 10
203.39762627135198
 20
337.02027097951634
 11
211.02888438077292
 21
322.61935007656939
  0
LINE
  8
_1-3_細線2
  6
CONTINUOUS
 62
    4
 10
185.82888440597225
 20
337.02027097951634
 11
185.82888440597225
 21
331.62027097960072
  0
ARC
  8
_1-3_細線2
  6
CONTINUOUS
 62
    4
 10
211.1125363806886
 20
346.32027097945343
 40
4.4999999954999996
 50
7.188977151592951
 51
89.999999999999929
  0
LINE
  8
_1-3_細線2
  6
CONTINUOUS
 62
    4
 10
211.1125363806886
 20
350.82027097940841
 11
184.32888440747223
 21
350.82027097940841
  0
LINE
  8
_1-3_細線2
  6
CONTINUOUS
 62
    4
 10
281.0788843107224
 20
350.82027097940841
 11
211.1125363806886
 21
350.82027097940841
  0
LINE
  8
_1-3_細線2
  6
CONTINUOUS
 62
    4
 10
215.57716095457027
 20
346.88341161356743
 11
221.07888437072228
 21
303.11234569560054
  0
LINE
  8
_1-3_細線2
  6
CONTINUOUS
 62
    4
 10
221.07888437072228
 20
303.11234569560054
 11
221.07888437072228
 21
278.22027098013496
  0
LINE
  8
_1-3_細線2
  6
CONTINUOUS
 62
    4
 10
194.82888439697234
 20
322.62027097969076
 11
203.07888438872209
 21
322.62027097969076
  0
LINE
  8
_1-3_細線2
  6
CONTINUOUS
 62
    4
 10
203.07888438872209
 20
322.62027097969076
 11
203.07888438872209
 21
292.62027097999066
  0
LINE
  8
_1-3_細線2
  6
CONTINUOUS
 62
    4
 10
211.02888438077292
 20
292.62027097999066
 11
203.07888438872209
 21
292.62027097999066
  0
LINE
  8
_1-3_細線2
  6
CONTINUOUS
 62
    4
 10
211.02888438077292
 20
322.61935007656939
 11
211.02888438077292
 21
292.62027097999066
  0
LINE
  8
_1-3_細線2
  6
CONTINUOUS
 62
    4
 10
211.02888438077292
 20
292.62027097999066
 11
211.02888438077292
 21
227.21108298064519
  0
ARC
  8
_1-3_細線2
  6
CONTINUOUS
 62
    4
 10
194.82888439697234
 20
331.62027097960072
 40
8.9999999909999993
 50
179.99999999999983
 51
269.99999999999977
  0
LINE
  8
_1-3_細線2
  6
CONTINUOUS
 62
    4
 10
211.02888438077292
 20
337.32027097954347
 11
211.02888438077292
 21
322.62027097969076
  0
LINE
  8
_1-3_細線2
  6
CONTINUOUS
 62
    4
 10
214.02888437777295
 20
292.62027097999066
 11
211.02888438077292
 21
292.62027097999066
  0
LINE
  8
_1-3_細線2
  6
CONTINUOUS
 62
    4
 10
377.07888421472217
 20
343.32027097948344
 11
377.07888421472217
 21
340.02027097951623
  0
ARC
  8
_1-3_細線2
  6
CONTINUOUS
 62
    4
 10
367.3288842244724
 20
331.62027097960072
 40
8.9999999909999993
 50
269.99999999999977
 51
359.99999999999966
  0
LINE
  8
_1-3_細線2
  6
CONTINUOUS
 62
    4
 10
350.07888424172228
 20
322.62027097969076
 11
350.07888424172228
 21
292.62027097999066
  0
LINE
  8
_1-3_細線2
  6
CONTINUOUS
 62
    4
 10
359.07888423272254
 20
322.62027097969076
 11
359.07888423272254
 21
292.62027097999066
  0
LINE
  8
_1-3_細線2
  6
CONTINUOUS
 62
    4
 10
377.82888421397223
 20
343.32027097948344
 11
377.82888421397223
 21
350.82027097940841
  0
LINE
  8
_1-3_細線2
  6
CONTINUOUS
 62
    4
 10
267.73662832406461
 20
295.15742697996552
 11
270.98147232082056
 21
295.62962297996069
  0
LINE
  8
_1-3_細線2
  6
CONTINUOUS
 62
    4
 10
274.30313631749812
 20
295.96949897995728
 11
277.67634031412422
 21
296.1744629799548
  0
LINE
  8
_1-3_細線2
  6
CONTINUOUS
 62
    4
 10
270.98147232082056
 20
295.62962297996069
 11
274.30313631749812
 21
295.96949897995728
  0
LINE
  8
_1-3_細線2
  6
CONTINUOUS
 62
    4
 10
277.67634031412422
 20
296.1744629799548
 11
281.07541231072554
 21
296.24295897995398
  0
LINE
  8
_1-3_細線2
  6
CONTINUOUS
 62
    4
 10
261.57541233022533
 20
293.83141897997893
 11
264.593300327208
 21
294.55649897997091
  0
LINE
  8
_1-3_細線2
  6
CONTINUOUS
 62
    4
 10
258.70593233309563
 20
292.98769497998705
 11
261.57541233022533
 21
293.83141897997893
  0
LINE
  8
_1-3_細線2
  6
CONTINUOUS
 62
    4
 10
251.19968034060093
 20
289.81313898001895
 11
253.49824833830439
 21
290.97088298000722
  0
LINE
  8
_1-3_細線2
  6
CONTINUOUS
 62
    4
 10
245.72941234607191
 20
285.85008698005845
 11
247.30042434450127
 21
287.2429589800438
  0
LINE
  8
_1-3_細線2
  6
CONTINUOUS
 62
    4
 10
249.12848434267283
 20
288.56733498003109
 11
251.19968034060093
 21
289.81313898001895
  0
LINE
  8
_1-3_細線2
  6
CONTINUOUS
 62
    4
 10
247.30042434450127
 20
287.2429589800438
 11
249.12848434267283
 21
288.56733498003109
  0
LINE
  8
_1-3_細線2
  6
CONTINUOUS
 62
    4
 10
253.49824833830439
 20
290.97088298000722
 11
256.00669633579423
 21
292.03175897999631
  0
LINE
  8
_1-3_細線2
  6
CONTINUOUS
 62
    4
 10
256.00669633579423
 20
292.03175897999631
 11
258.70593233309563
 21
292.98769497998705
  0
LINE
  8
_1-3_細線2
  6
CONTINUOUS
 62
    4
 10
281.0788843107224
 20
296.2202709799551
 11
221.07888437072228
 21
296.2202709799551
  0
LINE
  8
_1-3_細線2
  6
CONTINUOUS
 62
    4
 10
264.593300327208
 20
294.55649897997091
 11
267.73662832406461
 21
295.15742697996552
  0
LINE
  8
_1-3_細線2
  6
CONTINUOUS
 62
    4
 10
290.07888430172233
 20
322.62027097969076
 11
290.07888430172233
 21
292.62027097999066
  0
ARC
  8
_1-3_細線2
  6
CONTINUOUS
 62
    4
 10
211.1125363806886
 20
346.32027097945343
 40
2.9999999970000006
 50
7.1641169999940004
 51
89.999999999999915
  0
ARC
  8
_1-3_細線2
  6
CONTINUOUS
 62
    4
 10
205.02888438677286
 20
337.32027097954347
 40
5.9999999940000013
 50
0
 51
89.999999999999915
  0
LINE
  8
_1-3_細線2
  6
CONTINUOUS
 62
    4
 10
185.07888440672215
 20
343.32027097948344
 11
185.07888440672215
 21
340.02027097951623
  0
LINE
  8
_1-3_細線2
  6
CONTINUOUS
 62
    4
 10
210.38705638141479
 20
340.02027097951623
 11
185.07888440672215
 21
340.02027097951623
  0
LINE
  8
_1-3_細線2
  6
CONTINUOUS
 62
    4
 10
205.02888438677286
 20
343.32027097948344
 11
184.32888440747223
 21
343.32027097948344
  0
LINE
  8
_1-3_細線2
  6
CONTINUOUS
 62
    4
 10
211.1125363806886
 20
349.32027097942341
 11
184.32888440747223
 21
349.32027097942341
  0
LINE
  8
_1-3_細線2
  6
CONTINUOUS
 62
    4
 10
217.7218803740779
 20
329.8202709796185
 11
216.2100803755913
 21
329.8202709796185
  0
LINE
  8
_1-3_細線2
  6
CONTINUOUS
 62
    4
 10
211.02888438077292
 20
328.32027097963351
 11
214.02888437777295
 21
328.32027097963351
  0
LINE
  8
_1-3_細線2
  6
CONTINUOUS
 62
    4
 10
211.02888438077292
 20
322.62027097969076
 11
214.02888437777295
 21
322.62027097969076
  0
LINE
  8
_1-3_細線2
  6
CONTINUOUS
 62
    4
 10
214.08911637771254
 20
346.69440697944913
 11
216.2100803755913
 21
329.8202709796185
  0
LINE
  8
_1-3_細線2
  6
CONTINUOUS
 62
    4
 10
184.32888440747223
 20
343.32027097948344
 11
184.32888440747223
 21
350.82027097940841
  0
LINE
  8
_1-3_細線2
  6
CONTINUOUS
 62
    4
 10
281.0788843107224
 20
322.62027097969076
 11
367.3288842244724
 21
322.62027097969076
  0
LINE
  8
_1-3_細線2
  6
CONTINUOUS
 62
    4
 10
281.0788843107224
 20
292.62027097999066
 11
359.07888423272254
 21
292.62027097999066
  0
LINE
  8
_1-3_細線2
  6
CONTINUOUS
 62
    4
 10
281.0788843107224
 20
350.82027097940841
 11
377.82888421397223
 21
350.82027097940841
  0
LINE
  8
_1-3_細線2
  6
CONTINUOUS
 62
    4
 10
281.0788843107224
 20
343.32027097948344
 11
377.82888421397223
 21
343.32027097948344
  0
LINE
  8
_1-3_細線2
  6
CONTINUOUS
 62
    4
 10
281.0788843107224
 20
340.02027097951623
 11
377.07888421472217
 21
340.02027097951623
  0
LINE
  8
_1-3_細線2
  6
CONTINUOUS
 62
    4
 10
351.10516424069596
 20
227.18736298064437
 11
348.10400424369749
 21
224.186206980675
  0
LINE
  8
_1-3_細線2
  6
CONTINUOUS
 62
    4
 10
243.40430834839546
 20
282.90170298008775
 11
244.42740034737378
 21
284.39932298007284
  0
LINE
  8
_1-3_細線2
  6
CONTINUOUS
 62
    4
 10
242.66791234913327
 20
281.36862698010327
 11
243.40430834839546
 21
282.90170298008775
  0
LINE
  8
_1-3_細線2
  6
CONTINUOUS
 62
    4
 10
231.57888436022239
 20
281.91059498009736
 11
231.57888436022239
 21
278.22027098013496
  0
LINE
  8
_1-3_細線2
  6
CONTINUOUS
 62
    4
 10
242.07541234972538
 20
278.24295898013384
 11
242.22382034957784
 21
279.81176298011883
  0
LINE
  8
_1-3_細線2
  6
CONTINUOUS
 62
    4
 10
242.22382034957784
 20
279.81176298011883
 11
242.66791234913327
 21
281.36862698010327
  0
LINE
  8
_1-3_細線2
  6
CONTINUOUS
 62
    4
 10
281.0788843107224
 20
278.22027098013496
 11
221.07888437072228
 21
278.22027098013496
  0
LINE
  8
_1-3_細線2
  6
CONTINUOUS
 62
    4
 10
281.0788843107224
 20
269.220270980225
 11
221.07888437072228
 21
269.220270980225
  0
LINE
  8
_1-3_細線2
  6
CONTINUOUS
 62
    4
 10
221.07888437072228
 20
269.220270980225
 11
221.07888437072228
 21
224.22027098067494
  0
LINE
  8
_1-3_細線2
  6
CONTINUOUS
 62
    4
 10
211.05260438074851
 20
227.18736298064437
 11
214.05376437774697
 21
224.186206980675
  0
LINE
  8
_1-3_細線2
  6
CONTINUOUS
 62
    4
 10
281.0788843107224
 20
224.22027098067494
 11
214.02888437777295
 21
224.22027098067494
  0
LINE
  8
_1-3_細線2
  6
CONTINUOUS
 62
    4
 10
281.0788843107224
 20
227.22027098064493
 11
351.12888424067154
 21
227.22027098064493
  0
LINE
  8
_1-3_細線2
  6
CONTINUOUS
 62
    4
 10
281.0788843107224
 20
224.22027098067494
 11
348.12888424367151
 21
224.22027098067494
  0
LINE
  8
_1-3_細線2
  6
CONTINUOUS
 62
    4
 10
214.02888437777295
 20
328.32027097963351
 11
214.02888437777295
 21
224.22027098067494
  0
LINE
  8
_1-3_細線2
  6
CONTINUOUS
 62
    4
 10
348.12888424367151
 20
292.62027097999066
 11
348.12888424367151
 21
224.22027098067494
  0
LINE
  8
_1-3_細線2
  6
CONTINUOUS
 62
    4
 10
351.12888424067154
 20
292.62027097999066
 11
351.12888424067154
 21
227.21108298064519
  0
ARC
  8
_1-3_細線2
  6
CONTINUOUS
 62
    4
 10
216.57888437522223
 20
281.91059498009736
 40
14.999999984999999
 50
0
 51
72.549879000004722
  0
LINE
  8
_1-3_細線2
  6
CONTINUOUS
 62
    4
 10
244.42740034737378
 20
284.39932298007284
 11
245.72941234607191
 21
285.85008698005845
  0
LINE
  8
_1-2_極細2
  6
CONTINUOUS
 62
    2
 10
448.72910414307165
 20
370.22277497921505
 11
411.68899618011233
 21
333.18266697958438
  0
LINE
  8
_1-2_極細2
  6
CONTINUOUS
 62
    2
 10
445.9006761458993
 20
373.05120297918563
 11
408.86056818294009
 21
336.0110949795569
  0
LINE
  8
_1-2_極細2
  6
CONTINUOUS
 62
    2
 10
161.38021243042061
 20
373.70677897918017
 11
124.34010446746126
 21
336.66667097954951
  0
LINE
  8
_1-2_極細2
  6
CONTINUOUS
 62
    2
 10
164.20864042759283
 20
370.87835097920765
 11
127.16853246463185
 21
333.83824697957834
  0
LINE
  8
_1-2_極細2
  6
CONTINUOUS
 62
    2
 10
354.5788843107224
 20
337.02027097951623
 11
281.0788843107224
 21
337.02027097951623
  0
LINE
  8
_1-2_極細2
  6
CONTINUOUS
 62
    2
 10
354.5788843107224
 20
340.02027097951623
 11
281.0788843107224
 21
340.02027097951623
  0
LINE
  8
_1-2_極細2
  6
CONTINUOUS
 62
    2
 10
377.0788843107224
 20
340.02027097951623
 11
354.5788843107224
 21
340.02027097951623
  0
LINE
  8
_1-2_極細2
  6
CONTINUOUS
 62
    2
 10
377.0788843107224
 20
337.02027097951623
 11
354.5788843107224
 21
337.02027097951623
  0
LINE
  8
_1-2_極細2
  6
CONTINUOUS
 62
    2
 10
354.5788843107224
 20
337.02027097951623
 11
354.5788843107224
 21
340.02027097951623
  0
LINE
  8
_1-2_極細2
  6
CONTINUOUS
 62
    2
 10
383.0788843107224
 20
357.12027097951704
 11
281.0788843107224
 21
357.12027097951704
  0
ARC
  8
_1-2_極細2
  6
CONTINUOUS
 62
    2
 10
383.0788843107224
 20
352.62027097951704
 40
4.5
 50
89.999999999999915
 51
179.99999999999983
  0
LINE
  8
_1-2_極細2
  6
CONTINUOUS
 62
    2
 10
378.5788843107224
 20
341.52027097951623
 11
378.5788843107224
 21
352.62027097951704
  0
ARC
  8
_1-2_極細2
  6
CONTINUOUS
 62
    2
 10
377.0788843107224
 20
341.52027097951623
 40
4.5
 50
269.99999999999977
 51
359.99999999999966
  0
LINE
  8
_1-2_極細2
  6
CONTINUOUS
 62
    2
 10
381.5788843107224
 20
352.62027097951704
 11
381.5788843107224
 21
341.52027097951623
  0
ARC
  8
_1-2_極細2
  6
CONTINUOUS
 62
    2
 10
383.0788843107224
 20
352.62027097951704
 40
1.5
 50
89.999999999999915
 51
179.99999999999983
  0
ARC
  8
_1-2_極細2
  6
CONTINUOUS
 62
    2
 10
377.0788843107224
 20
341.52027097951623
 40
1.5
 50
269.99999999999977
 51
359.99999999999966
  0
LINE
  8
_1-2_極細2
  6
CONTINUOUS
 62
    2
 10
429.96974416200231
 20
357.12027097951704
 11
383.0788843107224
 21
357.12027097951704
  0
LINE
  8
_1-2_極細2
  6
CONTINUOUS
 62
    2
 10
426.96974416497227
 20
354.12027097951704
 11
383.0788843107224
 21
354.12027097951704
  0
LINE
  8
_1-2_極細2
  6
CONTINUOUS
 62
    2
 10
185.0788843107224
 20
340.02027097951623
 11
207.5788843107224
 21
340.02027097951623
  0
LINE
  8
_1-2_極細2
  6
CONTINUOUS
 62
    2
 10
185.0788843107224
 20
337.02027097951623
 11
207.5788843107224
 21
337.02027097951623
  0
LINE
  8
_1-2_極細2
  6
CONTINUOUS
 62
    2
 10
207.5788843107224
 20
337.02027097951623
 11
207.5788843107224
 21
340.02027097951623
  0
ARC
  8
_1-2_極細2
  6
CONTINUOUS
 62
    2
 10
179.0788843107224
 20
352.62027097951704
 40
4.5
 50
0
 51
89.999999999999915
  0
LINE
  8
_1-2_極細2
  6
CONTINUOUS
 62
    2
 10
183.5788843107224
 20
341.52027097951623
 11
183.5788843107224
 21
352.62027097951704
  0
ARC
  8
_1-2_極細2
  6
CONTINUOUS
 62
    2
 10
185.0788843107224
 20
341.52027097951623
 40
4.5
 50
179.99999999999983
 51
269.99999999999977
  0
LINE
  8
_1-2_極細2
  6
CONTINUOUS
 62
    2
 10
180.5788843107224
 20
352.62027097951704
 11
180.5788843107224
 21
341.52027097951623
  0
ARC
  8
_1-2_極細2
  6
CONTINUOUS
 62
    2
 10
179.0788843107224
 20
352.62027097951704
 40
1.5
 50
0
 51
89.999999999999915
  0
ARC
  8
_1-2_極細2
  6
CONTINUOUS
 62
    2
 10
185.0788843107224
 20
341.52027097951623
 40
1.5
 50
179.99999999999983
 51
269.99999999999977
  0
LINE
  8
_1-2_極細2
  6
CONTINUOUS
 62
    2
 10
150.45055895577269
 20
357.12027097951704
 11
179.0788843107224
 21
357.12027097951704
  0
LINE
  8
_1-2_極細2
  6
CONTINUOUS
 62
    2
 10
147.45055863476944
 20
354.12027097951704
 11
179.0788843107224
 21
354.12027097951704
  0
LINE
  8
_1-2_極細2
  6
CONTINUOUS
 62
    2
 10
425.75275708200945
 20
354.12027097951727
 11
428.75275708200911
 21
357.12027097951704
  0
LINE
  8
_1-2_極細2
  6
CONTINUOUS
 62
    2
 10
423.2071726697377
 20
354.12027097951716
 11
426.20717266973759
 21
357.12027097951704
  0
LINE
  8
_1-2_極細2
  6
CONTINUOUS
 62
    2
 10
420.66158825746624
 20
354.12027097951727
 11
423.66158825746606
 21
357.12027097951704
  0
LINE
  8
_1-2_極細2
  6
CONTINUOUS
 62
    2
 10
418.11600384519454
 20
354.12027097951716
 11
421.11600384519454
 21
357.12027097951704
  0
LINE
  8
_1-2_極細2
  6
CONTINUOUS
 62
    2
 10
415.57041943292319
 20
354.12027097951727
 11
418.57041943292302
 21
357.12027097951716
  0
LINE
  8
_1-2_極細2
  6
CONTINUOUS
 62
    2
 10
413.02483502065149
 20
354.12027097951716
 11
416.02483502065149
 21
357.12027097951704
  0
LINE
  8
_1-2_極細2
  6
CONTINUOUS
 62
    2
 10
410.47925060837997
 20
354.12027097951727
 11
413.47925060837997
 21
357.12027097951716
  0
LINE
  8
_1-2_極細2
  6
CONTINUOUS
 62
    2
 10
407.93366619610845
 20
354.12027097951716
 11
410.93366619610845
 21
357.12027097951704
  0
LINE
  8
_1-2_極細2
  6
CONTINUOUS
 62
    2
 10
405.38808178383692
 20
354.12027097951727
 11
408.38808178383692
 21
357.12027097951716
  0
LINE
  8
_1-2_極細2
  6
CONTINUOUS
 62
    2
 10
402.8424973715654
 20
354.12027097951716
 11
405.84249737156523
 21
357.12027097951704
  0
LINE
  8
_1-2_極細2
  6
CONTINUOUS
 62
    2
 10
400.29691295929388
 20
354.12027097951727
 11
403.29691295929365
 21
357.12027097951716
  0
LINE
  8
_1-2_極細2
  6
CONTINUOUS
 62
    2
 10
397.75132854702218
 20
354.12027097951727
 11
400.75132854702218
 21
357.12027097951716
  0
LINE
  8
_1-2_極細2
  6
CONTINUOUS
 62
    2
 10
378.26483042840152
 20
337.17935727316797
 11
381.41979801707066
 21
340.33432486183733
  0
LINE
  8
_1-2_極細2
  6
CONTINUOUS
 62
    2
 10
395.20574413475083
 20
354.12027097951727
 11
398.2057441347506
 21
357.12027097951716
  0
LINE
  8
_1-2_極細2
  6
CONTINUOUS
 62
    2
 10
375.56015972247832
 20
337.02027097951634
 11
381.57888431072251
 21
343.03899556776048
  0
LINE
  8
_1-2_極細2
  6
CONTINUOUS
 62
    2
 10
392.66015972247914
 20
354.12027097951716
 11
395.66015972247914
 21
357.12027097951704
  0
LINE
  8
_1-2_極細2
  6
CONTINUOUS
 62
    2
 10
373.01457531020662
 20
337.02027097951623
 11
376.01457531020662
 21
340.02027097951623
  0
LINE
  8
_1-2_極細2
  6
CONTINUOUS
 62
    2
 10
378.5788843107224
 20
342.58457998003212
 11
381.5788843107224
 21
345.58457998003212
  0
LINE
  8
_1-2_極細2
  6
CONTINUOUS
 62
    2
 10
390.11457531020778
 20
354.12027097951727
 11
393.11457531020744
 21
357.12027097951716
  0
LINE
  8
_1-2_極細2
  6
CONTINUOUS
 62
    2
 10
370.4689908979351
 20
337.02027097951634
 11
373.4689908979351
 21
340.02027097951634
  0
LINE
  8
_1-2_極細2
  6
CONTINUOUS
 62
    2
 10
378.57888431072251
 20
345.13016439230375
 11
381.5788843107224
 21
348.13016439230364
  0
LINE
  8
_1-2_極細2
  6
CONTINUOUS
 62
    2
 10
387.56899089793609
 20
354.12027097951716
 11
390.56899089793592
 21
357.12027097951704
  0
LINE
  8
_1-2_極細2
  6
CONTINUOUS
 62
    2
 10
367.92340648566358
 20
337.02027097951623
 11
370.92340648566358
 21
340.02027097951623
  0
LINE
  8
_1-2_極細2
  6
CONTINUOUS
 62
    2
 10
378.5788843107224
 20
347.67574880457516
 11
381.57888431072251
 21
350.67574880457516
  0
LINE
  8
_1-2_極細2
  6
CONTINUOUS
 62
    2
 10
385.02340648566451
 20
354.12027097951727
 11
388.0234064856644
 21
357.12027097951716
  0
LINE
  8
_1-2_極細2
  6
CONTINUOUS
 62
    2
 10
365.37782207339205
 20
337.02027097951634
 11
368.37782207339205
 21
340.02027097951645
  0
LINE
  8
_1-2_極細2
  6
CONTINUOUS
 62
    2
 10
378.57888431072251
 20
350.2213332168468
 11
381.88211924005986
 21
353.52456814618392
  0
LINE
  8
_1-2_極細2
  6
CONTINUOUS
 62
    2
 10
382.17458714405552
 20
353.81703605017981
 11
385.47782207339287
 21
357.12027097951716
  0
LINE
  8
_1-2_極細2
  6
CONTINUOUS
 62
    2
 10
362.83223766112053
 20
337.02027097951623
 11
365.83223766112053
 21
340.02027097951634
  0
LINE
  8
_1-2_極細2
  6
CONTINUOUS
 62
    2
 10
378.58135567628847
 20
352.76938899468428
 11
382.92976629555523
 21
357.11779961395098
  0
LINE
  8
_1-2_極細2
  6
CONTINUOUS
 62
    2
 10
360.28665324884901
 20
337.02027097951634
 11
363.28665324884901
 21
340.02027097951634
  0
LINE
  8
_1-2_極細2
  6
CONTINUOUS
 62
    2
 10
357.74106883657731
 20
337.02027097951623
 11
360.74106883657748
 21
340.02027097951623
  0
LINE
  8
_1-2_極細2
  6
CONTINUOUS
 62
    2
 10
355.19548442430596
 20
337.02027097951634
 11
358.19548442430596
 21
340.02027097951634
  0
LINE
  8
_1-2_極細2
  6
CONTINUOUS
 62
    2
 10
354.5788843107224
 20
338.94925527820442
 11
355.64990001203427
 21
340.02027097951623
  0
LINE
  8
_1-2_極細2
  6
CONTINUOUS
 62
    2
 10
352.64990001203375
 20
337.02027097951623
 11
354.5788843107224
 21
338.94925527820487
  0
LINE
  8
_1-2_極細2
  6
CONTINUOUS
 62
    2
 10
350.10431559976223
 20
337.02027097951634
 11
353.10431559976223
 21
340.02027097951634
  0
LINE
  8
_1-2_極細2
  6
CONTINUOUS
 62
    2
 10
347.55873118749071
 20
337.02027097951623
 11
350.55873118749071
 21
340.02027097951623
  0
LINE
  8
_1-2_極細2
  6
CONTINUOUS
 62
    2
 10
345.01314677521918
 20
337.02027097951634
 11
348.01314677521918
 21
340.02027097951645
  0
LINE
  8
_1-2_極細2
  6
CONTINUOUS
 62
    2
 10
342.46756236294766
 20
337.02027097951634
 11
345.46756236294766
 21
340.02027097951634
  0
LINE
  8
_1-2_極細2
  6
CONTINUOUS
 62
    2
 10
339.92197795067614
 20
337.02027097951634
 11
342.92197795067614
 21
340.02027097951634
  0
LINE
  8
_1-2_極細2
  6
CONTINUOUS
 62
    2
 10
337.37639353840444
 20
337.02027097951623
 11
340.37639353840461
 21
340.02027097951634
  0
LINE
  8
_1-2_極細2
  6
CONTINUOUS
 62
    2
 10
334.83080912613309
 20
337.02027097951634
 11
337.83080912613309
 21
340.02027097951634
  0
LINE
  8
_1-2_極細2
  6
CONTINUOUS
 62
    2
 10
332.2852247138614
 20
337.02027097951623
 11
335.2852247138614
 21
340.02027097951623
  0
LINE
  8
_1-2_極細2
  6
CONTINUOUS
 62
    2
 10
329.73964030158982
 20
337.02027097951645
 11
332.73964030159004
 21
340.02027097951645
  0
LINE
  8
_1-2_極細2
  6
CONTINUOUS
 62
    2
 10
327.19405588931835
 20
337.02027097951634
 11
330.19405588931835
 21
340.02027097951634
  0
LINE
  8
_1-2_極細2
  6
CONTINUOUS
 62
    2
 10
324.64847147704677
 20
337.02027097951634
 11
327.64847147704677
 21
340.02027097951645
  0
LINE
  8
_1-2_極細2
  6
CONTINUOUS
 62
    2
 10
322.10288706477513
 20
337.02027097951634
 11
325.1028870647753
 21
340.02027097951634
  0
LINE
  8
_1-2_極細2
  6
CONTINUOUS
 62
    2
 10
319.55730265250372
 20
337.02027097951634
 11
322.55730265250372
 21
340.02027097951634
  0
LINE
  8
_1-2_極細2
  6
CONTINUOUS
 62
    2
 10
317.01171824023209
 20
337.02027097951623
 11
320.01171824023209
 21
340.02027097951634
  0
LINE
  8
_1-2_極細2
  6
CONTINUOUS
 62
    2
 10
314.46613382796056
 20
337.02027097951623
 11
317.46613382796068
 21
340.02027097951634
  0
LINE
  8
_1-2_極細2
  6
CONTINUOUS
 62
    2
 10
311.92054941568904
 20
337.02027097951634
 11
314.92054941568904
 21
340.02027097951634
  0
LINE
  8
_1-2_極細2
  6
CONTINUOUS
 62
    2
 10
309.37496500341751
 20
337.02027097951623
 11
312.37496500341751
 21
340.02027097951634
  0
LINE
  8
_1-2_極細2
  6
CONTINUOUS
 62
    2
 10
306.82938059114599
 20
337.02027097951634
 11
309.82938059114599
 21
340.02027097951634
  0
LINE
  8
_1-2_極細2
  6
CONTINUOUS
 62
    2
 10
304.28379617887447
 20
337.02027097951623
 11
307.28379617887447
 21
340.02027097951623
  0
LINE
  8
_1-2_極細2
  6
CONTINUOUS
 62
    2
 10
301.73821176660294
 20
337.02027097951634
 11
304.73821176660294
 21
340.02027097951634
  0
LINE
  8
_1-2_極細2
  6
CONTINUOUS
 62
    2
 10
299.19262735433125
 20
337.02027097951623
 11
302.19262735433125
 21
340.02027097951623
  0
LINE
  8
_1-2_極細2
  6
CONTINUOUS
 62
    2
 10
296.64704294205967
 20
337.02027097951623
 11
299.64704294205967
 21
340.02027097951634
  0
LINE
  8
_1-2_極細2
  6
CONTINUOUS
 62
    2
 10
294.1014585297882
 20
337.02027097951623
 11
297.1014585297882
 21
340.02027097951634
  0
LINE
  8
_1-2_極細2
  6
CONTINUOUS
 62
    2
 10
291.55587411751662
 20
337.02027097951634
 11
294.55587411751662
 21
340.02027097951634
  0
LINE
  8
_1-2_極細2
  6
CONTINUOUS
 62
    2
 10
289.01028970524499
 20
337.02027097951623
 11
292.01028970524499
 21
340.02027097951623
  0
LINE
  8
_1-2_極細2
  6
CONTINUOUS
 62
    2
 10
286.46470529297346
 20
337.02027097951634
 11
289.46470529297358
 21
340.02027097951634
  0
LINE
  8
_1-2_極細2
  6
CONTINUOUS
 62
    2
 10
283.91912088070194
 20
337.02027097951623
 11
286.91912088070194
 21
340.02027097951623
  0
LINE
  8
_1-2_極細2
  6
CONTINUOUS
 62
    2
 10
281.37353646843042
 20
337.02027097951623
 11
284.37353646843042
 21
340.02027097951634
  0
LINE
  8
_1-2_極細2
  6
CONTINUOUS
 62
    2
 10
281.07888431072251
 20
339.27120323407985
 11
281.82795205615889
 21
340.02027097951634
  0
LINE
  8
_1-2_極細2
  6
CONTINUOUS
 62
    2
 10
207.55158851255419
 20
337.02027097951634
 11
207.57888431072249
 21
337.04756677768466
  0
LINE
  8
_1-2_極細2
  6
CONTINUOUS
 62
    2
 10
205.0060041002825
 20
337.02027097951634
 11
207.57888431072249
 21
339.59315118995619
  0
LINE
  8
_1-2_極細2
  6
CONTINUOUS
 62
    2
 10
202.46041968801089
 20
337.02027097951623
 11
205.46041968801089
 21
340.02027097951634
  0
LINE
  8
_1-2_極細2
  6
CONTINUOUS
 62
    2
 10
199.91483527573945
 20
337.02027097951623
 11
202.91483527573945
 21
340.02027097951634
  0
LINE
  8
_1-2_極細2
  6
CONTINUOUS
 62
    2
 10
197.36925086346784
 20
337.02027097951623
 11
200.36925086346784
 21
340.02027097951623
  0
LINE
  8
_1-2_極細2
  6
CONTINUOUS
 62
    2
 10
194.8236664511964
 20
337.02027097951634
 11
197.8236664511964
 21
340.02027097951634
  0
LINE
  8
_1-2_極細2
  6
CONTINUOUS
 62
    2
 10
192.27808203892479
 20
337.02027097951634
 11
195.27808203892479
 21
340.02027097951634
  0
LINE
  8
_1-2_極細2
  6
CONTINUOUS
 62
    2
 10
189.73249762665327
 20
337.02027097951634
 11
192.73249762665336
 21
340.02027097951634
  0
LINE
  8
_1-2_極細2
  6
CONTINUOUS
 62
    2
 10
187.18691321438175
 20
337.02027097951634
 11
190.18691321438175
 21
340.02027097951634
  0
LINE
  8
_1-2_極細2
  6
CONTINUOUS
 62
    2
 10
184.66079314474393
 20
337.03973532215014
 11
187.64132880211022
 21
340.02027097951634
  0
LINE
  8
_1-2_極細2
  6
CONTINUOUS
 62
    2
 10
182.74704189059429
 20
337.67156848027184
 11
185.09574438983861
 21
340.02027097951634
  0
LINE
  8
_1-2_極細2
  6
CONTINUOUS
 62
    2
 10
181.42438973267019
 20
338.89450073461944
 11
183.63692764136175
 21
341.10703864331094
  0
LINE
  8
_1-2_極細2
  6
CONTINUOUS
 62
    2
 10
180.65903564354738
 20
340.6747310577681
 11
183.5788843107224
 21
343.59457972494329
  0
LINE
  8
_1-2_極細2
  6
CONTINUOUS
 62
    2
 10
180.5788843107224
 20
343.1401641372147
 11
183.5788843107224
 21
346.1401641372147
  0
LINE
  8
_1-2_極細2
  6
CONTINUOUS
 62
    2
 10
180.5788843107224
 20
345.68574854948633
 11
183.57888431072249
 21
348.68574854948633
  0
LINE
  8
_1-2_極細2
  6
CONTINUOUS
 62
    2
 10
180.5788843107224
 20
348.23133296175786
 11
183.57888431072249
 21
351.23133296175786
  0
LINE
  8
_1-2_極細2
  6
CONTINUOUS
 62
    2
 10
180.57888431072249
 20
350.77691737402938
 11
183.45805011015085
 21
353.65608317345789
  0
LINE
  8
_1-2_極細2
  6
CONTINUOUS
 62
    2
 10
180.4605664849573
 20
353.20418396053572
 11
182.6346488668141
 21
355.37826634239264
  0
LINE
  8
_1-2_極細2
  6
CONTINUOUS
 62
    2
 10
178.83106909166725
 20
354.12027097951727
 11
181.2645984899147
 21
356.5538003777649
  0
LINE
  8
_1-2_極細2
  6
CONTINUOUS
 62
    2
 10
176.28548467939547
 20
354.12027097951727
 11
179.28094584977995
 21
357.11573214990165
  0
LINE
  8
_1-2_極細2
  6
CONTINUOUS
 62
    2
 10
173.73990026712403
 20
354.12027097951727
 11
176.73990026712403
 21
357.12027097951716
  0
LINE
  8
_1-2_極細2
  6
CONTINUOUS
 62
    2
 10
171.19431585485242
 20
354.12027097951727
 11
174.19431585485242
 21
357.12027097951716
  0
LINE
  8
_1-2_極細2
  6
CONTINUOUS
 62
    2
 10
168.64873144258098
 20
354.12027097951727
 11
171.64873144258098
 21
357.12027097951716
  0
LINE
  8
_1-2_極細2
  6
CONTINUOUS
 62
    2
 10
166.10314703030937
 20
354.12027097951716
 11
169.10314703030937
 21
357.12027097951716
  0
LINE
  8
_1-2_極細2
  6
CONTINUOUS
 62
    2
 10
163.55756261803793
 20
354.12027097951727
 11
166.55756261803785
 21
357.12027097951727
  0
LINE
  8
_1-2_極細2
  6
CONTINUOUS
 62
    2
 10
161.01197820576633
 20
354.12027097951716
 11
164.01197820576624
 21
357.12027097951716
  0
LINE
  8
_1-2_極細2
  6
CONTINUOUS
 62
    2
 10
158.4663937934948
 20
354.12027097951716
 11
161.46639379349472
 21
357.12027097951716
  0
LINE
  8
_1-2_極細2
  6
CONTINUOUS
 62
    2
 10
155.92080938122319
 20
354.12027097951716
 11
158.92080938122319
 21
357.12027097951716
  0
LINE
  8
_1-2_極細2
  6
CONTINUOUS
 62
    2
 10
153.37522496895167
 20
354.12027097951716
 11
156.37522496895167
 21
357.12027097951716
  0
LINE
  8
_1-2_極細2
  6
CONTINUOUS
 62
    2
 10
150.82964055667998
 20
354.12027097951716
 11
153.82964055667998
 21
357.12027097951704
  0
LINE
  8
_1-2_極細2
  6
CONTINUOUS
 62
    2
 10
148.28405614440845
 20
354.12027097951727
 11
151.28405614440845
 21
357.12027097951716
  0
LINE
  8
_1-2_極細2
  6
CONTINUOUS
 62
    2
 10
203.07888438872209
 20
294.89676451077435
 11
205.35537791950566
 21
292.62027097999066
  0
LINE
  8
_1-2_極細2
  6
CONTINUOUS
 62
    2
 10
203.07888438872209
 20
297.44234892304576
 11
207.90096233177718
 21
292.62027097999066
  0
LINE
  8
_1-2_極細2
  6
CONTINUOUS
 62
    2
 10
203.07888438872209
 20
299.98793333531739
 11
210.44654674404887
 21
292.62027097999066
  0
LINE
  8
_1-2_極細2
  6
CONTINUOUS
 62
    2
 10
203.07888438872209
 20
302.53351774758903
 11
211.02888438077292
 21
294.5835177555382
  0
LINE
  8
_1-2_極細2
  6
CONTINUOUS
 62
    2
 10
203.07888438872209
 20
305.07910215986055
 11
211.02888438077292
 21
297.12910216780961
  0
LINE
  8
_1-2_極細2
  6
CONTINUOUS
 62
    2
 10
203.07888438872209
 20
307.62468657213208
 11
211.02888438077292
 21
299.67468658008124
  0
LINE
  8
_1-2_極細2
  6
CONTINUOUS
 62
    2
 10
203.07888438872209
 20
310.17027098440371
 11
211.02888438077292
 21
302.22027099235288
  0
LINE
  8
_1-2_極細2
  6
CONTINUOUS
 62
    2
 10
186.02017447993904
 20
329.77456530545851
 11
192.98317872283013
 21
322.81156106256742
  0
LINE
  8
_1-2_極細2
  6
CONTINUOUS
 62
    2
 10
203.07888438872209
 20
312.71585539667535
 11
211.02888438077292
 21
304.76585540462452
  0
LINE
  8
_1-2_極細2
  6
CONTINUOUS
 62
    2
 10
185.82888440597225
 20
332.51143979169706
 11
195.72005321003093
 21
322.62027098763815
  0
LINE
  8
_1-2_極細2
  6
CONTINUOUS
 62
    2
 10
203.07888438872209
 20
315.26143980894688
 11
211.02888438077292
 21
307.31143981689604
  0
LINE
  8
_1-2_極細2
  6
CONTINUOUS
 62
    2
 10
185.82888440597225
 20
335.05702420396869
 11
198.26563762505174
 21
322.62027098488898
  0
LINE
  8
_1-2_極細2
  6
CONTINUOUS
 62
    2
 10
203.07888438872209
 20
317.80702422121851
 11
211.02888438077292
 21
309.85702422916768
  0
LINE
  8
_1-2_極細2
  6
CONTINUOUS
 62
    2
 10
186.41122204269612
 20
337.02027097951623
 11
200.81122204007247
 21
322.6202709821398
  0
LINE
  8
_1-2_極細2
  6
CONTINUOUS
 62
    2
 10
203.07888438872209
 20
320.35260863349004
 11
211.02888438077292
 21
312.4026086414392
  0
LINE
  8
_1-2_極細2
  6
CONTINUOUS
 62
    2
 10
188.95680645496765
 20
337.02027097951623
 11
211.02888438077292
 21
314.94819305371084
  0
LINE
  8
_1-2_極細2
  6
CONTINUOUS
 62
    2
 10
191.50239086723917
 20
337.02027097951623
 11
211.02888438077292
 21
317.49377746598236
  0
LINE
  8
_1-2_極細2
  6
CONTINUOUS
 62
    2
 10
194.04797527951069
 20
337.02027097951623
 11
211.02888438077292
 21
320.03936187825389
  0
LINE
  8
_1-2_極細2
  6
CONTINUOUS
 62
    2
 10
196.59355969178239
 20
337.02027097951623
 11
211.02888438077292
 21
322.58494629052552
  0
LINE
  8
_1-2_極細2
  6
CONTINUOUS
 62
    2
 10
199.13914410405391
 20
337.02027097951623
 11
208.19809825410675
 21
327.96131682946339
  0
LINE
  8
_1-2_極細2
  6
CONTINUOUS
 62
    2
 10
201.68472851632544
 20
337.02027097951623
 11
205.32852966821781
 21
333.37646982762385
  0
LINE
  8
_1-2_極細2
  6
CONTINUOUS
 62
    2
 10
209.32148175314018
 20
292.62027097999066
 11
211.02888438077292
 21
294.32767360762341
  0
LINE
  8
_1-2_極細2
  6
CONTINUOUS
 62
    2
 10
206.77589734086857
 20
292.62027097999066
 11
211.02888438077292
 21
296.87325801989505
  0
LINE
  8
_1-2_極細2
  6
CONTINUOUS
 62
    2
 10
204.23031292859704
 20
292.62027097999066
 11
211.02888438077292
 21
299.41884243216646
  0
LINE
  8
_1-2_極細2
  6
CONTINUOUS
 62
    2
 10
203.07888438872209
 20
294.01442685238726
 11
211.02888438077292
 21
301.96442684443809
  0
LINE
  8
_1-2_極細2
  6
CONTINUOUS
 62
    2
 10
203.07888438872209
 20
296.5600112646589
 11
211.02888438077292
 21
304.51001125670962
  0
LINE
  8
_1-2_極細2
  6
CONTINUOUS
 62
    2
 10
203.07888438872209
 20
299.10559567693053
 11
211.02888438077292
 21
307.05559566898114
  0
LINE
  8
_1-2_極細2
  6
CONTINUOUS
 62
    2
 10
203.07888438872209
 20
301.65118008920206
 11
211.02888438077292
 21
309.60118008125278
  0
LINE
  8
_1-2_極細2
  6
CONTINUOUS
 62
    2
 10
203.07888438872209
 20
304.19676450147358
 11
211.02888438077292
 21
312.1467644935243
  0
LINE
  8
_1-2_極細2
  6
CONTINUOUS
 62
    2
 10
203.07888438872209
 20
306.74234891374522
 11
211.02888438077292
 21
314.69234890579582
  0
LINE
  8
_1-2_極細2
  6
CONTINUOUS
 62
    2
 10
203.07888438872209
 20
309.28793332601674
 11
211.02888438077292
 21
317.23793331806746
  0
LINE
  8
_1-2_極細2
  6
CONTINUOUS
 62
    2
 10
203.07888438872209
 20
311.83351773828826
 11
211.02888438077292
 21
319.78351773033899
  0
LINE
  8
_1-2_極細2
  6
CONTINUOUS
 62
    2
 10
203.07888438872209
 20
314.3791021505599
 11
211.02888438077292
 21
322.32910214261051
  0
LINE
  8
_1-2_極細2
  6
CONTINUOUS
 62
    2
 10
203.07888438872209
 20
316.92468656283143
 11
210.2477063238982
 21
324.0935084980074
  0
LINE
  8
_1-2_極細2
  6
CONTINUOUS
 62
    2
 10
203.07888438872209
 20
319.47027097510295
 11
209.36599545551525
 21
325.75738204189611
  0
LINE
  8
_1-2_極細2
  6
CONTINUOUS
 62
    2
 10
203.07888438872209
 20
322.01585538737459
 11
208.48428458713238
 21
327.42125558578471
  0
LINE
  8
_1-2_極細2
  6
CONTINUOUS
 62
    2
 10
201.13771557086318
 20
322.62027098178714
 11
207.60257371874943
 21
329.08512912967331
  0
LINE
  8
_1-2_極細2
  6
CONTINUOUS
 62
    2
 10
198.59213116134077
 20
322.62027098453632
 11
206.72086285036647
 21
330.74900267356202
  0
LINE
  8
_1-2_極細2
  6
CONTINUOUS
 62
    2
 10
196.04654675181854
 20
322.62027098728561
 11
205.8391519819836
 21
332.41287621745062
  0
LINE
  8
_1-2_極細2
  6
CONTINUOUS
 62
    2
 10
193.58704930539952
 20
322.70635795313819
 11
204.95744111360065
 21
334.07674976133922
  0
LINE
  8
_1-2_極細2
  6
CONTINUOUS
 62
    2
 10
191.5672048961182
 20
323.23209795612843
 11
204.0757302452177
 21
335.74062330522793
  0
LINE
  8
_1-2_極細2
  6
CONTINUOUS
 62
    2
 10
189.88758743591575
 20
324.09806490819756
 11
202.80979350723439
 21
337.02027097951623
  0
LINE
  8
_1-2_極細2
  6
CONTINUOUS
 62
    2
 10
188.4826102315223
 20
325.2386721160758
 11
200.26420909496295
 21
337.02027097951623
  0
LINE
  8
_1-2_極細2
  6
CONTINUOUS
 62
    2
 10
187.33479236970345
 20
326.63643866652831
 11
197.71862468269134
 21
337.02027097951623
  0
LINE
  8
_1-2_極細2
  6
CONTINUOUS
 62
    2
 10
186.46061902523189
 20
328.30784973432844
 11
195.17304027041982
 21
337.02027097951623
  0
LINE
  8
_1-2_極細2
  6
CONTINUOUS
 62
    2
 10
185.92380229587155
 20
330.31661741723974
 11
192.62745585814821
 21
337.02027097951623
  0
LINE
  8
_1-2_極細2
  6
CONTINUOUS
 62
    2
 10
185.82888440597225
 20
332.76728393961184
 11
190.08187144587669
 21
337.02027097951623
  0
LINE
  8
_1-2_極細2
  6
CONTINUOUS
 62
    2
 10
185.82888440597225
 20
335.31286835188337
 11
187.53628703360499
 21
337.02027097951623
  0
LINE
  8
_1-2_極細2
  6
CONTINUOUS
 62
    2
 10
209.65942025722467
 20
340.02027097951634
 11
210.1255271267473
 21
340.48637784903894
  0
LINE
  8
_1-2_極細2
  6
CONTINUOUS
 62
    2
 10
208.8108921198006
 20
340.02027097951634
 11
209.77789428708886
 21
340.98727314680468
  0
LINE
  8
_1-2_極細2
  6
CONTINUOUS
 62
    2
 10
207.96236398237687
 20
340.02027097951634
 11
209.38665846688383
 21
341.4445654640233
  0
LINE
  8
_1-2_極細2
  6
CONTINUOUS
 62
    2
 10
207.11383584495314
 20
340.02027097951634
 11
208.95284080079176
 21
341.85927593535484
  0
LINE
  8
_1-2_極細2
  6
CONTINUOUS
 62
    2
 10
206.26530770752942
 20
340.02027097951634
 11
208.47614926410432
 21
342.23111253609125
  0
LINE
  8
_1-2_極細2
  6
CONTINUOUS
 62
    2
 10
205.41677957010526
 20
340.02027097951634
 11
207.95493227036326
 21
342.55842367977425
  0
LINE
  8
_1-2_極細2
  6
CONTINUOUS
 62
    2
 10
204.56825143268154
 20
340.02027097951634
 11
207.38590200737843
 21
342.83792155421315
  0
LINE
  8
_1-2_極細2
  6
CONTINUOUS
 62
    2
 10
203.71972329525781
 20
340.02027097951634
 11
206.76350921110765
 21
343.06405689536609
  0
LINE
  8
_1-2_極細2
  6
CONTINUOUS
 62
    2
 10
202.87119515783408
 20
340.02027097951634
 11
206.07864779893177
 21
343.22772362061414
  0
LINE
  8
_1-2_極細2
  6
CONTINUOUS
 62
    2
 10
202.0226670204101
 20
340.02027097951634
 11
205.31580290190044
 21
343.31340686100623
  0
LINE
  8
_1-2_極細2
  6
CONTINUOUS
 62
    2
 10
201.17413888298637
 20
340.02027097951634
 11
204.47413887717272
 21
343.32027097370269
  0
LINE
  8
_1-2_極細2
  6
CONTINUOUS
 62
    2
 10
200.32561074556264
 20
340.02027097951634
 11
203.62561073999242
 21
343.32027097394621
  0
LINE
  8
_1-2_極細2
  6
CONTINUOUS
 62
    2
 10
199.47708260813891
 20
340.02027097951634
 11
202.77708260281221
 21
343.32027097418961
  0
LINE
  8
_1-2_極細2
  6
CONTINUOUS
 62
    2
 10
198.62855447071485
 20
340.02027097951634
 11
201.92855446563175
 21
343.32027097443324
  0
LINE
  8
_1-2_極細2
  6
CONTINUOUS
 62
    2
 10
197.78002633329112
 20
340.02027097951634
 11
201.08002632845154
 21
343.32027097467665
  0
LINE
  8
_1-2_極細2
  6
CONTINUOUS
 62
    2
 10
196.93149819586739
 20
340.02027097951634
 11
200.23149819127133
 21
343.32027097492005
  0
LINE
  8
_1-2_極細2
  6
CONTINUOUS
 62
    2
 10
196.08297005844366
 20
340.02027097951634
 11
199.38297005409069
 21
343.32027097516357
  0
LINE
  8
_1-2_極細2
  6
CONTINUOUS
 62
    2
 10
195.2344419210196
 20
340.02027097951634
 11
198.53444191691057
 21
343.32027097540708
  0
LINE
  8
_1-2_極細2
  6
CONTINUOUS
 62
    2
 10
194.38591378359587
 20
340.02027097951634
 11
197.68591377973036
 21
343.3202709756506
  0
LINE
  8
_1-2_極細2
  6
CONTINUOUS
 62
    2
 10
193.53738564617214
 20
340.02027097951634
 11
196.8373856425498
 21
343.32027097589412
  0
LINE
  8
_1-2_極細2
  6
CONTINUOUS
 62
    2
 10
192.68885750874841
 20
340.02027097951634
 11
195.98885750536959
 21
343.32027097613764
  0
LINE
  8
_1-2_極細2
  6
CONTINUOUS
 62
    2
 10
191.84032937132426
 20
340.02027097951634
 11
195.14032936818938
 21
343.32027097638115
  0
LINE
  8
_1-2_極細2
  6
CONTINUOUS
 62
    2
 10
190.99180123390053
 20
340.02027097951634
 11
194.29180123100875
 21
343.32027097662456
  0
LINE
  8
_1-2_極細2
  6
CONTINUOUS
 62
    2
 10
190.1432730964768
 20
340.02027097951634
 11
193.44327309382854
 21
343.32027097686807
  0
LINE
  8
_1-2_極細2
  6
CONTINUOUS
 62
    2
 10
189.29474495905308
 20
340.02027097951634
 11
192.59474495664833
 21
343.32027097711159
  0
LINE
  8
_1-2_極細2
  6
CONTINUOUS
 62
    2
 10
188.44621682162909
 20
340.02027097951634
 11
191.74621681946786
 21
343.32027097735499
  0
LINE
  8
_1-2_極細2
  6
CONTINUOUS
 62
    2
 10
187.59768868420537
 20
340.02027097951634
 11
190.89768868228765
 21
343.32027097759851
  0
LINE
  8
_1-2_極細2
  6
CONTINUOUS
 62
    2
 10
186.74916054678164
 20
340.02027097951634
 11
190.04916054510744
 21
343.32027097784203
  0
LINE
  8
_1-2_極細2
  6
CONTINUOUS
 62
    2
 10
185.90063240935791
 20
340.02027097951634
 11
189.20063240792689
 21
343.32027097808555
  0
LINE
  8
_1-2_極細2
  6
CONTINUOUS
 62
    2
 10
185.07888440672215
 20
340.04705111430462
 11
188.35210427074668
 21
343.32027097832895
  0
LINE
  8
_1-2_極細2
  6
CONTINUOUS
 62
    2
 10
185.07888440672215
 20
340.89557925172835
 11
187.50357613356638
 21
343.32027097857258
  0
LINE
  8
_1-2_極細2
  6
CONTINUOUS
 62
    2
 10
185.07888440672215
 20
341.74410738915219
 11
186.65504799638592
 21
343.32027097881598
  0
LINE
  8
_1-2_極細2
  6
CONTINUOUS
 62
    2
 10
185.07888440672215
 20
342.59263552657603
 11
185.80651985920571
 21
343.32027097905939
  0
LINE
  8
_1-2_極細2
  6
CONTINUOUS
 62
    2
 10
210.35914501423548
 20
340.07496180998578
 11
207.78357521721495
 21
342.65053160700609
  0
LINE
  8
_1-2_極細2
  6
CONTINUOUS
 62
    2
 10
209.56530770728085
 20
340.02027097951634
 11
206.43157255454031
 21
343.15400613225688
  0
LINE
  8
_1-2_極細2
  6
CONTINUOUS
 62
    2
 10
208.71677956985712
 20
340.02027097951634
 11
205.43021694099895
 21
343.30683360837452
  0
LINE
  8
_1-2_極細2
  6
CONTINUOUS
 62
    2
 10
207.8682514324334
 20
340.02027097951634
 11
204.56825143827399
 21
343.32027097367563
  0
LINE
  8
_1-2_極細2
  6
CONTINUOUS
 62
    2
 10
207.01972329500967
 20
340.02027097951634
 11
203.71972330060674
 21
343.32027097391915
  0
LINE
  8
_1-2_極細2
  6
CONTINUOUS
 62
    2
 10
206.17119515758594
 20
340.02027097951634
 11
202.8711951629395
 21
343.32027097416267
  0
LINE
  8
_1-2_極細2
  6
CONTINUOUS
 62
    2
 10
205.32266702016221
 20
340.02027097951634
 11
202.02266702527226
 21
343.32027097440607
  0
LINE
  8
_1-2_極細2
  6
CONTINUOUS
 62
    2
 10
204.47413888273849
 20
340.02027097951634
 11
201.17413888760501
 21
343.32027097464959
  0
LINE
  8
_1-2_極細2
  6
CONTINUOUS
 62
    2
 10
203.62561074531476
 20
340.02027097951634
 11
200.32561074993777
 21
343.32027097489322
  0
LINE
  8
_1-2_極細2
  6
CONTINUOUS
 62
    2
 10
202.77708260789061
 20
340.02027097951634
 11
199.47708261227052
 21
343.32027097513662
  0
LINE
  8
_1-2_極細2
  6
CONTINUOUS
 62
    2
 10
201.92855447046688
 20
340.02027097951634
 11
198.62855447460328
 21
343.32027097538003
  0
LINE
  8
_1-2_極細2
  6
CONTINUOUS
 62
    2
 10
201.08002633304315
 20
340.02027097951634
 11
197.78002633693603
 21
343.32027097562366
  0
LINE
  8
_1-2_極細2
  6
CONTINUOUS
 62
    2
 10
200.23149819561942
 20
340.02027097951634
 11
196.93149819926879
 21
343.32027097586706
  0
LINE
  8
_1-2_極細2
  6
CONTINUOUS
 62
    2
 10
199.3829700581957
 20
340.02027097951634
 11
196.08297006160154
 21
343.32027097611058
  0
LINE
  8
_1-2_極細2
  6
CONTINUOUS
 62
    2
 10
198.53444192077197
 20
340.02027097951634
 11
195.2344419239343
 21
343.3202709763541
  0
LINE
  8
_1-2_極細2
  6
CONTINUOUS
 62
    2
 10
197.68591378334824
 20
340.02027097951634
 11
194.38591378626705
 21
343.32027097659761
  0
LINE
  8
_1-2_極細2
  6
CONTINUOUS
 62
    2
 10
196.83738564592451
 20
340.02027097951634
 11
193.53738564859981
 21
343.32027097684113
  0
LINE
  8
_1-2_極細2
  6
CONTINUOUS
 62
    2
 10
195.98885750850053
 20
340.02027097951634
 11
192.68885751093256
 21
343.32027097708453
  0
LINE
  8
_1-2_極細2
  6
CONTINUOUS
 62
    2
 10
195.1403293710768
 20
340.02027097951634
 11
191.84032937326532
 21
343.32027097732816
  0
LINE
  8
_1-2_極細2
  6
CONTINUOUS
 62
    2
 10
194.29180123365308
 20
340.02027097951634
 11
190.99180123559773
 21
343.32027097757145
  0
LINE
  8
_1-2_極細2
  6
CONTINUOUS
 62
    2
 10
193.44327309622935
 20
340.02027097951634
 11
190.14327309793083
 21
343.32027097781497
  0
LINE
  8
_1-2_極細2
  6
CONTINUOUS
 62
    2
 10
192.59474495880562
 20
340.02027097951634
 11
189.29474496026316
 21
343.32027097805849
  0
LINE
  8
_1-2_極細2
  6
CONTINUOUS
 62
    2
 10
191.74621682138189
 20
340.02027097951634
 11
188.44621682259591
 21
343.32027097830201
  0
LINE
  8
_1-2_極細2
  6
CONTINUOUS
 62
    2
 10
190.89768868395817
 20
340.02027097951634
 11
187.59768868492867
 21
343.32027097854552
  0
LINE
  8
_1-2_極細2
  6
CONTINUOUS
 62
    2
 10
190.04916054653444
 20
340.02027097951634
 11
186.74916054726151
 21
343.32027097878904
  0
LINE
  8
_1-2_極細2
  6
CONTINUOUS
 62
    2
 10
189.20063240911037
 20
340.02027097951634
 11
185.90063240959427
 21
343.32027097903244
  0
LINE
  8
_1-2_極細2
  6
CONTINUOUS
 62
    2
 10
188.35210427168664
 20
340.02027097951634
 11
185.07888440672215
 21
343.29349084448086
  0
LINE
  8
_1-2_極細2
  6
CONTINUOUS
 62
    2
 10
187.50357613426291
 20
340.02027097951634
 11
185.07888440672215
 21
342.44496270705702
  0
LINE
  8
_1-2_極細2
  6
CONTINUOUS
 62
    2
 10
186.65504799683919
 20
340.02027097951634
 11
185.07888440672215
 21
341.59643456963329
  0
LINE
  8
_1-2_極細2
  6
CONTINUOUS
 62
    2
 10
185.80651985941546
 20
340.02027097951634
 11
185.07888440672215
 21
340.74790643220945
  0
LINE
  8
_1-2_極細2
  6
CONTINUOUS
 62
    2
 10
376.64351623332226
 20
340.02027097951634
 11
377.07888421472256
 21
340.45563896091664
  0
LINE
  8
_1-2_極細2
  6
CONTINUOUS
 62
    2
 10
375.79498809589853
 20
340.02027097951634
 11
377.07888421472256
 21
341.30416709834037
  0
LINE
  8
_1-2_極細2
  6
CONTINUOUS
 62
    2
 10
374.9464599584748
 20
340.02027097951634
 11
377.07888421472256
 21
342.15269523576421
  0
LINE
  8
_1-2_極細2
  6
CONTINUOUS
 62
    2
 10
374.09793182105108
 20
340.02027097951634
 11
377.07888421472256
 21
343.00122337318794
  0
LINE
  8
_1-2_極細2
  6
CONTINUOUS
 62
    2
 10
373.24940368362718
 20
340.02027097951634
 11
376.54940368359433
 21
343.32027097948344
  0
LINE
  8
_1-2_極細2
  6
CONTINUOUS
 62
    2
 10
372.40087554620345
 20
340.02027097951634
 11
375.70087554617061
 21
343.32027097948344
  0
LINE
  8
_1-2_極細2
  6
CONTINUOUS
 62
    2
 10
371.55234740877972
 20
340.02027097951634
 11
374.85234740874648
 21
343.32027097948344
  0
LINE
  8
_1-2_極細2
  6
CONTINUOUS
 62
    2
 10
370.703819271356
 20
340.02027097951634
 11
374.00381927132275
 21
343.32027097948344
  0
LINE
  8
_1-2_極細2
  6
CONTINUOUS
 62
    2
 10
369.85529113393176
 20
340.02027097951634
 11
373.15529113389903
 21
343.32027097948344
  0
LINE
  8
_1-2_極細2
  6
CONTINUOUS
 62
    2
 10
369.00676299650803
 20
340.02027097951634
 11
372.30676299647502
 21
343.32027097948344
  0
LINE
  8
_1-2_極細2
  6
CONTINUOUS
 62
    2
 10
368.1582348590843
 20
340.02027097951634
 11
371.45823485905129
 21
343.32027097948344
  0
LINE
  8
_1-2_極細2
  6
CONTINUOUS
 62
    2
 10
367.30970672166058
 20
340.02027097951634
 11
370.60970672162756
 21
343.32027097948344
  0
LINE
  8
_1-2_極細2
  6
CONTINUOUS
 62
    2
 10
366.46117858423645
 20
340.02027097951634
 11
369.76117858420383
 21
343.32027097948344
  0
LINE
  8
_1-2_極細2
  6
CONTINUOUS
 62
    2
 10
365.61265044681272
 20
340.02027097951634
 11
368.91265044678011
 21
343.32027097948344
  0
LINE
  8
_1-2_極細2
  6
CONTINUOUS
 62
    2
 10
364.76412230938899
 20
340.02027097951634
 11
368.06412230935621
 21
343.32027097948344
  0
LINE
  8
_1-2_極細2
  6
CONTINUOUS
 62
    2
 10
363.91559417196527
 20
340.02027097951634
 11
367.21559417193248
 21
343.32027097948344
  0
LINE
  8
_1-2_極細2
  6
CONTINUOUS
 62
    2
 10
363.06706603454126
 20
340.02027097951634
 11
366.36706603450875
 21
343.32027097948344
  0
LINE
  8
_1-2_極細2
  6
CONTINUOUS
 62
    2
 10
362.21853789711753
 20
340.02027097951634
 11
365.51853789708503
 21
343.32027097948344
  0
LINE
  8
_1-2_極細2
  6
CONTINUOUS
 62
    2
 10
361.3700097596938
 20
340.02027097951634
 11
364.67000975966079
 21
343.32027097948344
  0
LINE
  8
_1-2_極細2
  6
CONTINUOUS
 62
    2
 10
360.52148162227007
 20
340.02027097951634
 11
363.82148162223706
 21
343.32027097948344
  0
LINE
  8
_1-2_極細2
  6
CONTINUOUS
 62
    2
 10
359.67295348484595
 20
340.02027097951634
 11
362.97295348481333
 21
343.32027097948344
  0
LINE
  8
_1-2_極細2
  6
CONTINUOUS
 62
    2
 10
358.82442534742222
 20
340.02027097951634
 11
362.1244253473896
 21
343.32027097948344
  0
LINE
  8
_1-2_極細2
  6
CONTINUOUS
 62
    2
 10
357.97589720999849
 20
340.02027097951634
 11
361.27589720996548
 21
343.32027097948344
  0
LINE
  8
_1-2_極細2
  6
CONTINUOUS
 62
    2
 10
357.12736907257477
 20
340.02027097951634
 11
360.42736907254175
 21
343.32027097948344
  0
LINE
  8
_1-2_極細2
  6
CONTINUOUS
 62
    2
 10
356.27884093515092
 20
340.02027097951634
 11
359.57884093511802
 21
343.32027097948344
  0
LINE
  8
_1-2_極細2
  6
CONTINUOUS
 62
    2
 10
355.4303127977272
 20
340.02027097951634
 11
358.7303127976943
 21
343.32027097948344
  0
LINE
  8
_1-2_極細2
  6
CONTINUOUS
 62
    2
 10
354.58178466030347
 20
340.02027097951634
 11
357.88178466027028
 21
343.32027097948344
  0
LINE
  8
_1-2_極細2
  6
CONTINUOUS
 62
    2
 10
353.73325652287974
 20
340.02027097951634
 11
357.03325652284656
 21
343.32027097948344
  0
LINE
  8
_1-2_極細2
  6
CONTINUOUS
 62
    2
 10
352.88472838545545
 20
340.02027097951634
 11
356.18472838542283
 21
343.32027097948344
  0
LINE
  8
_1-2_極細2
  6
CONTINUOUS
 62
    2
 10
352.03620024803172
 20
340.02027097951634
 11
355.3362002479991
 21
343.32027097948344
  0
LINE
  8
_1-2_極細2
  6
CONTINUOUS
 62
    2
 10
351.18767211060799
 20
340.02027097951634
 11
354.48767211057498
 21
343.32027097948344
  0
LINE
  8
_1-2_極細2
  6
CONTINUOUS
 62
    2
 10
350.33914397318426
 20
340.02027097951634
 11
353.63914397315125
 21
343.32027097948344
  0
LINE
  8
_1-2_極細2
  6
CONTINUOUS
 62
    2
 10
349.49061583576025
 20
340.02027097951634
 11
352.79061583572752
 21
343.32027097948344
  0
LINE
  8
_1-2_極細2
  6
CONTINUOUS
 62
    2
 10
348.64208769833652
 20
340.02027097951634
 11
351.94208769830379
 21
343.32027097948344
  0
LINE
  8
_1-2_極細2
  6
CONTINUOUS
 62
    2
 10
347.7935595609128
 20
340.02027097951634
 11
351.09355956087995
 21
343.32027097948344
  0
LINE
  8
_1-2_極細2
  6
CONTINUOUS
 62
    2
 10
346.94503142348907
 20
340.02027097951634
 11
350.24503142345623
 21
343.32027097948344
  0
LINE
  8
_1-2_極細2
  6
CONTINUOUS
 62
    2
 10
346.09650328606494
 20
340.02027097951634
 11
349.3965032860325
 21
343.32027097948344
  0
LINE
  8
_1-2_極細2
  6
CONTINUOUS
 62
    2
 10
345.24797514864122
 20
340.02027097951634
 11
348.54797514860877
 21
343.32027097948344
  0
LINE
  8
_1-2_極細2
  6
CONTINUOUS
 62
    2
 10
344.39944701121749
 20
340.02027097951634
 11
347.69944701118447
 21
343.32027097948344
  0
LINE
  8
_1-2_極細2
  6
CONTINUOUS
 62
    2
 10
343.55091887379376
 20
340.02027097951634
 11
346.85091887376075
 21
343.32027097948344
  0
LINE
  8
_1-2_極細2
  6
CONTINUOUS
 62
    2
 10
342.70239073636975
 20
340.02027097951634
 11
346.00239073633702
 21
343.32027097948344
  0
LINE
  8
_1-2_極細2
  6
CONTINUOUS
 62
    2
 10
341.85386259894602
 20
340.02027097951634
 11
345.15386259891329
 21
343.32027097948344
  0
LINE
  8
_1-2_極細2
  6
CONTINUOUS
 62
    2
 10
341.0053344615223
 20
340.02027097951634
 11
344.30533446148928
 21
343.32027097948344
  0
LINE
  8
_1-2_極細2
  6
CONTINUOUS
 62
    2
 10
340.15680632409857
 20
340.02027097951634
 11
343.45680632406555
 21
343.32027097948344
  0
LINE
  8
_1-2_極細2
  6
CONTINUOUS
 62
    2
 10
339.30827818667467
 20
340.02027097951634
 11
342.60827818664183
 21
343.32027097948344
  0
LINE
  8
_1-2_極細2
  6
CONTINUOUS
 62
    2
 10
338.45975004925094
 20
340.02027097951634
 11
341.7597500492181
 21
343.32027097948344
  0
LINE
  8
_1-2_極細2
  6
CONTINUOUS
 62
    2
 10
337.61122191182722
 20
340.02027097951634
 11
340.91122191179397
 21
343.32027097948344
  0
LINE
  8
_1-2_極細2
  6
CONTINUOUS
 62
    2
 10
336.76269377440349
 20
340.02027097951634
 11
340.06269377437025
 21
343.32027097948344
  0
LINE
  8
_1-2_極細2
  6
CONTINUOUS
 62
    2
 10
335.91416563697925
 20
340.02027097951634
 11
339.21416563694652
 21
343.32027097948344
  0
LINE
  8
_1-2_極細2
  6
CONTINUOUS
 62
    2
 10
335.06563749955552
 20
340.02027097951634
 11
338.36563749952279
 21
343.32027097948344
  0
LINE
  8
_1-2_極細2
  6
CONTINUOUS
 62
    2
 10
334.21710936213179
 20
340.02027097951634
 11
337.51710936209878
 21
343.32027097948344
  0
LINE
  8
_1-2_極細2
  6
CONTINUOUS
 62
    2
 10
333.36858122470807
 20
340.02027097951634
 11
336.66858122467505
 21
343.32027097948344
  0
LINE
  8
_1-2_極細2
  6
CONTINUOUS
 62
    2
 10
332.52005308728394
 20
340.02027097951634
 11
335.82005308725132
 21
343.32027097948344
  0
LINE
  8
_1-2_極細2
  6
CONTINUOUS
 62
    2
 10
331.67152494986021
 20
340.02027097951634
 11
334.9715249498276
 21
343.32027097948344
  0
LINE
  8
_1-2_極細2
  6
CONTINUOUS
 62
    2
 10
330.82299681243649
 20
340.02027097951634
 11
334.1229968124037
 21
343.32027097948344
  0
LINE
  8
_1-2_極細2
  6
CONTINUOUS
 62
    2
 10
329.97446867501276
 20
340.02027097951634
 11
333.27446867497997
 21
343.32027097948344
  0
LINE
  8
_1-2_極細2
  6
CONTINUOUS
 62
    2
 10
329.12594053758875
 20
340.02027097951634
 11
332.42594053755624
 21
343.32027097948344
  0
LINE
  8
_1-2_極細2
  6
CONTINUOUS
 62
    2
 10
328.27741240016502
 20
340.02027097951634
 11
331.57741240013252
 21
343.32027097948344
  0
LINE
  8
_1-2_極細2
  6
CONTINUOUS
 62
    2
 10
327.42888426274129
 20
340.02027097951634
 11
330.72888426270828
 21
343.32027097948344
  0
LINE
  8
_1-2_極細2
  6
CONTINUOUS
 62
    2
 10
326.58035612531756
 20
340.02027097951634
 11
329.88035612528455
 21
343.32027097948344
  0
LINE
  8
_1-2_極細2
  6
CONTINUOUS
 62
    2
 10
325.73182798789344
 20
340.02027097951634
 11
329.03182798786082
 21
343.32027097948344
  0
LINE
  8
_1-2_極細2
  6
CONTINUOUS
 62
    2
 10
324.88329985046971
 20
340.02027097951634
 11
328.18329985043709
 21
343.32027097948344
  0
LINE
  8
_1-2_極細2
  6
CONTINUOUS
 62
    2
 10
324.03477171304598
 20
340.02027097951634
 11
327.33477171301297
 21
343.32027097948344
  0
LINE
  8
_1-2_極細2
  6
CONTINUOUS
 62
    2
 10
323.18624357562226
 20
340.02027097951634
 11
326.48624357558924
 21
343.32027097948344
  0
LINE
  8
_1-2_極細2
  6
CONTINUOUS
 62
    2
 10
322.33771543819842
 20
340.02027097951634
 11
325.63771543816551
 21
343.32027097948344
  0
LINE
  8
_1-2_極細2
  6
CONTINUOUS
 62
    2
 10
321.48918730077469
 20
340.02027097951634
 11
324.78918730074179
 21
343.32027097948344
  0
LINE
  8
_1-2_極細2
  6
CONTINUOUS
 62
    2
 10
320.64065916335096
 20
340.02027097951634
 11
323.94065916331778
 21
343.32027097948344
  0
LINE
  8
_1-2_極細2
  6
CONTINUOUS
 62
    2
 10
319.79213102592723
 20
340.02027097951634
 11
323.09213102589405
 21
343.32027097948344
  0
LINE
  8
_1-2_極細2
  6
CONTINUOUS
 62
    2
 10
318.94360288850294
 20
340.02027097951634
 11
322.24360288847032
 21
343.32027097948344
  0
LINE
  8
_1-2_極細2
  6
CONTINUOUS
 62
    2
 10
318.09507475107921
 20
340.02027097951634
 11
321.39507475104659
 21
343.32027097948344
  0
LINE
  8
_1-2_極細2
  6
CONTINUOUS
 62
    2
 10
317.24654661365548
 20
340.02027097951634
 11
320.54654661362247
 21
343.32027097948344
  0
LINE
  8
_1-2_極細2
  6
CONTINUOUS
 62
    2
 10
316.39801847623175
 20
340.02027097951634
 11
319.69801847619874
 21
343.32027097948344
  0
LINE
  8
_1-2_極細2
  6
CONTINUOUS
 62
    2
 10
315.54949033880774
 20
340.02027097951634
 11
318.84949033877501
 21
343.32027097948344
  0
LINE
  8
_1-2_極細2
  6
CONTINUOUS
 62
    2
 10
314.70096220138402
 20
340.02027097951634
 11
318.00096220135129
 21
343.32027097948344
  0
LINE
  8
_1-2_極細2
  6
CONTINUOUS
 62
    2
 10
313.85243406396029
 20
340.02027097951634
 11
317.15243406392744
 21
343.32027097948344
  0
LINE
  8
_1-2_極細2
  6
CONTINUOUS
 62
    2
 10
313.00390592653656
 20
340.02027097951634
 11
316.30390592650372
 21
343.32027097948344
  0
LINE
  8
_1-2_極細2
  6
CONTINUOUS
 62
    2
 10
312.15537778911244
 20
340.02027097951634
 11
315.45537778907999
 21
343.32027097948344
  0
LINE
  8
_1-2_極細2
  6
CONTINUOUS
 62
    2
 10
311.30684965168871
 20
340.02027097951634
 11
314.60684965165626
 21
343.32027097948344
  0
LINE
  8
_1-2_極細2
  6
CONTINUOUS
 62
    2
 10
310.45832151426498
 20
340.02027097951634
 11
313.75832151423197
 21
343.32027097948344
  0
LINE
  8
_1-2_極細2
  6
CONTINUOUS
 62
    2
 10
309.60979337684125
 20
340.02027097951634
 11
312.90979337680824
 21
343.32027097948344
  0
LINE
  8
_1-2_極細2
  6
CONTINUOUS
 62
    2
 10
308.76126523941724
 20
340.02027097951634
 11
312.06126523938451
 21
343.32027097948344
  0
LINE
  8
_1-2_極細2
  6
CONTINUOUS
 62
    2
 10
307.91273710199351
 20
340.02027097951634
 11
311.21273710196078
 21
343.32027097948344
  0
LINE
  8
_1-2_極細2
  6
CONTINUOUS
 62
    2
 10
307.06420896456979
 20
340.02027097951634
 11
310.36420896453677
 21
343.32027097948344
  0
LINE
  8
_1-2_極細2
  6
CONTINUOUS
 62
    2
 10
306.21568082714606
 20
340.02027097951634
 11
309.51568082711304
 21
343.32027097948344
  0
LINE
  8
_1-2_極細2
  6
CONTINUOUS
 62
    2
 10
305.36715268972216
 20
340.02027097951634
 11
308.66715268968932
 21
343.32027097948344
  0
LINE
  8
_1-2_極細2
  6
CONTINUOUS
 62
    2
 10
304.51862455229843
 20
340.02027097951634
 11
307.81862455226559
 21
343.32027097948344
  0
LINE
  8
_1-2_極細2
  6
CONTINUOUS
 62
    2
 10
303.67009641487471
 20
340.02027097951634
 11
306.97009641484146
 21
343.32027097948344
  0
LINE
  8
_1-2_極細2
  6
CONTINUOUS
 62
    2
 10
302.82156827745098
 20
340.02027097951634
 11
306.12156827741774
 21
343.32027097948344
  0
LINE
  8
_1-2_極細2
  6
CONTINUOUS
 62
    2
 10
301.97304014002674
 20
340.02027097951634
 11
305.27304013999401
 21
343.32027097948344
  0
LINE
  8
_1-2_極細2
  6
CONTINUOUS
 62
    2
 10
301.12451200260301
 20
340.02027097951634
 11
304.42451200257028
 21
343.32027097948344
  0
LINE
  8
_1-2_極細2
  6
CONTINUOUS
 62
    2
 10
300.27598386517928
 20
340.02027097951634
 11
303.57598386514627
 21
343.32027097948344
  0
LINE
  8
_1-2_極細2
  6
CONTINUOUS
 62
    2
 10
299.42745572775556
 20
340.02027097951634
 11
302.72745572772254
 21
343.32027097948344
  0
LINE
  8
_1-2_極細2
  6
CONTINUOUS
 62
    2
 10
298.57892759033143
 20
340.02027097951634
 11
301.87892759029882
 21
343.32027097948344
  0
LINE
  8
_1-2_極細2
  6
CONTINUOUS
 62
    2
 10
297.7303994529077
 20
340.02027097951634
 11
301.03039945287509
 21
343.32027097948344
  0
LINE
  8
_1-2_極細2
  6
CONTINUOUS
 62
    2
 10
296.88187131548398
 20
340.02027097951634
 11
300.18187131545119
 21
343.32027097948344
  0
LINE
  8
_1-2_極細2
  6
CONTINUOUS
 62
    2
 10
296.03334317806025
 20
340.02027097951634
 11
299.33334317802746
 21
343.32027097948344
  0
LINE
  8
_1-2_極細2
  6
CONTINUOUS
 62
    2
 10
295.18481504063624
 20
340.02027097951634
 11
298.48481504060373
 21
343.32027097948344
  0
LINE
  8
_1-2_極細2
  6
CONTINUOUS
 62
    2
 10
294.33628690321251
 20
340.02027097951634
 11
297.63628690318001
 21
343.32027097948344
  0
LINE
  8
_1-2_極細2
  6
CONTINUOUS
 62
    2
 10
293.48775876578878
 20
340.02027097951634
 11
296.78775876575577
 21
343.32027097948344
  0
LINE
  8
_1-2_極細2
  6
CONTINUOUS
 62
    2
 10
292.63923062836506
 20
340.02027097951634
 11
295.93923062833204
 21
343.32027097948344
  0
LINE
  8
_1-2_極細2
  6
CONTINUOUS
 62
    2
 10
291.79070249094093
 20
340.02027097951634
 11
295.09070249090831
 21
343.32027097948344
  0
LINE
  8
_1-2_極細2
  6
CONTINUOUS
 62
    2
 10
290.9421743535172
 20
340.02027097951634
 11
294.24217435348459
 21
343.32027097948344
  0
LINE
  8
_1-2_極細2
  6
CONTINUOUS
 62
    2
 10
290.09364621609348
 20
340.02027097951634
 11
293.39364621606046
 21
343.32027097948344
  0
LINE
  8
_1-2_極細2
  6
CONTINUOUS
 62
    2
 10
289.24511807866975
 20
340.02027097951634
 11
292.54511807863673
 21
343.32027097948344
  0
LINE
  8
_1-2_極細2
  6
CONTINUOUS
 62
    2
 10
288.39658994124591
 20
340.02027097951634
 11
291.69658994121301
 21
343.32027097948344
  0
LINE
  8
_1-2_極細2
  6
CONTINUOUS
 62
    2
 10
287.54806180382218
 20
340.02027097951634
 11
290.84806180378928
 21
343.32027097948344
  0
LINE
  8
_1-2_極細2
  6
CONTINUOUS
 62
    2
 10
286.69953366639845
 20
340.02027097951634
 11
289.99953366636527
 21
343.32027097948344
  0
LINE
  8
_1-2_極細2
  6
CONTINUOUS
 62
    2
 10
285.85100552897472
 20
340.02027097951634
 11
289.15100552894154
 21
343.32027097948344
  0
LINE
  8
_1-2_極細2
  6
CONTINUOUS
 62
    2
 10
285.00247739155043
 20
340.02027097951634
 11
288.30247739151781
 21
343.32027097948344
  0
LINE
  8
_1-2_極細2
  6
CONTINUOUS
 62
    2
 10
284.1539492541267
 20
340.02027097951634
 11
287.45394925409408
 21
343.32027097948344
  0
LINE
  8
_1-2_極細2
  6
CONTINUOUS
 62
    2
 10
283.30542111670297
 20
340.02027097951634
 11
286.60542111666996
 21
343.32027097948344
  0
LINE
  8
_1-2_極細2
  6
CONTINUOUS
 62
    2
 10
282.45689297927925
 20
340.02027097951634
 11
285.75689297924623
 21
343.32027097948344
  0
LINE
  8
_1-2_極細2
  6
CONTINUOUS
 62
    2
 10
281.60836484185523
 20
340.02027097951634
 11
284.9083648418225
 21
343.32027097948344
  0
LINE
  8
_1-2_極細2
  6
CONTINUOUS
 62
    2
 10
281.0788843107224
 20
340.33931858580706
 11
284.05983670439878
 21
343.32027097948344
  0
LINE
  8
_1-2_極細2
  6
CONTINUOUS
 62
    2
 10
281.0788843107224
 20
341.18784672323079
 11
283.21130856697494
 21
343.32027097948344
  0
LINE
  8
_1-2_極細2
  6
CONTINUOUS
 62
    2
 10
281.0788843107224
 20
342.03637486065463
 11
282.36278042955121
 21
343.32027097948344
  0
LINE
  8
_1-2_極細2
  6
CONTINUOUS
 62
    2
 10
281.0788843107224
 20
342.88490299807836
 11
281.51425229212748
 21
343.32027097948344
  0
LINE
  8
_1-2_極細2
  6
CONTINUOUS
 62
    2
 10
377.07888421472256
 20
342.88490299808313
 11
376.64351623332226
 21
343.32027097948344
  0
LINE
  8
_1-2_極細2
  6
CONTINUOUS
 62
    2
 10
377.07888421472256
 20
342.03637486065941
 11
375.79498809589853
 21
343.32027097948344
  0
LINE
  8
_1-2_極細2
  6
CONTINUOUS
 62
    2
 10
377.07888421472256
 20
341.18784672323557
 11
374.9464599584748
 21
343.32027097948344
  0
LINE
  8
_1-2_極細2
  6
CONTINUOUS
 62
    2
 10
377.07888421472256
 20
340.33931858581184
 11
374.09793182105091
 21
343.32027097948344
  0
LINE
  8
_1-2_極細2
  6
CONTINUOUS
 62
    2
 10
376.54940368359433
 20
340.02027097951634
 11
373.24940368362718
 21
343.32027097948344
  0
LINE
  8
_1-2_極細2
  6
CONTINUOUS
 62
    2
 10
375.70087554617061
 20
340.02027097951634
 11
372.40087554620345
 21
343.32027097948344
  0
LINE
  8
_1-2_極細2
  6
CONTINUOUS
 62
    2
 10
374.85234740874688
 20
340.02027097951634
 11
371.55234740877972
 21
343.32027097948344
  0
LINE
  8
_1-2_極細2
  6
CONTINUOUS
 62
    2
 10
374.00381927132275
 20
340.02027097951634
 11
370.703819271356
 21
343.32027097948344
  0
LINE
  8
_1-2_極細2
  6
CONTINUOUS
 62
    2
 10
373.15529113389903
 20
340.02027097951634
 11
369.85529113393227
 21
343.32027097948344
  0
LINE
  8
_1-2_極細2
  6
CONTINUOUS
 62
    2
 10
372.3067629964753
 20
340.02027097951634
 11
369.00676299650854
 21
343.32027097948344
  0
LINE
  8
_1-2_極細2
  6
CONTINUOUS
 62
    2
 10
371.45823485905157
 20
340.02027097951634
 11
368.15823485908481
 21
343.32027097948344
  0
LINE
  8
_1-2_極細2
  6
CONTINUOUS
 62
    2
 10
370.60970672162784
 20
340.02027097951634
 11
367.30970672166058
 21
343.32027097948344
  0
LINE
  8
_1-2_極細2
  6
CONTINUOUS
 62
    2
 10
369.76117858420412
 20
340.02027097951634
 11
366.46117858423685
 21
343.32027097948344
  0
LINE
  8
_1-2_極細2
  6
CONTINUOUS
 62
    2
 10
368.91265044678039
 20
340.02027097951634
 11
365.61265044681312
 21
343.32027097948344
  0
LINE
  8
_1-2_極細2
  6
CONTINUOUS
 62
    2
 10
368.06412230935666
 20
340.02027097951634
 11
364.76412230938939
 21
343.32027097948344
  0
LINE
  8
_1-2_極細2
  6
CONTINUOUS
 62
    2
 10
367.21559417193265
 20
340.02027097951634
 11
363.91559417196567
 21
343.32027097948344
  0
LINE
  8
_1-2_極細2
  6
CONTINUOUS
 62
    2
 10
366.36706603450892
 20
340.02027097951634
 11
363.06706603454194
 21
343.32027097948344
  0
LINE
  8
_1-2_極細2
  6
CONTINUOUS
 62
    2
 10
365.5185378970852
 20
340.02027097951634
 11
362.21853789711821
 21
343.32027097948344
  0
LINE
  8
_1-2_極細2
  6
CONTINUOUS
 62
    2
 10
364.67000975966147
 20
340.02027097951634
 11
361.37000975969448
 21
343.32027097948344
  0
LINE
  8
_1-2_極細2
  6
CONTINUOUS
 62
    2
 10
363.82148162223774
 20
340.02027097951634
 11
360.52148162227036
 21
343.32027097948344
  0
LINE
  8
_1-2_極細2
  6
CONTINUOUS
 62
    2
 10
362.97295348481401
 20
340.02027097951634
 11
359.67295348484663
 21
343.32027097948344
  0
LINE
  8
_1-2_極細2
  6
CONTINUOUS
 62
    2
 10
362.12442534739029
 20
340.02027097951634
 11
358.8244253474229
 21
343.32027097948344
  0
LINE
  8
_1-2_極細2
  6
CONTINUOUS
 62
    2
 10
361.27589720996656
 20
340.02027097951634
 11
357.97589720999918
 21
343.32027097948344
  0
LINE
  8
_1-2_極細2
  6
CONTINUOUS
 62
    2
 10
360.42736907254266
 20
340.02027097951634
 11
357.12736907257545
 21
343.32027097948344
  0
LINE
  8
_1-2_極細2
  6
CONTINUOUS
 62
    2
 10
359.57884093511893
 20
340.02027097951634
 11
356.27884093515172
 21
343.32027097948344
  0
LINE
  8
_1-2_極細2
  6
CONTINUOUS
 62
    2
 10
358.73031279769521
 20
340.02027097951634
 11
355.43031279772799
 21
343.32027097948344
  0
LINE
  8
_1-2_極細2
  6
CONTINUOUS
 62
    2
 10
357.88178466027148
 20
340.02027097951634
 11
354.58178466030427
 21
343.32027097948344
  0
LINE
  8
_1-2_極細2
  6
CONTINUOUS
 62
    2
 10
357.03325652284775
 20
340.02027097951634
 11
353.73325652288025
 21
343.32027097948344
  0
LINE
  8
_1-2_極細2
  6
CONTINUOUS
 62
    2
 10
356.18472838542402
 20
340.02027097951634
 11
352.88472838545653
 21
343.32027097948344
  0
LINE
  8
_1-2_極細2
  6
CONTINUOUS
 62
    2
 10
355.3362002480003
 20
340.02027097951634
 11
352.0362002480328
 21
343.32027097948344
  0
LINE
  8
_1-2_極細2
  6
CONTINUOUS
 62
    2
 10
354.48767211057657
 20
340.02027097951634
 11
351.18767211060907
 21
343.32027097948344
  0
LINE
  8
_1-2_極細2
  6
CONTINUOUS
 62
    2
 10
353.63914397315233
 20
340.02027097951634
 11
350.33914397318534
 21
343.32027097948344
  0
LINE
  8
_1-2_極細2
  6
CONTINUOUS
 62
    2
 10
352.7906158357286
 20
340.02027097951634
 11
349.49061583576162
 21
343.32027097948344
  0
LINE
  8
_1-2_極細2
  6
CONTINUOUS
 62
    2
 10
351.94208769830487
 20
340.02027097951634
 11
348.64208769833789
 21
343.32027097948344
  0
LINE
  8
_1-2_極細2
  6
CONTINUOUS
 62
    2
 10
351.09355956088115
 20
340.02027097951634
 11
347.79355956091416
 21
343.32027097948344
  0
LINE
  8
_1-2_極細2
  6
CONTINUOUS
 62
    2
 10
350.24503142345742
 20
340.02027097951634
 11
346.94503142349004
 21
343.32027097948344
  0
LINE
  8
_1-2_極細2
  6
CONTINUOUS
 62
    2
 10
349.39650328603369
 20
340.02027097951634
 11
346.09650328606631
 21
343.32027097948344
  0
LINE
  8
_1-2_極細2
  6
CONTINUOUS
 62
    2
 10
348.54797514860996
 20
340.02027097951634
 11
345.24797514864258
 21
343.32027097948344
  0
LINE
  8
_1-2_極細2
  6
CONTINUOUS
 62
    2
 10
347.69944701118624
 20
340.02027097951634
 11
344.39944701121885
 21
343.32027097948344
  0
LINE
  8
_1-2_極細2
  6
CONTINUOUS
 62
    2
 10
346.85091887376211
 20
340.02027097951634
 11
343.55091887379513
 21
343.32027097948344
  0
LINE
  8
_1-2_極細2
  6
CONTINUOUS
 62
    2
 10
346.00239073633838
 20
340.02027097951634
 11
342.7023907363714
 21
343.32027097948344
  0
LINE
  8
_1-2_極細2
  6
CONTINUOUS
 62
    2
 10
345.15386259891466
 20
340.02027097951634
 11
341.85386259894767
 21
343.32027097948344
  0
LINE
  8
_1-2_極細2
  6
CONTINUOUS
 62
    2
 10
344.30533446149093
 20
340.02027097951634
 11
341.00533446152394
 21
343.32027097948344
  0
LINE
  8
_1-2_極細2
  6
CONTINUOUS
 62
    2
 10
343.4568063240672
 20
340.02027097951634
 11
340.1568063241001
 21
343.32027097948344
  0
LINE
  8
_1-2_極細2
  6
CONTINUOUS
 62
    2
 10
342.60827818664347
 20
340.02027097951634
 11
339.30827818667638
 21
343.32027097948344
  0
LINE
  8
_1-2_極細2
  6
CONTINUOUS
 62
    2
 10
341.75975004921975
 20
340.02027097951634
 11
338.45975004925265
 21
343.32027097948344
  0
LINE
  8
_1-2_極細2
  6
CONTINUOUS
 62
    2
 10
340.91122191179602
 20
340.02027097951634
 11
337.61122191182892
 21
343.32027097948344
  0
LINE
  8
_1-2_極細2
  6
CONTINUOUS
 62
    2
 10
340.06269377437201
 20
340.02027097951634
 11
336.76269377440519
 21
343.32027097948344
  0
LINE
  8
_1-2_極細2
  6
CONTINUOUS
 62
    2
 10
339.21416563694828
 20
340.02027097951634
 11
335.91416563698147
 21
343.32027097948344
  0
LINE
  8
_1-2_極細2
  6
CONTINUOUS
 62
    2
 10
338.36563749952455
 20
340.02027097951634
 11
335.06563749955774
 21
343.32027097948344
  0
LINE
  8
_1-2_極細2
  6
CONTINUOUS
 62
    2
 10
337.51710936210083
 20
340.02027097951634
 11
334.21710936213401
 21
343.32027097948344
  0
LINE
  8
_1-2_極細2
  6
CONTINUOUS
 62
    2
 10
336.6685812246771
 20
340.02027097951634
 11
333.36858122470971
 21
343.32027097948344
  0
LINE
  8
_1-2_極細2
  6
CONTINUOUS
 62
    2
 10
335.82005308725337
 20
340.02027097951634
 11
332.52005308728599
 21
343.32027097948344
  0
LINE
  8
_1-2_極細2
  6
CONTINUOUS
 62
    2
 10
334.97152494982964
 20
340.02027097951634
 11
331.67152494986226
 21
343.32027097948344
  0
LINE
  8
_1-2_極細2
  6
CONTINUOUS
 62
    2
 10
334.12299681240592
 20
340.02027097951634
 11
330.82299681243853
 21
343.32027097948344
  0
LINE
  8
_1-2_極細2
  6
CONTINUOUS
 62
    2
 10
333.27446867498179
 20
340.02027097951634
 11
329.9744686750148
 21
343.32027097948344
  0
LINE
  8
_1-2_極細2
  6
CONTINUOUS
 62
    2
 10
332.42594053755806
 20
340.02027097951634
 11
329.12594053759108
 21
343.32027097948344
  0
LINE
  8
_1-2_極細2
  6
CONTINUOUS
 62
    2
 10
331.57741240013434
 20
340.02027097951634
 11
328.27741240016735
 21
343.32027097948344
  0
LINE
  8
_1-2_極細2
  6
CONTINUOUS
 62
    2
 10
330.72888426271061
 20
340.02027097951634
 11
327.42888426274362
 21
343.32027097948344
  0
LINE
  8
_1-2_極細2
  6
CONTINUOUS
 62
    2
 10
329.88035612528688
 20
340.02027097951634
 11
326.58035612531961
 21
343.32027097948344
  0
LINE
  8
_1-2_極細2
  6
CONTINUOUS
 62
    2
 10
329.03182798786315
 20
340.02027097951634
 11
325.73182798789588
 21
343.32027097948344
  0
LINE
  8
_1-2_極細2
  6
CONTINUOUS
 62
    2
 10
328.18329985043943
 20
340.02027097951634
 11
324.88329985047216
 21
343.32027097948344
  0
LINE
  8
_1-2_極細2
  6
CONTINUOUS
 62
    2
 10
327.3347717130157
 20
340.02027097951634
 11
324.03477171304843
 21
343.32027097948344
  0
LINE
  8
_1-2_極細2
  6
CONTINUOUS
 62
    2
 10
326.48624357559186
 20
340.02027097951634
 11
323.1862435756247
 21
343.32027097948344
  0
LINE
  8
_1-2_極細2
  6
CONTINUOUS
 62
    2
 10
325.63771543816813
 20
340.02027097951634
 11
322.33771543820097
 21
343.32027097948344
  0
LINE
  8
_1-2_極細2
  6
CONTINUOUS
 62
    2
 10
324.7891873007444
 20
340.02027097951634
 11
321.48918730077725
 21
343.32027097948344
  0
LINE
  8
_1-2_極細2
  6
CONTINUOUS
 62
    2
 10
323.94065916332067
 20
340.02027097951634
 11
320.64065916335352
 21
343.32027097948344
  0
LINE
  8
_1-2_極細2
  6
CONTINUOUS
 62
    2
 10
323.09213102589695
 20
340.02027097951634
 11
319.79213102592939
 21
343.32027097948344
  0
LINE
  8
_1-2_極細2
  6
CONTINUOUS
 62
    2
 10
322.24360288847322
 20
340.02027097951634
 11
318.94360288850567
 21
343.32027097948344
  0
LINE
  8
_1-2_極細2
  6
CONTINUOUS
 62
    2
 10
321.39507475104949
 20
340.02027097951634
 11
318.09507475108194
 21
343.32027097948344
  0
LINE
  8
_1-2_極細2
  6
CONTINUOUS
 62
    2
 10
320.54654661362576
 20
340.02027097951634
 11
317.24654661365821
 21
343.32027097948344
  0
LINE
  8
_1-2_極細2
  6
CONTINUOUS
 62
    2
 10
319.69801847620147
 20
340.02027097951634
 11
316.39801847623448
 21
343.32027097948344
  0
LINE
  8
_1-2_極細2
  6
CONTINUOUS
 62
    2
 10
318.84949033877774
 20
340.02027097951634
 11
315.54949033881076
 21
343.32027097948344
  0
LINE
  8
_1-2_極細2
  6
CONTINUOUS
 62
    2
 10
318.00096220135401
 20
340.02027097951634
 11
314.70096220138703
 21
343.32027097948344
  0
LINE
  8
_1-2_極細2
  6
CONTINUOUS
 62
    2
 10
317.15243406393029
 20
340.02027097951634
 11
313.8524340639633
 21
343.32027097948344
  0
LINE
  8
_1-2_極細2
  6
CONTINUOUS
 62
    2
 10
316.30390592650656
 20
340.02027097951634
 11
313.00390592653929
 21
343.32027097948344
  0
LINE
  8
_1-2_極細2
  6
CONTINUOUS
 62
    2
 10
315.45537778908283
 20
340.02027097951634
 11
312.15537778911556
 21
343.32027097948344
  0
LINE
  8
_1-2_極細2
  6
CONTINUOUS
 62
    2
 10
314.6068496516591
 20
340.02027097951634
 11
311.30684965169183
 21
343.32027097948344
  0
LINE
  8
_1-2_極細2
  6
CONTINUOUS
 62
    2
 10
313.75832151423538
 20
340.02027097951634
 11
310.45832151426811
 21
343.32027097948344
  0
LINE
  8
_1-2_極細2
  6
CONTINUOUS
 62
    2
 10
312.90979337681136
 20
340.02027097951634
 11
309.60979337684438
 21
343.32027097948344
  0
LINE
  8
_1-2_極細2
  6
CONTINUOUS
 62
    2
 10
312.06126523938764
 20
340.02027097951634
 11
308.76126523942065
 21
343.32027097948344
  0
LINE
  8
_1-2_極細2
  6
CONTINUOUS
 62
    2
 10
311.21273710196391
 20
340.02027097951634
 11
307.91273710199692
 21
343.32027097948344
  0
LINE
  8
_1-2_極細2
  6
CONTINUOUS
 62
    2
 10
310.36420896454018
 20
340.02027097951634
 11
307.0642089645732
 21
343.32027097948344
  0
LINE
  8
_1-2_極細2
  6
CONTINUOUS
 62
    2
 10
309.51568082711646
 20
340.02027097951634
 11
306.2156808271493
 21
343.32027097948344
  0
LINE
  8
_1-2_極細2
  6
CONTINUOUS
 62
    2
 10
308.66715268969273
 20
340.02027097951634
 11
305.36715268972557
 21
343.32027097948344
  0
LINE
  8
_1-2_極細2
  6
CONTINUOUS
 62
    2
 10
307.818624552269
 20
340.02027097951634
 11
304.51862455230184
 21
343.32027097948344
  0
LINE
  8
_1-2_極細2
  6
CONTINUOUS
 62
    2
 10
306.97009641484527
 20
340.02027097951634
 11
303.67009641487812
 21
343.32027097948344
  0
LINE
  8
_1-2_極細2
  6
CONTINUOUS
 62
    2
 10
306.12156827742115
 20
340.02027097951634
 11
302.82156827745439
 21
343.32027097948344
  0
LINE
  8
_1-2_極細2
  6
CONTINUOUS
 62
    2
 10
305.27304013999742
 20
340.02027097951634
 11
301.97304014003066
 21
343.32027097948344
  0
LINE
  8
_1-2_極細2
  6
CONTINUOUS
 62
    2
 10
304.42451200257369
 20
340.02027097951634
 11
301.12451200260693
 21
343.32027097948344
  0
LINE
  8
_1-2_極細2
  6
CONTINUOUS
 62
    2
 10
303.57598386514996
 20
340.02027097951634
 11
300.27598386518321
 21
343.32027097948344
  0
LINE
  8
_1-2_極細2
  6
CONTINUOUS
 62
    2
 10
302.72745572772624
 20
340.02027097951634
 11
299.42745572775897
 21
343.32027097948344
  0
LINE
  8
_1-2_極細2
  6
CONTINUOUS
 62
    2
 10
301.87892759030251
 20
340.02027097951634
 11
298.57892759033524
 21
343.32027097948344
  0
LINE
  8
_1-2_極細2
  6
CONTINUOUS
 62
    2
 10
301.03039945287878
 20
340.02027097951634
 11
297.73039945291151
 21
343.32027097948344
  0
LINE
  8
_1-2_極細2
  6
CONTINUOUS
 62
    2
 10
300.18187131545506
 20
340.02027097951634
 11
296.88187131548779
 21
343.32027097948344
  0
LINE
  8
_1-2_極細2
  6
CONTINUOUS
 62
    2
 10
299.33334317803104
 20
340.02027097951634
 11
296.03334317806406
 21
343.32027097948344
  0
LINE
  8
_1-2_極細2
  6
CONTINUOUS
 62
    2
 10
298.48481504060732
 20
340.02027097951634
 11
295.18481504064033
 21
343.32027097948344
  0
LINE
  8
_1-2_極細2
  6
CONTINUOUS
 62
    2
 10
297.63628690318359
 20
340.02027097951634
 11
294.3362869032166
 21
343.32027097948344
  0
LINE
  8
_1-2_極細2
  6
CONTINUOUS
 62
    2
 10
296.78775876575986
 20
340.02027097951634
 11
293.48775876579288
 21
343.32027097948344
  0
LINE
  8
_1-2_極細2
  6
CONTINUOUS
 62
    2
 10
295.93923062833613
 20
340.02027097951634
 11
292.63923062836875
 21
343.32027097948344
  0
LINE
  8
_1-2_極細2
  6
CONTINUOUS
 62
    2
 10
295.09070249091241
 20
340.02027097951634
 11
291.79070249094502
 21
343.32027097948344
  0
LINE
  8
_1-2_極細2
  6
CONTINUOUS
 62
    2
 10
294.24217435348868
 20
340.02027097951634
 11
290.9421743535213
 21
343.32027097948344
  0
LINE
  8
_1-2_極細2
  6
CONTINUOUS
 62
    2
 10
293.39364621606495
 20
340.02027097951634
 11
290.09364621609757
 21
343.32027097948344
  0
LINE
  8
_1-2_極細2
  6
CONTINUOUS
 62
    2
 10
292.54511807864105
 20
340.02027097951634
 11
289.24511807867384
 21
343.32027097948344
  0
LINE
  8
_1-2_極細2
  6
CONTINUOUS
 62
    2
 10
291.69658994121733
 20
340.02027097951634
 11
288.39658994125011
 21
343.32027097948344
  0
LINE
  8
_1-2_極細2
  6
CONTINUOUS
 62
    2
 10
290.8480618037936
 20
340.02027097951634
 11
287.54806180382639
 21
343.32027097948344
  0
LINE
  8
_1-2_極細2
  6
CONTINUOUS
 62
    2
 10
289.99953366636987
 20
340.02027097951634
 11
286.69953366640266
 21
343.32027097948344
  0
LINE
  8
_1-2_極細2
  6
CONTINUOUS
 62
    2
 10
289.15100552894614
 20
340.02027097951634
 11
285.85100552897865
 21
343.32027097948344
  0
LINE
  8
_1-2_極細2
  6
CONTINUOUS
 62
    2
 10
288.30247739152242
 20
340.02027097951634
 11
285.00247739155492
 21
343.32027097948344
  0
LINE
  8
_1-2_極細2
  6
CONTINUOUS
 62
    2
 10
287.45394925409869
 20
340.02027097951634
 11
284.15394925413119
 21
343.32027097948344
  0
LINE
  8
_1-2_極細2
  6
CONTINUOUS
 62
    2
 10
286.60542111667496
 20
340.02027097951634
 11
283.30542111670746
 21
343.32027097948344
  0
LINE
  8
_1-2_極細2
  6
CONTINUOUS
 62
    2
 10
285.75689297925072
 20
340.02027097951634
 11
282.45689297928374
 21
343.32027097948344
  0
LINE
  8
_1-2_極細2
  6
CONTINUOUS
 62
    2
 10
284.90836484182699
 20
340.02027097951634
 11
281.60836484186001
 21
343.32027097948344
  0
LINE
  8
_1-2_極細2
  6
CONTINUOUS
 62
    2
 10
284.05983670440327
 20
340.02027097951634
 11
281.0788843107224
 21
343.00122337319749
  0
LINE
  8
_1-2_極細2
  6
CONTINUOUS
 62
    2
 10
283.21130856697954
 20
340.02027097951634
 11
281.0788843107224
 21
342.15269523577376
  0
LINE
  8
_1-2_極細2
  6
CONTINUOUS
 62
    2
 10
282.36278042955581
 20
340.02027097951634
 11
281.0788843107224
 21
341.30416709834992
  0
LINE
  8
_1-2_極細2
  6
CONTINUOUS
 62
    2
 10
281.51425229213208
 20
340.02027097951634
 11
281.0788843107224
 21
340.45563896092619
  0
LINE
  8
_1-2_極細2
  6
CONTINUOUS
 62
    2
 10
278.79349466606186
 20
269.220270980225
 11
281.0788843107224
 21
271.50566062488542
  0
LINE
  8
_1-2_極細2
  6
CONTINUOUS
 62
    2
 10
274.55085397894254
 20
269.220270980225
 11
281.0788843107224
 21
275.74830131200474
  0
LINE
  8
_1-2_極細2
  6
CONTINUOUS
 62
    2
 10
270.30821329182345
 20
269.220270980225
 11
279.30821329173341
 21
278.22027098013496
  0
LINE
  8
_1-2_極細2
  6
CONTINUOUS
 62
    2
 10
221.06557260515382
 20
224.22027098067494
 11
221.07888437072253
 21
224.23358274624383
  0
LINE
  8
_1-2_極細2
  6
CONTINUOUS
 62
    2
 10
266.0655726047039
 20
269.220270980225
 11
275.06557260461386
 21
278.22027098013496
  0
LINE
  8
_1-2_極細2
  6
CONTINUOUS
 62
    2
 10
216.8229319180345
 20
224.22027098067494
 11
221.07888437072253
 21
228.47622343336315
  0
LINE
  8
_1-2_極細2
  6
CONTINUOUS
 62
    2
 10
261.82293191758458
 20
269.220270980225
 11
270.82293191749454
 21
278.22027098013496
  0
LINE
  8
_1-2_極細2
  6
CONTINUOUS
 62
    2
 10
214.02888437777295
 20
225.66886412753271
 11
221.07888437072253
 21
232.71886412048246
  0
LINE
  8
_1-2_極細2
  6
CONTINUOUS
 62
    2
 10
257.58029123046526
 20
269.220270980225
 11
266.58029123037522
 21
278.22027098013496
  0
LINE
  8
_1-2_極細2
  6
CONTINUOUS
 62
    2
 10
214.02888437777295
 20
229.91150481465203
 11
221.07888437072253
 21
236.96150480760178
  0
LINE
  8
_1-2_極細2
  6
CONTINUOUS
 62
    2
 10
253.33765054334592
 20
269.220270980225
 11
262.3376505432559
 21
278.22027098013496
  0
LINE
  8
_1-2_極細2
  6
CONTINUOUS
 62
    2
 10
214.02888437777295
 20
234.15414550177135
 11
221.07888437072253
 21
241.2041454947211
  0
LINE
  8
_1-2_極細2
  6
CONTINUOUS
 62
    2
 10
249.09500985622685
 20
269.220270980225
 11
258.09500985613681
 21
278.22027098013496
  0
LINE
  8
_1-2_極細2
  6
CONTINUOUS
 62
    2
 10
214.02888437777295
 20
238.39678618889067
 11
221.07888437072253
 21
245.44678618184042
  0
LINE
  8
_1-2_極細2
  6
CONTINUOUS
 62
    2
 10
244.85236916910728
 20
269.220270980225
 11
253.85236916901724
 21
278.22027098013496
  0
LINE
  8
_1-2_極細2
  6
CONTINUOUS
 62
    2
 10
214.02888437777295
 20
242.63942687600999
 11
221.07888437072253
 21
249.6894268689598
  0
LINE
  8
_1-2_極細2
  6
CONTINUOUS
 62
    2
 10
240.60972848198796
 20
269.220270980225
 11
249.60972848189792
 21
278.22027098013496
  0
LINE
  8
_1-2_極細2
  6
CONTINUOUS
 62
    2
 10
214.02888437777295
 20
246.88206756312931
 11
221.07888437072253
 21
253.93206755607912
  0
LINE
  8
_1-2_極細2
  6
CONTINUOUS
 62
    2
 10
236.36708779486864
 20
269.220270980225
 11
245.3670877947786
 21
278.22027098013496
  0
LINE
  8
_1-2_極細2
  6
CONTINUOUS
 62
    2
 10
214.02888437777295
 20
251.12470825024863
 11
221.07888437072253
 21
258.17470824319844
  0
LINE
  8
_1-2_極細2
  6
CONTINUOUS
 62
    2
 10
232.12444710774932
 20
269.220270980225
 11
241.12444710765928
 21
278.22027098013496
  0
LINE
  8
_1-2_極細2
  6
CONTINUOUS
 62
    2
 10
214.02888437777295
 20
255.36734893736795
 11
221.07888437072253
 21
262.41734893031776
  0
LINE
  8
_1-2_極細2
  6
CONTINUOUS
 62
    2
 10
227.88180642063008
 20
269.220270980225
 11
236.88180642054004
 21
278.22027098013496
  0
LINE
  8
_1-2_極細2
  6
CONTINUOUS
 62
    2
 10
214.02888437777295
 20
259.6099896244873
 11
221.07888437072253
 21
266.65998961743708
  0
LINE
  8
_1-2_極細2
  6
CONTINUOUS
 62
    2
 10
223.63916573351068
 20
269.220270980225
 11
232.63916573342064
 21
278.22027098013496
  0
LINE
  8
_1-2_極細2
  6
CONTINUOUS
 62
    2
 10
214.02888437777295
 20
263.85263031160662
 11
228.39652504630141
 21
278.22027098013496
  0
LINE
  8
_1-2_極細2
  6
CONTINUOUS
 62
    2
 10
214.02888437777295
 20
268.09527099872594
 11
224.153884359182
 21
278.22027098013496
  0
LINE
  8
_1-2_極細2
  6
CONTINUOUS
 62
    2
 10
214.02888437777295
 20
272.33791168584526
 11
221.07888437072253
 21
279.38791167879504
  0
LINE
  8
_1-2_極細2
  6
CONTINUOUS
 62
    2
 10
214.02888437777295
 20
276.58055237296458
 11
221.07888437072253
 21
283.63055236591435
  0
LINE
  8
_1-2_極細2
  6
CONTINUOUS
 62
    2
 10
214.02888437777295
 20
280.8231930600839
 11
221.07888437072253
 21
287.87319305303367
  0
LINE
  8
_1-2_極細2
  6
CONTINUOUS
 62
    2
 10
214.02888437777295
 20
285.06583374720321
 11
221.07888437072253
 21
292.11583374015299
  0
LINE
  8
_1-2_極細2
  6
CONTINUOUS
 62
    2
 10
214.02888437777295
 20
289.30847443432253
 11
221.07888437072253
 21
296.35847442727231
  0
LINE
  8
_1-2_極細2
  6
CONTINUOUS
 62
    2
 10
214.02888437777295
 20
293.55111512144185
 11
221.07888437072253
 21
300.60111511439163
  0
LINE
  8
_1-2_極細2
  6
CONTINUOUS
 62
    2
 10
214.02888437777295
 20
297.79375580856117
 11
220.88555779734631
 21
304.65042922813473
  0
LINE
  8
_1-2_極細2
  6
CONTINUOUS
 62
    2
 10
214.02888437777295
 20
302.03639649568049
 11
220.411831102956
 21
308.41934322086365
  0
LINE
  8
_1-2_極細2
  6
CONTINUOUS
 62
    2
 10
214.02888437777295
 20
306.27903718279981
 11
219.93810440856561
 21
312.18825721359258
  0
LINE
  8
_1-2_極細2
  6
CONTINUOUS
 62
    2
 10
214.02888437777295
 20
310.52167786991913
 11
219.46437771417521
 21
315.9571712063215
  0
LINE
  8
_1-2_極細2
  6
CONTINUOUS
 62
    2
 10
214.02888437777295
 20
314.76431855703845
 11
218.99065101978482
 21
319.72608519905043
  0
LINE
  8
_1-2_極細2
  6
CONTINUOUS
 62
    2
 10
214.02888437777295
 20
319.00695924415777
 11
218.51692432539443
 21
323.49499919177936
  0
LINE
  8
_1-2_極細2
  6
CONTINUOUS
 62
    2
 10
214.02888437777295
 20
323.24959993127709
 11
218.04319763100395
 21
327.26391318450828
  0
LINE
  8
_1-2_極細2
  6
CONTINUOUS
 62
    2
 10
214.02888437777295
 20
327.49224061839641
 11
216.35691473899504
 21
329.8202709796185
  0
LINE
  8
_1-2_極細2
  6
CONTINUOUS
 62
    2
 10
211.02888438077292
 20
328.7348813085157
 11
215.75274886610026
 21
333.45874579384304
  0
LINE
  8
_1-2_極細2
  6
CONTINUOUS
 62
    2
 10
211.02888438077292
 20
332.97752199563502
 11
215.27902205474351
 21
337.22765966960583
  0
LINE
  8
_1-2_極細2
  6
CONTINUOUS
 62
    2
 10
211.02888438077292
 20
337.22016268275434
 11
214.80529524338709
 21
340.99657354536851
  0
LINE
  8
_1-2_極細2
  6
CONTINUOUS
 62
    2
 10
210.09735894007142
 20
340.53127792917212
 11
214.33156843203034
 21
344.76548742113118
  0
LINE
  8
_1-2_極細2
  6
CONTINUOUS
 62
    2
 10
207.90787460405664
 20
342.58443428027658
 11
213.48275285711196
 21
348.15931253333201
  0
LINE
  8
_1-2_極細2
  6
CONTINUOUS
 62
    2
 10
204.40107061614407
 20
343.32027097948344
 11
210.40107061319287
 21
349.32027097653236
  0
LINE
  8
_1-2_極細2
  6
CONTINUOUS
 62
    2
 10
200.15842992902475
 20
343.32027097948344
 11
206.15842992654413
 21
349.32027097700291
  0
LINE
  8
_1-2_極細2
  6
CONTINUOUS
 62
    2
 10
195.91578924190543
 20
343.32027097948344
 11
201.91578923989522
 21
349.32027097747323
  0
LINE
  8
_1-2_極細2
  6
CONTINUOUS
 62
    2
 10
191.67314855478611
 20
343.32027097948344
 11
197.67314855324656
 21
349.32027097794378
  0
LINE
  8
_1-2_極細2
  6
CONTINUOUS
 62
    2
 10
187.43050786766679
 20
343.32027097948344
 11
193.43050786659757
 21
349.3202709784141
  0
LINE
  8
_1-2_極細2
  6
CONTINUOUS
 62
    2
 10
184.32888440747223
 20
344.4612882064082
 11
189.18786717994857
 21
349.32027097888476
  0
LINE
  8
_1-2_極細2
  6
CONTINUOUS
 62
    2
 10
184.32888440747223
 20
348.70392889352752
 11
184.94522649329991
 21
349.32027097935509
  0
LINE
  8
_1-2_極細2
  6
CONTINUOUS
 62
    2
 10
281.0788843107224
 20
276.57903721249772
 11
279.43765054308483
 21
278.22027098013496
  0
LINE
  8
_1-2_極細2
  6
CONTINUOUS
 62
    2
 10
214.53846306469057
 20
343.11945845852983
 11
208.3376505464592
 21
349.32027097676121
  0
LINE
  8
_1-2_極細2
  6
CONTINUOUS
 62
    2
 10
281.0788843107224
 20
272.33639652537863
 11
275.19500985596608
 21
278.22027098013496
  0
LINE
  8
_1-2_極細2
  6
CONTINUOUS
 62
    2
 10
215.14839889083868
 20
338.26688194526241
 11
204.09500985886956
 21
349.32027097723164
  0
LINE
  8
_1-2_極細2
  6
CONTINUOUS
 62
    2
 10
279.95236916875655
 20
269.220270980225
 11
270.95236916884659
 21
278.22027098013496
  0
LINE
  8
_1-2_極細2
  6
CONTINUOUS
 62
    2
 10
215.75833471698678
 20
333.4143054319951
 11
210.96253356051895
 21
338.21010658846262
  0
LINE
  8
_1-2_極細2
  6
CONTINUOUS
 62
    2
 10
205.91871999569202
 20
343.25392015328976
 11
199.85236917127983
 21
349.32027097770208
  0
LINE
  8
_1-2_極細2
  6
CONTINUOUS
 62
    2
 10
275.70972848163723
 20
269.220270980225
 11
266.70972848172727
 21
278.22027098013496
  0
LINE
  8
_1-2_極細2
  6
CONTINUOUS
 62
    2
 10
218.09741236868302
 20
326.83258709317965
 11
211.02888438077292
 21
333.90111508108976
  0
LINE
  8
_1-2_極細2
  6
CONTINUOUS
 62
    2
 10
201.60972848237924
 20
343.32027097948344
 11
195.60972848369028
 21
349.32027097817263
  0
LINE
  8
_1-2_極細2
  6
CONTINUOUS
 62
    2
 10
271.46708779451791
 20
269.220270980225
 11
262.46708779460795
 21
278.22027098013496
  0
LINE
  8
_1-2_極細2
  6
CONTINUOUS
 62
    2
 10
218.70734800093302
 20
321.98001077381014
 11
214.02888437777295
 21
326.65847439697029
  0
LINE
  8
_1-2_極細2
  6
CONTINUOUS
 62
    2
 10
212.36708779510985
 20
328.32027097963351
 11
211.02888438077292
 21
329.65847439397044
  0
LINE
  8
_1-2_極細2
  6
CONTINUOUS
 62
    2
 10
197.36708779525992
 20
343.32027097948344
 11
191.36708779610029
 21
349.32027097864307
  0
LINE
  8
_1-2_極細2
  6
CONTINUOUS
 62
    2
 10
267.22444710739859
 20
269.220270980225
 11
258.22444710748863
 21
278.22027098013496
  0
LINE
  8
_1-2_極細2
  6
CONTINUOUS
 62
    2
 10
219.31728363318354
 20
317.1274344544405
 11
214.02888437777295
 21
322.41583370985097
  0
LINE
  8
_1-2_極細2
  6
CONTINUOUS
 62
    2
 10
193.1244471081406
 20
343.32027097948344
 11
187.12444710851057
 21
349.3202709791135
  0
LINE
  8
_1-2_極細2
  6
CONTINUOUS
 62
    2
 10
262.98180642027944
 20
269.220270980225
 11
253.98180642036948
 21
278.22027098013496
  0
LINE
  8
_1-2_極細2
  6
CONTINUOUS
 62
    2
 10
219.92721926543362
 20
312.27485813507099
 11
214.02888437777295
 21
318.17319302273177
  0
LINE
  8
_1-2_極細2
  6
CONTINUOUS
 62
    2
 10
188.88180642102128
 20
343.32027097948344
 11
184.32888440747223
 21
347.87319299303272
  0
LINE
  8
_1-2_極細2
  6
CONTINUOUS
 62
    2
 10
258.73916573316023
 20
269.220270980225
 11
249.73916573325025
 21
278.22027098013496
  0
LINE
  8
_1-2_極細2
  6
CONTINUOUS
 62
    2
 10
220.53715489768405
 20
307.42228181570135
 11
214.02888437777295
 21
313.93055233561245
  0
LINE
  8
_1-2_極細2
  6
CONTINUOUS
 62
    2
 10
184.63916573390196
 20
343.32027097948344
 11
184.32888440747223
 21
343.6305523059134
  0
LINE
  8
_1-2_極細2
  6
CONTINUOUS
 62
    2
 10
254.49652504604089
 20
269.220270980225
 11
245.49652504613093
 21
278.22027098013496
  0
LINE
  8
_1-2_極細2
  6
CONTINUOUS
 62
    2
 10
221.07888437072253
 20
302.63791165554346
 11
214.02888437777295
 21
309.68791164849313
  0
LINE
  8
_1-2_極細2
  6
CONTINUOUS
 62
    2
 10
250.25388435892182
 20
269.220270980225
 11
241.25388435901186
 21
278.22027098013496
  0
LINE
  8
_1-2_極細2
  6
CONTINUOUS
 62
    2
 10
221.07888437072253
 20
298.39527096842426
 11
214.02888437777295
 21
305.44527096137381
  0
LINE
  8
_1-2_極細2
  6
CONTINUOUS
 62
    2
 10
246.01124367180225
 20
269.220270980225
 11
237.01124367189229
 21
278.22027098013496
  0
LINE
  8
_1-2_極細2
  6
CONTINUOUS
 62
    2
 10
221.07888437072253
 20
294.15263028130494
 11
214.02888437777295
 21
301.20263027425449
  0
LINE
  8
_1-2_極細2
  6
CONTINUOUS
 62
    2
 10
241.76860298468293
 20
269.220270980225
 11
232.76860298477305
 21
278.22027098013496
  0
LINE
  8
_1-2_極細2
  6
CONTINUOUS
 62
    2
 10
221.07888437072253
 20
289.90998959418562
 11
214.02888437777295
 21
296.9599895871354
  0
LINE
  8
_1-2_極細2
  6
CONTINUOUS
 62
    2
 10
237.52596229756361
 20
269.220270980225
 11
228.52596229765365
 21
278.22027098013496
  0
LINE
  8
_1-2_極細2
  6
CONTINUOUS
 62
    2
 10
221.07888437072253
 20
285.6673489070663
 11
214.02888437777295
 21
292.71734890001608
  0
LINE
  8
_1-2_極細2
  6
CONTINUOUS
 62
    2
 10
233.28332161044472
 20
269.220270980225
 11
224.28332161053476
 21
278.22027098013496
  0
LINE
  8
_1-2_極細2
  6
CONTINUOUS
 62
    2
 10
221.07888437072253
 20
281.42470821994698
 11
214.02888437777295
 21
288.47470821289676
  0
LINE
  8
_1-2_極細2
  6
CONTINUOUS
 62
    2
 10
229.0406809233254
 20
269.220270980225
 11
214.02888437777295
 21
284.23206752577744
  0
LINE
  8
_1-2_極細2
  6
CONTINUOUS
 62
    2
 10
224.79804023620608
 20
269.220270980225
 11
214.02888437777295
 21
279.98942683865812
  0
LINE
  8
_1-2_極細2
  6
CONTINUOUS
 62
    2
 10
221.07888437072253
 20
268.69678615858902
 11
214.02888437777295
 21
275.74678615153903
  0
LINE
  8
_1-2_極細2
  6
CONTINUOUS
 62
    2
 10
221.07888437072253
 20
264.4541454714697
 11
214.02888437777295
 21
271.50414546441948
  0
LINE
  8
_1-2_極細2
  6
CONTINUOUS
 62
    2
 10
221.07888437072253
 20
260.21150478435061
 11
214.02888437777295
 21
267.26150477730039
  0
LINE
  8
_1-2_極細2
  6
CONTINUOUS
 62
    2
 10
221.07888437072253
 20
255.96886409723126
 11
214.02888437777295
 21
263.01886409018107
  0
LINE
  8
_1-2_極細2
  6
CONTINUOUS
 62
    2
 10
221.07888437072253
 20
251.72622341011194
 11
214.02888437777295
 21
258.77622340306175
  0
LINE
  8
_1-2_極細2
  6
CONTINUOUS
 62
    2
 10
221.07888437072253
 20
247.48358272299262
 11
214.02888437777295
 21
254.53358271594243
  0
LINE
  8
_1-2_極細2
  6
CONTINUOUS
 62
    2
 10
221.07888437072253
 20
243.2409420358733
 11
214.02888437777295
 21
250.29094202882311
  0
LINE
  8
_1-2_極細2
  6
CONTINUOUS
 62
    2
 10
221.07888437072253
 20
238.99830134875424
 11
214.02888437777295
 21
246.04830134170379
  0
LINE
  8
_1-2_極細2
  6
CONTINUOUS
 62
    2
 10
221.07888437072253
 20
234.75566066163466
 11
214.02888437777295
 21
241.80566065458441
  0
LINE
  8
_1-2_極細2
  6
CONTINUOUS
 62
    2
 10
221.07888437072253
 20
230.5130199745156
 11
214.02888437777295
 21
237.5630199674651
  0
LINE
  8
_1-2_極細2
  6
CONTINUOUS
 62
    2
 10
221.07888437072253
 20
226.27037928739628
 11
214.02888437777295
 21
233.32037928034578
  0
LINE
  8
_1-2_極細2
  6
CONTINUOUS
 62
    2
 10
218.88635199032439
 20
224.22027098067494
 11
214.02888437777295
 21
229.07773859322671
  0
LINE
  8
_1-2_極細2
  6
CONTINUOUS
 62
    2
 10
214.64371130320541
 20
224.22027098067494
 11
214.02888437777295
 21
224.83509790610739
  0
LINE
  8
_1-2_極細2
  6
CONTINUOUS
 62
    2
 10
216.18452692219779
 20
330.02357109930722
 11
217.52752220293604
 21
331.36656638004558
  0
LINE
  8
_1-2_極細2
  6
CONTINUOUS
 62
    2
 10
215.71079990276002
 20
333.79248476698876
 11
217.05379550854599
 21
335.13548037277462
  0
LINE
  8
_1-2_極細2
  6
CONTINUOUS
 62
    2
 10
215.23707288332224
 20
337.56139843467031
 11
216.58006881415551
 21
338.90439436550355
  0
LINE
  8
_1-2_極細2
  6
CONTINUOUS
 62
    2
 10
214.76334586388447
 20
341.33031210235185
 11
216.1063421197652
 21
342.67330835823259
  0
LINE
  8
_1-2_極細2
  6
CONTINUOUS
 62
    2
 10
214.28961884444669
 20
345.09922577003329
 11
215.63261542537472
 21
346.44222235096152
  0
LINE
  8
_1-2_極細2
  6
CONTINUOUS
 62
    2
 10
213.31017514006788
 20
348.3624227527738
 11
214.37131051315595
 21
349.42355812586186
  0
LINE
  8
_1-2_極細2
  6
CONTINUOUS
 62
    2
 10
210.02538267959807
 20
349.32027097942341
 11
211.50797442058567
 21
350.8028627204111
  0
LINE
  8
_1-2_極細2
  6
CONTINUOUS
 62
    2
 10
205.78274199247875
 20
349.32027097942341
 11
207.28274198864591
 21
350.82027097559057
  0
LINE
  8
_1-2_極細2
  6
CONTINUOUS
 62
    2
 10
201.54010130535943
 20
349.32027097942341
 11
203.04010130223216
 21
350.82027097629623
  0
LINE
  8
_1-2_極細2
  6
CONTINUOUS
 62
    2
 10
197.29746061824011
 20
349.32027097942341
 11
198.79746061581858
 21
350.82027097700188
  0
LINE
  8
_1-2_極細2
  6
CONTINUOUS
 62
    2
 10
193.05481993112079
 20
349.32027097942341
 11
194.55481992940483
 21
350.82027097770754
  0
LINE
  8
_1-2_極細2
  6
CONTINUOUS
 62
    2
 10
188.81217924400147
 20
349.32027097942341
 11
190.31217924299125
 21
350.82027097841319
  0
LINE
  8
_1-2_極細2
  6
CONTINUOUS
 62
    2
 10
184.56953855688215
 20
349.32027097942341
 11
186.0695385565775
 21
350.82027097911896
  0
LINE
  8
_1-5_寸法2
  6
CONTINUOUS
 62
    7
 10
234.29051868979758
 20
290.64880906157941
 11
228.2905187404975
 21
280.25650418689457
  0
LINE
  8
_1-5_寸法2
  6
CONTINUOUS
 62
    7
 10
234.29051868979758
 20
290.64880906157941
 11
223.89821387365598
 21
284.64880901087952
  0
LINE
  8
_1-5_寸法2
  6
CONTINUOUS
 62
    7
 10
234.29051868979758
 20
290.64880906157941
 11
197.03300043808332
 21
253.39129044633614
  0
LINE
  8
_1-5_寸法2
  6
CONTINUOUS
 62
    7
 10
197.03300043808332
 20
253.39129044633614
 11
110.63300043808346
 21
253.39129044633614
  0
TEXT
  8
_1-5_寸法2
 62
    7
 10
110.63300043808329
 20
253.39129044633614
 40
18
 41
0.7999999999999998
 50
0
  1
ストレーナー
  0
LINE
  8
_1-5_寸法2
  6
CONTINUOUS
 62
    7
 10
338.29206592900755
 20
243.65722217440225
 11
347.21515711801976
 21
235.63360431008616
  0
LINE
  8
_1-5_寸法2
  6
CONTINUOUS
 62
    7
 10
338.29206592900755
 20
243.65722217440225
 11
342.00788064681922
 21
232.24701967913973
  0
LINE
  8
_1-5_寸法2
  6
CONTINUOUS
 62
    7
 10
338.29206592900755
 20
243.65722217440225
 11
389.95438106241039
 21
164.22027098067494
  0
LINE
  8
_1-5_寸法2
  6
CONTINUOUS
 62
    7
 10
389.95438106241039
 20
164.22027098067494
 11
433.15438106241049
 21
164.22027098067494
  0
TEXT
  8
_1-5_寸法2
 62
    7
 10
389.95438106241039
 20
164.22027098067494
 40
18
 41
0.7999999999999998
 50
0
  1
排水口
  0
LINE
  8
_1-5_寸法2
  6
CONTINUOUS
 62
    7
 10
371.24439162286785
 20
330.93891640131983
 11
382.46850190815979
 21
326.69399610717977
  0
LINE
  8
_1-5_寸法2
  6
CONTINUOUS
 62
    7
 10
371.24439162286785
 20
330.93891640131983
 11
378.8422961177389
 21
321.65065244690834
  0
LINE
  8
_1-5_寸法2
  6
CONTINUOUS
 62
    7
 10
371.24439162286785
 20
330.93891640131983
 11
423.66485359807734
 21
293.24817082543359
  0
LINE
  8
_1-5_寸法2
  6
CONTINUOUS
 62
    7
 10
423.66485359807734
 20
293.24817082543359
 11
510.06485359807732
 21
293.24817082543359
  0
TEXT
  8
_1-5_寸法2
 62
    7
 10
423.66485359807734
 20
293.24817082543359
 40
18
 41
0.7999999999999998
 50
0
  1
ロックナット
  0
LINE
  8
_1-5_寸法2
  6
CONTINUOUS
 62
    7
 10
370.23249900969216
 20
342.0945351301242
 11
372.94385407292316
 21
353.78421235924782
  0
LINE
  8
_1-5_寸法2
  6
CONTINUOUS
 62
    7
 10
370.23249900969216
 20
342.0945351301242
 11
378.42543998769168
 21
350.86241504097023
  0
LINE
  8
_1-5_寸法2
  6
CONTINUOUS
 62
    7
 10
370.23249900969216
 20
342.0945351301242
 11
411.12888424067154
 21
418.82027097932848
  0
LINE
  8
_1-5_寸法2
  6
CONTINUOUS
 62
    7
 10
411.12888424067154
 20
418.82027097932848
 11
468.72888424067162
 21
418.82027097932848
  0
TEXT
  8
_1-5_寸法2
 62
    7
 10
411.12888424067154
 20
418.82027097932848
 40
18
 41
0.7999999999999998
 50
0
  1
パッキン
  0
LINE
  8
_1-5_寸法2
  6
CONTINUOUS
 62
    7
 10
211.02888438077292
 20
215.21108298064519
 11
211.02888438077241
 21
158.22027098067494
  0
LINE
  8
_1-5_寸法2
  6
CONTINUOUS
 62
    7
 10
211.0288843807725
 20
164.22027098067494
 11
222.61999429624137
 21
167.32609952190518
  0
LINE
  8
_1-5_寸法2
  6
CONTINUOUS
 62
    7
 10
211.0288843807725
 20
164.22027098067494
 11
222.61999429624137
 21
161.1144424394447
  0
LINE
  8
_1-5_寸法2
  6
CONTINUOUS
 62
    7
 10
351.12888424067154
 20
215.21108298064519
 11
351.12888424067137
 21
158.22027098067494
  0
LINE
  8
_1-5_寸法2
  6
CONTINUOUS
 62
    7
 10
351.12888424067137
 20
164.22027098067494
 11
339.53777432520246
 21
161.1144424394447
  0
LINE
  8
_1-5_寸法2
  6
CONTINUOUS
 62
    7
 10
351.12888424067137
 20
164.22027098067494
 11
339.53777432520258
 21
167.32609952190526
  0
LINE
  8
_1-5_寸法2
  6
CONTINUOUS
 62
    7
 10
211.0288843807725
 20
164.22027098067494
 11
351.12888424067137
 21
164.22027098067494
  0
TEXT
  8
_1-5_寸法2
 62
    7
 10
263.07888431072183
 20
164.22027098067494
 40
18
 41
1
 50
0
  1
46.7
  0
LINE
  8
_1-2_極細2
  6
CENTER1
 62
    2
 10
281.0788843107224
 20
373.82845097917811
 11
281.0788843107224
 21
209.84651898081822
  0
LINE
  8
_1-5_寸法2
  6
CONTINUOUS
 62
    7
 10
360.12888424367151
 20
224.22027098067485
 11
417.12888424067154
 21
224.22027098067468
  0
LINE
  8
_1-5_寸法2
  6
CONTINUOUS
 62
    7
 10
411.12888424067154
 20
224.22027098067468
 11
408.02305569944139
 21
235.81138089614356
  0
LINE
  8
_1-5_寸法2
  6
CONTINUOUS
 62
    7
 10
411.12888424067154
 20
224.22027098067468
 11
414.23471278190186
 21
235.81138089614356
  0
LINE
  8
_1-5_寸法2
  6
CONTINUOUS
 62
    7
 10
371.07888423272254
 20
292.62027097999061
 11
417.12888424067154
 21
292.62027097999044
  0
LINE
  8
_1-5_寸法2
  6
CONTINUOUS
 62
    7
 10
411.12888424067154
 20
292.62027097999044
 11
414.23471278190186
 21
281.02916106452165
  0
LINE
  8
_1-5_寸法2
  6
CONTINUOUS
 62
    7
 10
411.12888424067154
 20
292.62027097999044
 11
408.02305569944139
 21
281.02916106452159
  0
LINE
  8
_1-5_寸法2
  6
CONTINUOUS
 62
    7
 10
411.12888424067154
 20
224.22027098067468
 11
411.12888424067154
 21
292.62027097999044
  0
TEXT
  8
_1-5_寸法2
 62
    7
 10
411.12888424067154
 20
249.42027098033259
 40
18
 41
1
 50
90
  1
23
  0
LINE
  8
_1-5_寸法2
  6
CONTINUOUS
 62
    7
 10
207.5788843107224
 20
369.12027097951716
 11
207.57888431072257
 21
407.22027140192671
  0
LINE
  8
_1-5_寸法2
  6
CONTINUOUS
 62
    7
 10
207.57888431072249
 20
401.22027140192671
 11
219.16999422619136
 21
404.32609994315703
  0
LINE
  8
_1-5_寸法2
  6
CONTINUOUS
 62
    7
 10
207.57888431072249
 20
401.22027140192671
 11
219.16999422619136
 21
398.1144428606965
  0
LINE
  8
_1-5_寸法2
  6
CONTINUOUS
 62
    7
 10
354.5788843107224
 20
369.12027097951716
 11
354.57888431072251
 21
407.22027140192671
  0
LINE
  8
_1-5_寸法2
  6
CONTINUOUS
 62
    7
 10
354.57888431072251
 20
401.22027140192671
 11
342.98777439525361
 21
398.11444286069656
  0
LINE
  8
_1-5_寸法2
  6
CONTINUOUS
 62
    7
 10
354.57888431072251
 20
401.22027140192671
 11
342.98777439525372
 21
404.32609994315703
  0
LINE
  8
_1-5_寸法2
  6
CONTINUOUS
 62
    7
 10
207.57888431072249
 20
401.22027140192671
 11
354.57888431072251
 21
401.22027140192671
  0
TEXT
  8
_1-5_寸法2
 62
    7
 10
238.32888431072249
 20
401.22027140192671
 40
18
 41
1
 50
0
  1
φ49___±0.5
  0
LINE
  8
_1-5_寸法2
  6
CONTINUOUS
 62
    7
 10
183.5788843107224
 20
369.12027097951704
 11
183.57888431072249
 21
449.22027140192671
  0
LINE
  8
_1-5_寸法2
  6
CONTINUOUS
 62
    7
 10
183.57888431072249
 20
443.22027140192671
 11
195.16999422619136
 21
446.32609994315703
  0
LINE
  8
_1-5_寸法2
  6
CONTINUOUS
 62
    7
 10
183.57888431072249
 20
443.22027140192671
 11
195.16999422619136
 21
440.1144428606965
  0
LINE
  8
_1-5_寸法2
  6
CONTINUOUS
 62
    7
 10
378.5788843107224
 20
369.12027097951704
 11
378.57888431072251
 21
449.22027140192671
  0
LINE
  8
_1-5_寸法2
  6
CONTINUOUS
 62
    7
 10
378.57888431072251
 20
443.22027140192671
 11
366.98777439525361
 21
440.11444286069656
  0
LINE
  8
_1-5_寸法2
  6
CONTINUOUS
 62
    7
 10
378.57888431072251
 20
443.22027140192671
 11
366.98777439525372
 21
446.32609994315703
  0
LINE
  8
_1-5_寸法2
  6
CONTINUOUS
 62
    7
 10
183.57888431072249
 20
443.22027140192671
 11
378.57888431072251
 21
443.22027140192671
  0
TEXT
  8
_1-5_寸法2
 62
    7
 10
238.32888431072249
 20
443.22027140192671
 40
18
 41
1
 50
0
  1
φ65___±0.3
  0
TEXT
  8
_0-7_枠細線
 62
    5
 10
222.88354316546361
 20
474.72508380526858
 40
24
 41
0.8
 50
0
  1
排水部詳細図
  0
TEXT
  8
_0-7_枠細線
 62
    5
 10
354.6099967125852
 20
474.72508380526858
 40
24
 41
0.6000000000000002
 50
0
  1
Ｓ＝１：２
  0
LINE
  8
_0-1_計細線
  6
CONTINUOUS
 62
    3
 10
770.31304143616194
 20
635.45787947158112
 11
373.3130411300005
 21
635.45787947158112
  0
LINE
  8
_0-1_計細線
  6
CONTINUOUS
 62
    3
 10
357.31304143616188
 20
635.45787947158112
 11
340.61304121194701
 21
635.45787947158112
  0
LINE
  8
_0-1_計細線
  6
CONTINUOUS
 62
    3
 10
340.61304121194701
 20
635.45787947158112
 11
340.61304121194701
 21
647.45787947158112
  0
LINE
  8
_0-1_計細線
  6
CONTINUOUS
 62
    3
 10
359.31304143616183
 20
647.45787947158249
 11
357.31304143616188
 21
645.45787947158249
  0
LINE
  8
_0-1_計細線
  6
CONTINUOUS
 62
    3
 10
357.31304143616188
 20
635.45787947158249
 11
357.31304143616188
 21
645.45787947158249
  0
LINE
  8
_0-1_計細線
  6
CONTINUOUS
 62
    3
 10
373.3130411300005
 20
645.45787947158249
 11
371.31304113000044
 21
647.45787947158249
  0
LINE
  8
_0-1_計細線
  6
CONTINUOUS
 62
    3
 10
373.3130411300005
 20
635.45787947158249
 11
373.3130411300005
 21
645.45787947158249
  0
LINE
  8
_0-1_計細線
  6
CONTINUOUS
 62
    3
 10
359.31304143616183
 20
631.45787947158237
 11
357.31304143616188
 21
629.45787947158249
  0
LINE
  8
_0-1_計細線
  6
CONTINUOUS
 62
    3
 10
359.31304143616183
 20
633.45787947158249
 11
359.31304143616183
 21
631.45787947158237
  0
LINE
  8
_0-1_計細線
  6
CONTINUOUS
 62
    3
 10
357.31304143616188
 20
635.45787947158249
 11
359.31304143616183
 21
633.45787947158249
  0
LINE
  8
_0-1_計細線
  6
CONTINUOUS
 62
    3
 10
371.31304113000044
 20
631.45787947158237
 11
373.3130411300005
 21
629.45787947158249
  0
LINE
  8
_0-1_計細線
  6
CONTINUOUS
 62
    3
 10
371.31304113000044
 20
633.45787947158249
 11
371.31304113000044
 21
631.45787947158237
  0
LINE
  8
_0-1_計細線
  6
CONTINUOUS
 62
    3
 10
373.3130411300005
 20
635.45787947158249
 11
371.31304113000044
 21
633.45787947158249
  0
LINE
  8
_0-1_計細線
  6
CONTINUOUS
 62
    3
 10
357.31304143616188
 20
629.45787947158249
 11
357.31304143616188
 21
615.45787947158249
  0
ARC
  8
_0-1_計細線
  6
CONTINUOUS
 62
    3
 10
360.31304143616188
 20
615.45787947158249
 40
3
 50
179.99999999999983
 51
269.99999999999977
  0
LINE
  8
_0-1_計細線
  6
CONTINUOUS
 62
    3
 10
360.31304143616188
 20
612.45787947158249
 11
370.3130411300005
 21
612.45787947158249
  0
LINE
  8
_0-1_計細線
  6
CONTINUOUS
 62
    3
 10
373.3130411300005
 20
629.45787947158249
 11
373.3130411300005
 21
615.45787947158249
  0
ARC
  8
_0-1_計細線
  6
CONTINUOUS
 62
    3
 10
370.3130411300005
 20
615.45787947158249
 40
3
 50
269.99999999999977
 51
359.99999999999966
  0
LINE
  8
_0-0_計極細
  6
CENTER1
 62
    2
 10
365.31304121194688
 20
659.09925333697026
 11
365.31304121194688
 21
603.82913550072715
  0
LINE
  8
_0-5_寸法線
  6
CONTINUOUS
 62
    7
 10
372.64947733072285
 20
613.62273636860857
 11
381.79456032179149
 21
605.85308662833927
  0
LINE
  8
_0-5_寸法線
  6
CONTINUOUS
 62
    7
 10
372.64947733072285
 20
613.62273636860857
 11
376.68452665057055
 21
602.3214808194939
  0
LINE
  8
_0-5_寸法線
  6
CONTINUOUS
 62
    7
 10
372.64947733072285
 20
613.62273636860857
 11
400.27140287769902
 21
573.65537385734592
  0
LINE
  8
_0-5_寸法線
  6
CONTINUOUS
 62
    7
 10
400.27140287769902
 20
573.65537385734592
 11
457.8714028776991
 21
573.65537385734592
  0
TEXT
  8
_0-5_寸法線
 62
    7
 10
400.27140287769902
 20
573.65537385734592
 40
18
 41
0.7999999999999998
 50
0
  1
アンカー
  0
LINE
  8
_0-1_計細線
  6
CONTINUOUS
 62
    3
 10
1183.3130414361631
 20
635.45787947158112
 11
786.31304113000056
 21
635.45787947158112
  0
LINE
  8
_0-1_計細線
  6
CONTINUOUS
 62
    3
 10
1216.0130412119472
 20
635.45787947158112
 11
1199.3130411300003
 21
635.45787947158112
  0
LINE
  8
_0-1_計細線
  6
CONTINUOUS
 62
    3
 10
1216.0130412119472
 20
647.45787947158112
 11
1216.0130412119472
 21
635.45787947158112
  0
LINE
  8
_0-1_計細線
  6
CONTINUOUS
 62
    3
 10
1185.3130414361619
 20
647.45787947158249
 11
1183.3130414361617
 21
645.45787947158249
  0
LINE
  8
_0-1_計細線
  6
CONTINUOUS
 62
    3
 10
1183.3130414361617
 20
635.45787947158249
 11
1183.3130414361617
 21
645.45787947158249
  0
LINE
  8
_0-1_計細線
  6
CONTINUOUS
 62
    3
 10
1199.3130411300003
 20
645.45787947158249
 11
1197.3130411300006
 21
647.45787947158249
  0
LINE
  8
_0-1_計細線
  6
CONTINUOUS
 62
    3
 10
1199.3130411300003
 20
635.45787947158249
 11
1199.3130411300003
 21
645.45787947158249
  0
LINE
  8
_0-1_計細線
  6
CONTINUOUS
 62
    3
 10
1185.3130414361619
 20
631.45787947158237
 11
1183.3130414361617
 21
629.45787947158249
  0
LINE
  8
_0-1_計細線
  6
CONTINUOUS
 62
    3
 10
1185.3130414361619
 20
633.45787947158249
 11
1185.3130414361619
 21
631.45787947158237
  0
LINE
  8
_0-1_計細線
  6
CONTINUOUS
 62
    3
 10
1183.3130414361617
 20
635.45787947158249
 11
1185.3130414361619
 21
633.45787947158249
  0
LINE
  8
_0-1_計細線
  6
CONTINUOUS
 62
    3
 10
1197.3130411300006
 20
631.45787947158237
 11
1199.3130411300003
 21
629.45787947158249
  0
LINE
  8
_0-1_計細線
  6
CONTINUOUS
 62
    3
 10
1197.3130411300006
 20
633.45787947158249
 11
1197.3130411300006
 21
631.45787947158237
  0
LINE
  8
_0-1_計細線
  6
CONTINUOUS
 62
    3
 10
1199.3130411300003
 20
635.45787947158249
 11
1197.3130411300006
 21
633.45787947158249
  0
LINE
  8
_0-1_計細線
  6
CONTINUOUS
 62
    3
 10
1183.3130414361617
 20
629.45787947158249
 11
1183.3130414361617
 21
615.45787947158249
  0
ARC
  8
_0-1_計細線
  6
CONTINUOUS
 62
    3
 10
1186.3130414361617
 20
615.45787947158249
 40
3
 50
179.99999999999983
 51
269.99999999999977
  0
LINE
  8
_0-1_計細線
  6
CONTINUOUS
 62
    3
 10
1186.3130414361617
 20
612.45787947158249
 11
1196.3130411300003
 21
612.45787947158249
  0
LINE
  8
_0-1_計細線
  6
CONTINUOUS
 62
    3
 10
1199.3130411300003
 20
629.45787947158249
 11
1199.3130411300003
 21
615.45787947158249
  0
ARC
  8
_0-1_計細線
  6
CONTINUOUS
 62
    3
 10
1196.3130411300003
 20
615.45787947158249
 40
3
 50
269.99999999999977
 51
359.99999999999966
  0
LINE
  8
_0-0_計極細
  6
CENTER1
 62
    2
 10
1191.3130412119467
 20
659.09925333697026
 11
1191.3130412119467
 21
603.82913550072715
  0
LINE
  8
_0-5_寸法線
  6
CONTINUOUS
 62
    7
 10
1228.0130412119472
 20
635.45787947158101
 11
1334.3130412119469
 21
635.45787947157987
  0
LINE
  8
_0-5_寸法線
  6
CONTINUOUS
 62
    7
 10
1328.3130412119469
 20
635.45787947157999
 11
1331.4188697531772
 21
623.86676955611119
  0
LINE
  8
_0-5_寸法線
  6
CONTINUOUS
 62
    7
 10
1328.3130412119469
 20
635.45787947157999
 11
1325.2072126707167
 21
623.86676955611119
  0
LINE
  8
_0-5_寸法線
  6
CONTINUOUS
 62
    7
 10
1238.3130412119469
 20
655.45787947158101
 11
1334.3130412119469
 21
655.45787947157987
  0
LINE
  8
_0-5_寸法線
  6
CONTINUOUS
 62
    7
 10
1328.3130412119469
 20
655.45787947157999
 11
1325.2072126707167
 21
667.04898938704878
  0
LINE
  8
_0-5_寸法線
  6
CONTINUOUS
 62
    7
 10
1328.3130412119469
 20
655.45787947157999
 11
1331.4188697531772
 21
667.04898938704878
  0
LINE
  8
_0-5_寸法線
  6
CONTINUOUS
 62
    7
 10
1328.3130412119469
 20
605.45787947157999
 11
1328.3130412119469
 21
685.45787947157999
  0
TEXT
  8
_0-5_寸法線
 62
    7
 10
1328.3130412119469
 20
659.18934792796199
 40
18
 41
1
 50
90
  1
20
  0
LINE
  8
_0-5_寸法線
  6
CONTINUOUS
 62
    7
 10
1238.3130412119469
 20
647.45787947158237
 11
1292.3130412119469
 21
647.45787947158169
  0
LINE
  8
_0-5_寸法線
  6
CONTINUOUS
 62
    7
 10
1286.3130412119469
 20
647.4578794715818
 11
1289.4188697531772
 21
635.86676955611301
  0
LINE
  8
_0-5_寸法線
  6
CONTINUOUS
 62
    7
 10
1286.3130412119469
 20
647.4578794715818
 11
1283.2072126707167
 21
635.86676955611301
  0
LINE
  8
_0-5_寸法線
  6
CONTINUOUS
 62
    7
 10
1238.3130412119469
 20
655.45787947158101
 11
1292.3130412119469
 21
655.45787947158033
  0
LINE
  8
_0-5_寸法線
  6
CONTINUOUS
 62
    7
 10
1286.3130412119469
 20
655.45787947158033
 11
1283.2072126707167
 21
667.04898938704923
  0
LINE
  8
_0-5_寸法線
  6
CONTINUOUS
 62
    7
 10
1286.3130412119469
 20
655.45787947158033
 11
1289.4188697531772
 21
667.04898938704923
  0
LINE
  8
_0-5_寸法線
  6
CONTINUOUS
 62
    7
 10
1286.3130412119469
 20
629.4578794715818
 11
1286.3130412119469
 21
673.45787947158033
  0
TEXT
  8
_0-5_寸法線
 62
    7
 10
1286.3130412119469
 20
660.85846298926515
 40
18
 41
1
 50
90
  1
8
  0
LINE
  8
_0-1_計細線
  6
CONTINUOUS
 62
    3
 10
330.31304121194682
 20
655.45787947158101
 11
330.31304121194682
 21
647.45787947158112
  0
LINE
  8
_0-1_計細線
  6
CONTINUOUS
 62
    3
 10
330.31304121194682
 20
647.45787947158112
 11
1226.3130412119469
 21
647.45787947158112
  0
LINE
  8
_0-1_計細線
  6
CONTINUOUS
 62
    3
 10
1226.3130412119469
 20
647.45787947158112
 11
1226.3130412119469
 21
655.45787947158101
  0
LINE
  8
_0-1_計細線
  6
CONTINUOUS
 62
    3
 10
1226.3130412119469
 20
655.45787947158101
 11
330.31304121194682
 21
655.45787947158101
  0
LINE
  8
_0-5_寸法線
  6
CONTINUOUS
 62
    7
 10
330.31304121194682
 20
667.45787947158101
 11
330.31304121194682
 21
709.45787947158101
  0
LINE
  8
_0-5_寸法線
  6
CONTINUOUS
 62
    7
 10
330.31304121194682
 20
703.45787947158101
 11
341.90415112741573
 21
706.56370801281139
  0
LINE
  8
_0-5_寸法線
  6
CONTINUOUS
 62
    7
 10
330.31304121194682
 20
703.45787947158101
 11
341.90415112741573
 21
700.35205093035086
  0
LINE
  8
_0-5_寸法線
  6
CONTINUOUS
 62
    7
 10
365.31304121194688
 20
667.45787947158101
 11
365.31304121194688
 21
709.45787947158101
  0
LINE
  8
_0-5_寸法線
  6
CONTINUOUS
 62
    7
 10
365.31304121194688
 20
703.45787947158101
 11
353.72193129647803
 21
700.35205093035097
  0
LINE
  8
_0-5_寸法線
  6
CONTINUOUS
 62
    7
 10
365.31304121194688
 20
703.45787947158101
 11
353.72193129647809
 21
706.56370801281139
  0
LINE
  8
_0-5_寸法線
  6
CONTINUOUS
 62
    7
 10
330.31304121194682
 20
703.45787947158101
 11
365.31304121194688
 21
703.45787947158101
  0
TEXT
  8
_0-5_寸法線
 62
    7
 10
338.81304121194682
 20
703.45787947158101
 40
18
 41
1
 50
0
  1
35
  0
LINE
  8
_0-5_寸法線
  6
CONTINUOUS
 62
    7
 10
365.31304121194688
 20
703.45787947158101
 11
376.90415112741567
 21
706.56370801281128
  0
LINE
  8
_0-5_寸法線
  6
CONTINUOUS
 62
    7
 10
365.31304121194688
 20
703.45787947158101
 11
376.90415112741567
 21
700.35205093035086
  0
LINE
  8
_0-5_寸法線
  6
CONTINUOUS
 62
    7
 10
778.31304121194694
 20
667.45787947158101
 11
778.31304121194694
 21
709.45787947158101
  0
LINE
  8
_0-5_寸法線
  6
CONTINUOUS
 62
    7
 10
778.31304121194694
 20
703.45787947158101
 11
766.72193129647815
 21
700.35205093035097
  0
LINE
  8
_0-5_寸法線
  6
CONTINUOUS
 62
    7
 10
778.31304121194694
 20
703.45787947158101
 11
766.72193129647815
 21
706.56370801281139
  0
LINE
  8
_0-5_寸法線
  6
CONTINUOUS
 62
    7
 10
365.31304121194688
 20
703.45787947158101
 11
778.31304121194694
 21
703.45787947158101
  0
TEXT
  8
_0-5_寸法線
 62
    7
 10
558.31304121194671
 20
703.45787947158101
 40
18
 41
1
 50
0
  1
413
  0
LINE
  8
_0-5_寸法線
  6
CONTINUOUS
 62
    7
 10
778.31304121194694
 20
703.45787947158101
 11
789.90415112741573
 21
706.56370801281128
  0
LINE
  8
_0-5_寸法線
  6
CONTINUOUS
 62
    7
 10
778.31304121194694
 20
703.45787947158101
 11
789.90415112741573
 21
700.35205093035086
  0
LINE
  8
_0-5_寸法線
  6
CONTINUOUS
 62
    7
 10
1191.3130412119467
 20
667.45787947158101
 11
1191.3130412119467
 21
709.45787947158101
  0
LINE
  8
_0-5_寸法線
  6
CONTINUOUS
 62
    7
 10
1191.3130412119467
 20
703.45787947158101
 11
1179.721931296478
 21
700.35205093035097
  0
LINE
  8
_0-5_寸法線
  6
CONTINUOUS
 62
    7
 10
1191.3130412119467
 20
703.45787947158101
 11
1179.721931296478
 21
706.56370801281139
  0
LINE
  8
_0-5_寸法線
  6
CONTINUOUS
 62
    7
 10
778.31304121194694
 20
703.45787947158101
 11
1191.3130412119467
 21
703.45787947158101
  0
TEXT
  8
_0-5_寸法線
 62
    7
 10
971.31304121194694
 20
703.45787947158101
 40
18
 41
1
 50
0
  1
413
  0
LINE
  8
_0-5_寸法線
  6
CONTINUOUS
 62
    7
 10
1191.3130412119467
 20
703.45787947158101
 11
1202.9041511274158
 21
706.56370801281128
  0
LINE
  8
_0-5_寸法線
  6
CONTINUOUS
 62
    7
 10
1191.3130412119467
 20
703.45787947158101
 11
1202.9041511274158
 21
700.35205093035086
  0
LINE
  8
_0-5_寸法線
  6
CONTINUOUS
 62
    7
 10
1226.3130412119469
 20
667.45787947158101
 11
1226.3130412119469
 21
709.45787947158101
  0
LINE
  8
_0-5_寸法線
  6
CONTINUOUS
 62
    7
 10
1226.3130412119469
 20
703.45787947158101
 11
1214.721931296478
 21
700.35205093035097
  0
LINE
  8
_0-5_寸法線
  6
CONTINUOUS
 62
    7
 10
1226.3130412119469
 20
703.45787947158101
 11
1214.721931296478
 21
706.56370801281139
  0
LINE
  8
_0-5_寸法線
  6
CONTINUOUS
 62
    7
 10
1191.3130412119467
 20
703.45787947158101
 11
1226.3130412119469
 21
703.45787947158101
  0
TEXT
  8
_0-5_寸法線
 62
    7
 10
1199.8130412119472
 20
703.45787947158101
 40
18
 41
1
 50
0
  1
35
  0
TEXT
  8
_0-7_枠細線
 62
    5
 10
1158.5999999999999
 20
132
 40
24
 41
0.6
 50
0
  1
ＧＳＧ－１５Ｌ９００Ｔ
  0
TEXT
  8
_0-7_枠細線
 62
    5
 10
1158.5999999999999
 20
180
 40
24
 41
0.6
 50
0
  1
玄関排水ユニット取外し具付
  0
TEXT
  8
_0-7_枠細線
 62
    5
 10
850.30429522568124
 20
474.72508380526858
 40
24
 41
0.8
 50
0
  1
Ａ－Ａ’断面図
  0
TEXT
  8
_0-7_枠細線
 62
    5
 10
1001.2307487728028
 20
474.72508380526858
 40
24
 41
0.6000000000000002
 50
0
  1
Ｓ＝１：２
  0
LINE
  8
_1-2_極細2
  6
CENTER1
 62
    2
 10
921
 20
333.46861461447963
 11
921
 21
233.75638439865213
  0
LINE
  8
_1-2_極細2
  6
CONTINUOUS
 62
    2
 10
705
 20
291.12027097951727
 11
705
 21
315.12027097951716
  0
LINE
  8
_1-2_極細2
  6
CONTINUOUS
 62
    2
 10
707.10000000000014
 20
291.12027097951682
 11
707.09999999999877
 21
313.02027097951714
  0
LINE
  8
_1-2_極細2
  6
CONTINUOUS
 62
    2
 10
705
 20
291.12027097951727
 11
707.10000000000014
 21
291.12027097951727
  0
LINE
  8
_1-2_極細2
  6
CONTINUOUS
 62
    2
 10
735.90000000000123
 20
255.12027097951682
 11
735.90000000000123
 21
313.02027097951668
  0
LINE
  8
_1-2_極細2
  6
CONTINUOUS
 62
    2
 10
738
 20
257.22027097951718
 11
738
 21
315.12027097951716
  0
LINE
  8
_1-2_極細2
  6
CONTINUOUS
 62
    2
 10
707.10000000000014
 20
313.02027097951668
 11
735.90000000000123
 21
313.02027097951668
  0
LINE
  8
_1-2_極細2
  6
CONTINUOUS
 62
    2
 10
705
 20
315.12027097951716
 11
738
 21
315.12027097951716
  0
LINE
  8
_1-5_寸法2
  6
CONTINUOUS
 62
    7
 10
723.90000000000123
 20
255.12027097951682
 11
633
 21
255.12027097951707
  0
LINE
  8
_1-5_寸法2
  6
CONTINUOUS
 62
    7
 10
645
 20
255.12027097951704
 11
641.89417145876973
 21
266.71138089498584
  0
LINE
  8
_1-5_寸法2
  6
CONTINUOUS
 62
    7
 10
645
 20
255.12027097951704
 11
648.10582854123027
 21
266.71138089498584
  0
LINE
  8
_1-5_寸法2
  6
CONTINUOUS
 62
    7
 10
693
 20
291.12027097951733
 11
633
 21
291.12027097951761
  0
LINE
  8
_1-5_寸法2
  6
CONTINUOUS
 62
    7
 10
645
 20
291.12027097951756
 11
648.10582854123015
 21
279.52916106404871
  0
LINE
  8
_1-5_寸法2
  6
CONTINUOUS
 62
    7
 10
645
 20
291.12027097951756
 11
641.89417145876973
 21
279.52916106404876
  0
LINE
  8
_1-5_寸法2
  6
CONTINUOUS
 62
    7
 10
645
 20
255.12027097951704
 11
645
 21
291.12027097951756
  0
TEXT
  8
_1-5_寸法2
 62
    7
 10
645
 20
264.12027097951761
 40
18
 41
1
 50
90
  1
12
  0
LINE
  8
_1-5_寸法2
  6
CONTINUOUS
 62
    7
 10
645
 20
291.12027097951756
 11
641.89417145876973
 21
302.71138089498641
  0
LINE
  8
_1-5_寸法2
  6
CONTINUOUS
 62
    7
 10
645
 20
291.12027097951756
 11
648.10582854123027
 21
302.71138089498635
  0
LINE
  8
_1-5_寸法2
  6
CONTINUOUS
 62
    7
 10
693
 20
315.12027097951716
 11
633
 21
315.12027097951727
  0
LINE
  8
_1-5_寸法2
  6
CONTINUOUS
 62
    7
 10
645
 20
315.12027097951727
 11
648.10582854123015
 21
303.52916106404842
  0
LINE
  8
_1-5_寸法2
  6
CONTINUOUS
 62
    7
 10
645
 20
315.12027097951727
 11
641.89417145876973
 21
303.52916106404848
  0
LINE
  8
_1-5_寸法2
  6
CONTINUOUS
 62
    7
 10
645
 20
291.12027097951756
 11
645
 21
315.12027097951727
  0
TEXT
  8
_1-5_寸法2
 62
    7
 10
645
 20
298.6202709795175
 40
18
 41
1
 50
90
  1
8
  0
LINE
  8
_1-5_寸法2
  6
CONTINUOUS
 62
    7
 10
705
 20
327.12027097951716
 11
705
 21
413.22027140192671
  0
LINE
  8
_1-5_寸法2
  6
CONTINUOUS
 62
    7
 10
705
 20
401.22027140192671
 11
716.59110991546879
 21
404.32609994315703
  0
LINE
  8
_1-5_寸法2
  6
CONTINUOUS
 62
    7
 10
705
 20
401.22027140192671
 11
716.59110991546879
 21
398.1144428606965
  0
LINE
  8
_1-5_寸法2
  6
CONTINUOUS
 62
    7
 10
738
 20
327.12027097951716
 11
738
 21
413.22027140192671
  0
LINE
  8
_1-5_寸法2
  6
CONTINUOUS
 62
    7
 10
738
 20
401.22027140192671
 11
726.40889008453121
 21
398.11444286069656
  0
LINE
  8
_1-5_寸法2
  6
CONTINUOUS
 62
    7
 10
738
 20
401.22027140192671
 11
726.40889008453121
 21
404.32609994315703
  0
LINE
  8
_1-5_寸法2
  6
CONTINUOUS
 62
    7
 10
705
 20
401.22027140192671
 11
738
 21
401.22027140192671
  0
TEXT
  8
_1-5_寸法2
 62
    7
 10
712.5
 20
401.22027140192671
 40
18
 41
1
 50
0
  1
11
  0
LINE
  8
_1-3_細線2
  6
CONTINUOUS
 62
    4
 10
793.34999999999911
 20
304.92027097951689
 11
816.14999999999952
 21
304.92027097951689
  0
LINE
  8
_1-3_細線2
  6
CONTINUOUS
 62
    4
 10
816.14999999999952
 20
304.92027097951689
 11
816.14999999999952
 21
260.52027097951725
  0
LINE
  8
_1-3_細線2
  6
CONTINUOUS
 62
    4
 10
819.74999999999966
 20
304.92027097951711
 11
819.74999999999966
 21
260.52027097951725
  0
ARC
  8
_1-3_細線2
  6
CONTINUOUS
 62
    4
 10
816.14999999999952
 20
304.92027097951711
 40
3.5999999999999996
 50
0
 51
89.999999999999915
  0
LINE
  8
_1-3_細線2
  6
CONTINUOUS
 62
    4
 10
793.349999999999
 20
308.52027097951725
 11
816.14999999999952
 21
308.52027097951725
  0
ARC
  8
_1-3_細線2
  6
CONTINUOUS
 62
    4
 10
793.349999999999
 20
304.92027097951711
 40
3.5999999999999996
 50
89.999999999999915
 51
179.99999999999983
  0
LINE
  8
_1-3_細線2
  6
CONTINUOUS
 62
    4
 10
816.14999999999952
 20
260.52027097951725
 11
819.74999999999966
 21
260.52027097951725
  0
LINE
  8
_1-3_細線2
  6
CONTINUOUS
 62
    4
 10
789.74999999999898
 20
290.52027055710766
 11
793.3499999999998
 21
290.52027055710744
  0
LINE
  8
_1-3_細線2
  6
CONTINUOUS
 62
    4
 10
793.34999999999911
 20
304.92027097951689
 11
793.3499999999998
 21
290.52027055710766
  0
LINE
  8
_1-3_細線2
  6
CONTINUOUS
 62
    4
 10
789.74999999999898
 20
304.92027097951711
 11
789.74999999999898
 21
290.52027055710766
  0
LINE
  8
_1-3_細線2
  6
CONTINUOUS
 62
    4
 10
773.25000000000159
 20
265.17027055710776
 11
816.15000000000089
 21
265.17027055710776
  0
LINE
  8
_1-3_細線2
  6
CONTINUOUS
 62
    4
 10
773.25000000000159
 20
285.8702705571078
 11
816.15000000000089
 21
285.8702705571078
  0
LINE
  8
_1-3_細線2
  6
CONTINUOUS
 62
    4
 10
769.65000000000282
 20
304.92027097951689
 11
769.65000000000282
 21
260.52027097951725
  0
LINE
  8
_1-3_細線2
  6
CONTINUOUS
 62
    4
 10
746.85000000000309
 20
304.92027097951689
 11
769.65000000000282
 21
304.92027097951689
  0
LINE
  8
_1-3_細線2
  6
CONTINUOUS
 62
    4
 10
773.25000000000159
 20
304.92027097951711
 11
773.25000000000159
 21
260.52027097951725
  0
ARC
  8
_1-3_細線2
  6
CONTINUOUS
 62
    4
 10
769.65000000000157
 20
304.92027097951711
 40
3.5999999999999996
 50
0
 51
89.999999999999915
  0
LINE
  8
_1-3_細線2
  6
CONTINUOUS
 62
    4
 10
746.85000000000218
 20
308.52027097951725
 11
769.65000000000157
 21
308.52027097951725
  0
ARC
  8
_1-3_細線2
  6
CONTINUOUS
 62
    4
 10
746.85000000000218
 20
304.92027097951711
 40
3.5999999999999996
 50
89.999999999999915
 51
179.99999999999983
  0
LINE
  8
_1-3_細線2
  6
CONTINUOUS
 62
    4
 10
769.65000000000282
 20
260.52027097951725
 11
773.25000000000159
 21
260.52027097951725
  0
LINE
  8
_1-3_細線2
  6
CONTINUOUS
 62
    4
 10
743.25000000000227
 20
290.52027055710766
 11
746.85000000000309
 21
290.52027055710744
  0
LINE
  8
_1-3_細線2
  6
CONTINUOUS
 62
    4
 10
746.85000000000309
 20
304.92027097951689
 11
746.85000000000309
 21
290.52027055710766
  0
LINE
  8
_1-3_細線2
  6
CONTINUOUS
 62
    4
 10
743.25000000000227
 20
304.92027097951711
 11
743.25000000000227
 21
290.52027055710766
  0
LINE
  8
_1-2_極細2
  6
CONTINUOUS
 62
    2
 10
798.00000000000034
 20
260.52027097951725
 11
798.00000000000034
 21
258.72027097951718
  0
LINE
  8
_1-2_極細2
  6
CONTINUOUS
 62
    2
 10
799.50000000000034
 20
260.52027097951725
 11
799.50000000000034
 21
258.72027097951718
  0
LINE
  8
_1-2_極細2
  6
CONTINUOUS
 62
    2
 10
798.00000000000045
 20
259.2000000000001
 11
799.50000000000023
 21
259.2000000000001
  0
LINE
  8
_1-2_極細2
  6
CONTINUOUS
 62
    2
 10
798.00000000000045
 20
259.80000000000013
 11
799.50000000000023
 21
259.80000000000013
  0
LINE
  8
_1-2_極細2
  6
CONTINUOUS
 62
    2
 10
798.00000000000045
 20
260.40000000000009
 11
799.50000000000023
 21
260.40000000000009
  0
LINE
  8
_1-2_極細2
  6
CONTINUOUS
 62
    2
 10
801.75
 20
258.72027097951718
 11
801.75
 21
257.22027097951718
  0
LINE
  8
_1-2_極細2
  6
CONTINUOUS
 62
    2
 10
801.75000000000034
 20
262.02027097951725
 11
801.75
 21
260.52027097951702
  0
LINE
  8
_1-2_極細2
  6
CONTINUOUS
 62
    2
 10
780.75000000000068
 20
258.72027097951718
 11
780.75
 21
257.22027097951718
  0
LINE
  8
_1-2_極細2
  6
CONTINUOUS
 62
    2
 10
780.75000000000034
 20
262.02027097951725
 11
780.75000000000068
 21
260.52027097951725
  0
LINE
  8
_1-2_極細2
  6
CONTINUOUS
 62
    2
 10
783.00000000000034
 20
260.52027097951725
 11
783.00000000000034
 21
258.72027097951718
  0
LINE
  8
_1-2_極細2
  6
CONTINUOUS
 62
    2
 10
784.50000000000034
 20
260.52027097951725
 11
784.50000000000034
 21
258.72027097951718
  0
LINE
  8
_1-2_極細2
  6
CONTINUOUS
 62
    2
 10
783.00000000000034
 20
259.2000000000001
 11
784.50000000000068
 21
259.2000000000001
  0
LINE
  8
_1-2_極細2
  6
CONTINUOUS
 62
    2
 10
783.00000000000034
 20
259.80000000000013
 11
784.50000000000068
 21
259.80000000000013
  0
LINE
  8
_1-2_極細2
  6
CONTINUOUS
 62
    2
 10
783.00000000000034
 20
260.40000000000009
 11
784.50000000000068
 21
260.40000000000009
  0
LINE
  8
_1-2_極細2
  6
CONTINUOUS
 62
    2
 10
780.75000000000034
 20
257.22027097951718
 11
801.75
 21
257.22027097951718
  0
LINE
  8
_1-2_極細2
  6
CONTINUOUS
 62
    2
 10
780.75000000000034
 20
257.40000000000009
 11
801.75
 21
257.40000000000009
  0
LINE
  8
_1-2_極細2
  6
CONTINUOUS
 62
    2
 10
780.75000000000034
 20
258.00000000000011
 11
801.75
 21
258.00000000000011
  0
LINE
  8
_1-2_極細2
  6
CONTINUOUS
 62
    2
 10
780.75000000000034
 20
258.60000000000014
 11
801.75
 21
258.60000000000014
  0
LINE
  8
_1-2_極細2
  6
CONTINUOUS
 62
    2
 10
780.75000000000068
 20
261.00000000000006
 11
801.75000000000023
 21
261.00000000000006
  0
LINE
  8
_1-2_極細2
  6
CONTINUOUS
 62
    2
 10
780.75000000000068
 20
261.60000000000002
 11
801.75000000000023
 21
261.60000000000002
  0
LINE
  8
_1-2_極細2
  6
CONTINUOUS
 62
    2
 10
780.75000000000068
 20
262.02027097951725
 11
801.75
 21
262.02027097951725
  0
LINE
  8
_1-2_極細2
  6
CONTINUOUS
 62
    2
 10
767.84999999999991
 20
301.62027097951704
 11
769.64999999999986
 21
301.62027097951704
  0
LINE
  8
_1-2_極細2
  6
CONTINUOUS
 62
    2
 10
767.84999999999991
 20
301.62027097951704
 11
767.84999999999991
 21
258.72027097951718
  0
ARC
  8
_1-3_細線2
  6
CONTINUOUS
 62
    4
 10
765.45975599999929
 20
261.1202701346989
 40
0.6000000000000002
 50
179.99999999999983
 51
269.99999999999977
  0
LINE
  8
_1-3_細線2
  6
CONTINUOUS
 62
    4
 10
767.84999999999991
 20
260.52027013469876
 11
765.45975599999929
 21
260.52027013469876
  0
ARC
  8
_1-3_細線2
  6
CONTINUOUS
 62
    4
 10
765.45975599999929
 20
289.92027013469817
 40
0.6000000000000002
 50
89.999999999999915
 51
179.99999999999983
  0
LINE
  8
_1-3_細線2
  6
CONTINUOUS
 62
    4
 10
767.84999999999991
 20
290.52027013469922
 11
765.45975599999929
 21
290.52027013469922
  0
LINE
  8
_1-3_細線2
  6
CONTINUOUS
 62
    4
 10
764.85975599999824
 20
274.02027013469876
 11
764.85975599999824
 21
261.1202701346989
  0
LINE
  8
_1-3_細線2
  6
CONTINUOUS
 62
    4
 10
764.85975599999824
 20
289.92027013469817
 11
764.85975599999824
 21
274.02027013469876
  0
LINE
  8
_1-2_極細2
  6
CONTINUOUS
 62
    2
 10
764.85975599999824
 20
275.52027013469808
 11
755.84620799999789
 21
275.52027013469808
  0
LINE
  8
_1-3_細線2
  6
CONTINUOUS
 62
    4
 10
764.85975599999824
 20
265.02027013469944
 11
755.8461719999998
 21
265.02027013469944
  0
ARC
  8
_1-3_細線2
  6
CONTINUOUS
 62
    4
 10
755.8461719999998
 20
265.6202701346989
 40
0.6000000000000002
 50
179.99999999999983
 51
269.99999999999977
  0
ARC
  8
_1-2_極細2
  6
CONTINUOUS
 62
    2
 10
778.52011199999856
 20
270.26983213469987
 40
23.273868
 50
166.96197800000505
 51
193.03566999999961
  0
ARC
  8
_1-3_細線2
  6
CONTINUOUS
 62
    4
 10
755.8461719999998
 20
285.42027013469976
 40
0.6000000000000002
 50
89.999999999999915
 51
179.99999999999983
  0
ARC
  8
_1-2_極細2
  6
CONTINUOUS
 62
    2
 10
778.52011199999856
 20
280.77070213469835
 40
23.273868
 50
166.96433000000002
 51
193.03802199999842
  0
LINE
  8
_1-3_細線2
  6
CONTINUOUS
 62
    4
 10
764.85975599999824
 20
286.02027013469922
 11
755.8461719999998
 21
286.02027013469922
  0
LINE
  8
_1-3_細線2
  6
CONTINUOUS
 62
    4
 10
755.24617199999852
 20
265.6202701346989
 11
755.24617199999852
 21
285.42027013469976
  0
LINE
  8
_1-2_極細2
  6
CONTINUOUS
 62
    2
 10
1134.8999999999996
 20
291.12027097951682
 11
1134.8999999999996
 21
313.02027097951668
  0
LINE
  8
_1-2_極細2
  6
CONTINUOUS
 62
    2
 10
1136.9999999999995
 20
291.12027097951682
 11
1137.0000000000005
 21
315.12027097951716
  0
LINE
  8
_1-2_極細2
  6
CONTINUOUS
 62
    2
 10
1134.8999999999996
 20
291.12027097951682
 11
1136.9999999999995
 21
291.12027097951682
  0
LINE
  8
_1-5_寸法2
  6
CONTINUOUS
 62
    7
 10
705
 20
327.12027097951716
 11
705.00000000000045
 21
455.22027140192671
  0
LINE
  8
_1-5_寸法2
  6
CONTINUOUS
 62
    7
 10
705.00000000000045
 20
443.22027140192671
 11
716.59110991546925
 21
446.32609994315703
  0
LINE
  8
_1-5_寸法2
  6
CONTINUOUS
 62
    7
 10
705.00000000000045
 20
443.22027140192671
 11
716.59110991546925
 21
440.1144428606965
  0
LINE
  8
_1-5_寸法2
  6
CONTINUOUS
 62
    7
 10
1137.0000000000005
 20
327.12027097951716
 11
1137.0000000000005
 21
455.22027140192671
  0
LINE
  8
_1-5_寸法2
  6
CONTINUOUS
 62
    7
 10
1137.0000000000005
 20
443.22027140192671
 11
1125.4088900845315
 21
440.11444286069656
  0
LINE
  8
_1-5_寸法2
  6
CONTINUOUS
 62
    7
 10
1137.0000000000005
 20
443.22027140192671
 11
1125.4088900845315
 21
446.32609994315703
  0
LINE
  8
_1-5_寸法2
  6
CONTINUOUS
 62
    7
 10
705.00000000000045
 20
443.22027140192671
 11
1137.0000000000005
 21
443.22027140192671
  0
TEXT
  8
_1-5_寸法2
 62
    7
 10
907.50000000000068
 20
443.22027140192671
 40
18
 41
1
 50
0
  1
144
  0
LINE
  8
_1-2_極細2
  6
CONTINUOUS
 62
    2
 10
1104.0000000000002
 20
257.22027097951718
 11
1104.0000000000002
 21
315.12027097951716
  0
LINE
  8
_1-2_極細2
  6
CONTINUOUS
 62
    2
 10
1106.0999999999983
 20
255.12027097951682
 11
1106.0999999999983
 21
313.02027097951668
  0
LINE
  8
_1-2_極細2
  6
CONTINUOUS
 62
    2
 10
738
 20
257.22027097951718
 11
1104.0000000000002
 21
257.22027097951718
  0
LINE
  8
_1-2_極細2
  6
CONTINUOUS
 62
    2
 10
1106.0999999999983
 20
255.12027097951682
 11
735.90000000000123
 21
255.12027097951682
  0
LINE
  8
_1-2_極細2
  6
CONTINUOUS
 62
    2
 10
1104.0000000000002
 20
315.12027097951716
 11
1137.0000000000005
 21
315.12027097951716
  0
LINE
  8
_1-2_極細2
  6
CONTINUOUS
 62
    2
 10
1106.0999999999983
 20
313.02027097951668
 11
1134.8999999999996
 21
313.02027097951668
  0
LINE
  8
_1-5_寸法2
  6
CONTINUOUS
 62
    7
 10
1104.0000000000002
 20
327.12027097951716
 11
1104.0000000000002
 21
413.22027140192671
  0
LINE
  8
_1-5_寸法2
  6
CONTINUOUS
 62
    7
 10
1104.0000000000002
 20
401.22027140192671
 11
1115.5911099154691
 21
404.32609994315703
  0
LINE
  8
_1-5_寸法2
  6
CONTINUOUS
 62
    7
 10
1104.0000000000002
 20
401.22027140192671
 11
1115.5911099154691
 21
398.1144428606965
  0
LINE
  8
_1-5_寸法2
  6
CONTINUOUS
 62
    7
 10
1137.0000000000005
 20
327.12027097951716
 11
1137.0000000000005
 21
413.22027140192671
  0
LINE
  8
_1-5_寸法2
  6
CONTINUOUS
 62
    7
 10
1137.0000000000005
 20
401.22027140192671
 11
1125.4088900845315
 21
398.11444286069656
  0
LINE
  8
_1-5_寸法2
  6
CONTINUOUS
 62
    7
 10
1137.0000000000005
 20
401.22027140192671
 11
1125.4088900845315
 21
404.32609994315703
  0
LINE
  8
_1-5_寸法2
  6
CONTINUOUS
 62
    7
 10
1104.0000000000002
 20
401.22027140192671
 11
1137.0000000000005
 21
401.22027140192671
  0
TEXT
  8
_1-5_寸法2
 62
    7
 10
1111.5
 20
401.22027140192671
 40
18
 41
1
 50
0
  1
11
  0
LINE
  8
_1-3_細線2
  6
CONTINUOUS
 62
    4
 10
1002.1499996938513
 20
304.92027097951689
 11
979.34999969385296
 21
304.92027097951689
  0
LINE
  8
_1-3_細線2
  6
CONTINUOUS
 62
    4
 10
979.34999969385296
 20
304.92027097951689
 11
979.34999969385296
 21
260.52027097951725
  0
ARC
  8
_1-3_細線2
  6
CONTINUOUS
 62
    4
 10
1002.149999693852
 20
304.92027097951711
 40
3.5999999999999996
 50
0
 51
89.999999999999915
  0
LINE
  8
_1-3_細線2
  6
CONTINUOUS
 62
    4
 10
975.74999969385215
 20
304.92027097951711
 11
975.74999969385215
 21
260.52027097951725
  0
LINE
  8
_1-3_細線2
  6
CONTINUOUS
 62
    4
 10
1002.149999693852
 20
308.52027097951725
 11
979.34999969385217
 21
308.52027097951725
  0
ARC
  8
_1-3_細線2
  6
CONTINUOUS
 62
    4
 10
979.34999969385217
 20
304.92027097951711
 40
3.5999999999999996
 50
89.999999999999915
 51
179.99999999999983
  0
LINE
  8
_1-3_細線2
  6
CONTINUOUS
 62
    4
 10
975.74999969385215
 20
260.52027097951725
 11
979.34999969385296
 21
260.52027097951725
  0
LINE
  8
_1-3_細線2
  6
CONTINUOUS
 62
    4
 10
1005.7499996938521
 20
290.52027055710766
 11
1002.1499996938513
 21
290.52027055710744
  0
LINE
  8
_1-3_細線2
  6
CONTINUOUS
 62
    4
 10
1002.1499996938513
 20
304.92027097951689
 11
1002.1499996938513
 21
290.52027055710766
  0
LINE
  8
_1-3_細線2
  6
CONTINUOUS
 62
    4
 10
1005.7499996938521
 20
304.92027097951711
 11
1005.7499996938521
 21
290.52027055710766
  0
LINE
  8
_1-3_細線2
  6
CONTINUOUS
 62
    4
 10
1022.25
 20
265.17027055710776
 11
979.35000000000082
 21
265.17027055710776
  0
LINE
  8
_1-3_細線2
  6
CONTINUOUS
 62
    4
 10
1022.25
 20
285.8702705571078
 11
979.35000000000082
 21
285.8702705571078
  0
LINE
  8
_1-3_細線2
  6
CONTINUOUS
 62
    4
 10
1072.3500000000001
 20
283.27527097951713
 11
1072.3500000000001
 21
271.36527097951705
  0
LINE
  8
_1-3_細線2
  6
CONTINUOUS
 62
    4
 10
1072.3500000000001
 20
304.92027097951689
 11
1072.3500000000001
 21
260.52027097951725
  0
LINE
  8
_1-3_細線2
  6
CONTINUOUS
 62
    4
 10
1048.6499999999987
 20
304.92027097951689
 11
1025.849999999999
 21
304.92027097951689
  0
LINE
  8
_1-3_細線2
  6
CONTINUOUS
 62
    4
 10
1095.1499999999994
 20
304.92027097951689
 11
1072.3500000000001
 21
304.92027097951689
  0
LINE
  8
_1-3_細線2
  6
CONTINUOUS
 62
    4
 10
1025.849999999999
 20
304.92027097951689
 11
1025.849999999999
 21
260.52027097951725
  0
ARC
  8
_1-3_細線2
  6
CONTINUOUS
 62
    4
 10
1095.1500000000001
 20
304.92027097951711
 40
3.5999999999999996
 50
0
 51
89.999999999999915
  0
LINE
  8
_1-3_細線2
  6
CONTINUOUS
 62
    4
 10
1068.7499999999991
 20
304.92027097951711
 11
1068.7499999999991
 21
260.52027097951725
  0
LINE
  8
_1-3_細線2
  6
CONTINUOUS
 62
    4
 10
1095.1500000000001
 20
308.52027097951725
 11
1072.349999999999
 21
308.52027097951725
  0
ARC
  8
_1-3_細線2
  6
CONTINUOUS
 62
    4
 10
1072.349999999999
 20
304.92027097951711
 40
3.5999999999999996
 50
89.999999999999915
 51
179.99999999999983
  0
ARC
  8
_1-3_細線2
  6
CONTINUOUS
 62
    4
 10
1048.6499999999996
 20
304.92027097951711
 40
3.5999999999999996
 50
0
 51
89.999999999999915
  0
LINE
  8
_1-3_細線2
  6
CONTINUOUS
 62
    4
 10
1022.25
 20
304.92027097951711
 11
1022.25
 21
260.52027097951725
  0
LINE
  8
_1-3_細線2
  6
CONTINUOUS
 62
    4
 10
1048.6499999999996
 20
308.52027097951725
 11
1025.8500000000004
 21
308.52027097951725
  0
ARC
  8
_1-3_細線2
  6
CONTINUOUS
 62
    4
 10
1025.8500000000004
 20
304.92027097951711
 40
3.5999999999999996
 50
89.999999999999915
 51
179.99999999999983
  0
LINE
  8
_1-3_細線2
  6
CONTINUOUS
 62
    4
 10
1022.25
 20
260.52027097951725
 11
1025.849999999999
 21
260.52027097951725
  0
LINE
  8
_1-3_細線2
  6
CONTINUOUS
 62
    4
 10
1068.7499999999991
 20
260.52027097951725
 11
1072.3500000000001
 21
260.52027097951725
  0
LINE
  8
_1-3_細線2
  6
CONTINUOUS
 62
    4
 10
1098.7500000000002
 20
290.52027055710766
 11
1095.1499999999994
 21
290.52027055710766
  0
LINE
  8
_1-3_細線2
  6
CONTINUOUS
 62
    4
 10
1052.2499999999995
 20
290.52027055710766
 11
1048.6499999999987
 21
290.52027055710766
  0
LINE
  8
_1-3_細線2
  6
CONTINUOUS
 62
    4
 10
1048.6499999999987
 20
304.92027097951689
 11
1048.6499999999987
 21
290.52027055710766
  0
LINE
  8
_1-3_細線2
  6
CONTINUOUS
 62
    4
 10
1095.1499999999994
 20
304.92027097951689
 11
1095.1499999999994
 21
290.52027055710766
  0
LINE
  8
_1-3_細線2
  6
CONTINUOUS
 62
    4
 10
1098.7500000000002
 20
304.92027097951711
 11
1098.7500000000002
 21
290.52027055710766
  0
LINE
  8
_1-3_細線2
  6
CONTINUOUS
 62
    4
 10
1052.2499999999995
 20
304.92027097951711
 11
1052.2499999999995
 21
290.52027055710766
  0
LINE
  8
_1-3_細線2
  6
CONTINUOUS
 62
    4
 10
1068.7500003061486
 20
265.17027055710776
 11
1025.8500003061495
 21
265.17027055710776
  0
LINE
  8
_1-3_細線2
  6
CONTINUOUS
 62
    4
 10
1068.7500003061486
 20
285.8702705571078
 11
1025.8500003061495
 21
285.8702705571078
  0
LINE
  8
_1-2_極細2
  6
CONTINUOUS
 62
    2
 10
1061.2499996938523
 20
262.02027097951725
 11
1061.2499996938523
 21
260.52027097951702
  0
LINE
  8
_1-2_極細2
  6
CONTINUOUS
 62
    2
 10
1061.2499996938523
 20
258.72027097951718
 11
1061.2499996938523
 21
257.22027097951718
  0
LINE
  8
_1-2_極細2
  6
CONTINUOUS
 62
    2
 10
1057.4999996938523
 20
260.52027097951725
 11
1057.4999996938523
 21
258.72027097951718
  0
LINE
  8
_1-2_極細2
  6
CONTINUOUS
 62
    2
 10
1058.9999996938523
 20
260.52027097951725
 11
1058.9999996938523
 21
258.72027097951718
  0
LINE
  8
_1-2_極細2
  6
CONTINUOUS
 62
    2
 10
1057.4999996938523
 20
259.2000000000001
 11
1058.9999996938523
 21
259.2000000000001
  0
LINE
  8
_1-2_極細2
  6
CONTINUOUS
 62
    2
 10
1057.4999996938523
 20
259.80000000000013
 11
1058.9999996938523
 21
259.80000000000013
  0
LINE
  8
_1-2_極細2
  6
CONTINUOUS
 62
    2
 10
1057.4999996938523
 20
260.40000000000009
 11
1058.9999996938523
 21
260.40000000000009
  0
LINE
  8
_1-2_極細2
  6
CONTINUOUS
 62
    2
 10
1040.2499996938523
 20
262.02027097951725
 11
1040.2499996938527
 21
260.52027097951725
  0
LINE
  8
_1-2_極細2
  6
CONTINUOUS
 62
    2
 10
1040.2499996938527
 20
258.72027097951718
 11
1040.2499996938523
 21
257.22027097951718
  0
LINE
  8
_1-2_極細2
  6
CONTINUOUS
 62
    2
 10
1042.4999996938523
 20
260.52027097951725
 11
1042.4999996938523
 21
258.72027097951718
  0
LINE
  8
_1-2_極細2
  6
CONTINUOUS
 62
    2
 10
1043.9999996938523
 20
260.52027097951725
 11
1043.9999996938523
 21
258.72027097951718
  0
LINE
  8
_1-2_極細2
  6
CONTINUOUS
 62
    2
 10
1042.4999996938523
 20
259.2000000000001
 11
1043.9999996938523
 21
259.2000000000001
  0
LINE
  8
_1-2_極細2
  6
CONTINUOUS
 62
    2
 10
1042.4999996938523
 20
259.80000000000013
 11
1043.9999996938523
 21
259.80000000000013
  0
LINE
  8
_1-2_極細2
  6
CONTINUOUS
 62
    2
 10
1042.4999996938523
 20
260.40000000000009
 11
1043.9999996938523
 21
260.40000000000009
  0
LINE
  8
_1-2_極細2
  6
CONTINUOUS
 62
    2
 10
1040.2499996938527
 20
262.02027097951725
 11
1061.2499996938523
 21
262.02027097951725
  0
LINE
  8
_1-2_極細2
  6
CONTINUOUS
 62
    2
 10
1040.2499996938527
 20
261.00000000000006
 11
1061.2499996938523
 21
261.00000000000006
  0
LINE
  8
_1-2_極細2
  6
CONTINUOUS
 62
    2
 10
1040.2499996938527
 20
261.60000000000002
 11
1061.2499996938523
 21
261.60000000000002
  0
LINE
  8
_1-2_極細2
  6
CONTINUOUS
 62
    2
 10
1040.2499996938523
 20
257.40000000000009
 11
1061.2499996938523
 21
257.40000000000009
  0
LINE
  8
_1-2_極細2
  6
CONTINUOUS
 62
    2
 10
1040.2499996938523
 20
258.00000000000011
 11
1061.2499996938523
 21
258.00000000000011
  0
LINE
  8
_1-2_極細2
  6
CONTINUOUS
 62
    2
 10
1040.2499996938523
 20
258.60000000000014
 11
1061.2499996938523
 21
258.60000000000014
  0
LINE
  8
_1-2_極細2
  6
CONTINUOUS
 62
    2
 10
1040.2499996938523
 20
257.22027097951718
 11
1061.2499996938523
 21
257.22027097951718
  0
LINE
  8
_1-2_極細2
  6
CONTINUOUS
 62
    2
 10
1074.1499996938526
 20
301.62027097951704
 11
1072.3499996938522
 21
301.62027097951704
  0
LINE
  8
_1-2_極細2
  6
CONTINUOUS
 62
    2
 10
1074.1499996938526
 20
301.62027097951704
 11
1074.1499996938526
 21
258.72027097951718
  0
LINE
  8
_1-2_極細2
  6
CONTINUOUS
 62
    2
 10
1077.1402436938542
 20
275.52027055710766
 11
1086.1537916938544
 21
275.52027055710766
  0
LINE
  8
_1-3_細線2
  6
CONTINUOUS
 62
    4
 10
1077.1402436938542
 20
265.02027055710903
 11
1086.1538276938527
 21
265.02027055710903
  0
ARC
  8
_1-3_細線2
  6
CONTINUOUS
 62
    4
 10
1086.1538276938527
 20
265.62027055710848
 40
0.6000000000000002
 50
269.99999999999977
 51
359.99999999999966
  0
ARC
  8
_1-2_極細2
  6
CONTINUOUS
 62
    2
 10
1063.4798876938539
 20
270.26983255710945
 40
23.273868
 50
346.96432999999968
 51
13.038021999994573
  0
ARC
  8
_1-3_細線2
  6
CONTINUOUS
 62
    4
 10
1086.1538276938527
 20
285.42027055710935
 40
0.6000000000000002
 50
0
 51
89.999999999999915
  0
ARC
  8
_1-2_極細2
  6
CONTINUOUS
 62
    2
 10
1063.4798876938539
 20
280.77070255710794
 40
23.273868
 50
346.9619780000009
 51
13.035669999999625
  0
LINE
  8
_1-3_細線2
  6
CONTINUOUS
 62
    4
 10
1077.1402436938542
 20
286.0202705571088
 11
1086.1538276938527
 21
286.0202705571088
  0
LINE
  8
_1-3_細線2
  6
CONTINUOUS
 62
    4
 10
1086.7538276938537
 20
265.62027055710848
 11
1086.7538276938537
 21
285.42027055710935
  0
ARC
  8
_1-3_細線2
  6
CONTINUOUS
 62
    4
 10
1076.5402436938532
 20
261.12027055710848
 40
0.6000000000000002
 50
269.99999999999977
 51
359.99999999999966
  0
LINE
  8
_1-3_細線2
  6
CONTINUOUS
 62
    4
 10
1074.1499996938526
 20
260.52027055710835
 11
1076.5402436938532
 21
260.52027055710835
  0
ARC
  8
_1-3_細線2
  6
CONTINUOUS
 62
    4
 10
1076.5402436938532
 20
289.92027055710776
 40
0.6000000000000002
 50
0
 51
89.999999999999915
  0
LINE
  8
_1-3_細線2
  6
CONTINUOUS
 62
    4
 10
1074.1499996938526
 20
290.5202705571088
 11
1076.5402436938532
 21
290.5202705571088
  0
LINE
  8
_1-3_細線2
  6
CONTINUOUS
 62
    4
 10
1077.1402436938542
 20
289.92027055710776
 11
1077.1402436938542
 21
261.12027055710848
  0
LINE
  8
_1-5_寸法2
  6
CONTINUOUS
 62
    7
 10
743.25000000000227
 20
319.62027140192663
 11
743.2500000000025
 21
407.22027140192671
  0
LINE
  8
_1-5_寸法2
  6
CONTINUOUS
 62
    7
 10
743.2500000000025
 20
401.22027140192671
 11
754.84110991547129
 21
404.32609994315703
  0
LINE
  8
_1-5_寸法2
  6
CONTINUOUS
 62
    7
 10
743.2500000000025
 20
401.22027140192671
 11
754.84110991547129
 21
398.1144428606965
  0
LINE
  8
_1-5_寸法2
  6
CONTINUOUS
 62
    7
 10
1098.7500000000002
 20
319.62027140192663
 11
1098.7500000000002
 21
407.22027140192671
  0
LINE
  8
_1-5_寸法2
  6
CONTINUOUS
 62
    7
 10
1098.7500000000002
 20
401.22027140192671
 11
1087.1588900845313
 21
398.11444286069656
  0
LINE
  8
_1-5_寸法2
  6
CONTINUOUS
 62
    7
 10
1098.7500000000002
 20
401.22027140192671
 11
1087.1588900845313
 21
404.32609994315703
  0
LINE
  8
_1-5_寸法2
  6
CONTINUOUS
 62
    7
 10
743.2500000000025
 20
401.22027140192671
 11
1098.7500000000002
 21
401.22027140192671
  0
TEXT
  8
_1-5_寸法2
 62
    7
 10
898.50000000000136
 20
401.22027140192671
 40
18
 41
1
 50
0
  1
118.5
  0
LINE
  8
_1-2_極細2
  6
CONTINUOUS
 62
    2
 10
769.64999999999986
 20
260.52027097951725
 11
1072.3499996938522
 21
260.52027097951725
  0
LINE
  8
_1-2_極細2
  6
CONTINUOUS
 62
    2
 10
767.84999999999991
 20
258.72027097951718
 11
1074.1499996938526
 21
258.72027097951718
  0
LINE
  8
_1-2_極細2
  6
CENTER1
 62
    2
 10
751.16074376027336
 20
275.52027055710766
 11
1091.808625148768
 21
275.52027055710766
  0
LINE
  8
_1-3_細線2
  6
CONTINUOUS
 62
    4
 10
955.64999938770325
 20
304.92027097951689
 11
932.84999938770488
 21
304.92027097951689
  0
LINE
  8
_1-3_細線2
  6
CONTINUOUS
 62
    4
 10
932.84999938770488
 20
304.92027097951689
 11
932.84999938770488
 21
260.52027097951725
  0
ARC
  8
_1-3_細線2
  6
CONTINUOUS
 62
    4
 10
955.64999938770416
 20
304.92027097951711
 40
3.5999999999999996
 50
0
 51
89.999999999999915
  0
LINE
  8
_1-3_細線2
  6
CONTINUOUS
 62
    4
 10
929.24999938770407
 20
304.92027097951711
 11
929.24999938770407
 21
260.52027097951725
  0
LINE
  8
_1-3_細線2
  6
CONTINUOUS
 62
    4
 10
955.64999938770416
 20
308.52027097951725
 11
932.84999938770409
 21
308.52027097951725
  0
ARC
  8
_1-3_細線2
  6
CONTINUOUS
 62
    4
 10
932.84999938770409
 20
304.92027097951711
 40
3.5999999999999996
 50
89.999999999999915
 51
179.99999999999983
  0
LINE
  8
_1-3_細線2
  6
CONTINUOUS
 62
    4
 10
929.24999938770407
 20
260.52027097951725
 11
932.84999938770488
 21
260.52027097951725
  0
LINE
  8
_1-3_細線2
  6
CONTINUOUS
 62
    4
 10
959.24999938770407
 20
290.52027055710766
 11
955.64999938770325
 21
290.52027055710744
  0
LINE
  8
_1-3_細線2
  6
CONTINUOUS
 62
    4
 10
955.64999938770325
 20
304.92027097951689
 11
955.64999938770325
 21
290.52027055710766
  0
LINE
  8
_1-3_細線2
  6
CONTINUOUS
 62
    4
 10
959.24999938770407
 20
304.92027097951711
 11
959.24999938770407
 21
290.52027055710766
  0
LINE
  8
_1-3_細線2
  6
CONTINUOUS
 62
    4
 10
975.74999969385215
 20
265.17027055710776
 11
932.84999969385285
 21
265.17027055710776
  0
LINE
  8
_1-3_細線2
  6
CONTINUOUS
 62
    4
 10
975.74999969385215
 20
285.8702705571078
 11
932.84999969385285
 21
285.8702705571078
  0
LINE
  8
_1-3_細線2
  6
CONTINUOUS
 62
    4
 10
839.85000030614879
 20
304.92027097951689
 11
862.65000030614715
 21
304.92027097951689
  0
LINE
  8
_1-3_細線2
  6
CONTINUOUS
 62
    4
 10
862.65000030614715
 20
304.92027097951689
 11
862.65000030614715
 21
260.52027097951725
  0
ARC
  8
_1-3_細線2
  6
CONTINUOUS
 62
    4
 10
839.85000030614799
 20
304.92027097951711
 40
3.5999999999999996
 50
89.999999999999915
 51
179.99999999999983
  0
LINE
  8
_1-3_細線2
  6
CONTINUOUS
 62
    4
 10
866.25000030614797
 20
304.92027097951711
 11
866.25000030614797
 21
260.52027097951725
  0
LINE
  8
_1-3_細線2
  6
CONTINUOUS
 62
    4
 10
839.85000030614799
 20
308.52027097951725
 11
862.65000030614806
 21
308.52027097951725
  0
ARC
  8
_1-3_細線2
  6
CONTINUOUS
 62
    4
 10
862.65000030614806
 20
304.92027097951711
 40
3.5999999999999996
 50
0
 51
89.999999999999915
  0
LINE
  8
_1-3_細線2
  6
CONTINUOUS
 62
    4
 10
866.25000030614797
 20
260.52027097951725
 11
862.65000030614715
 21
260.52027097951725
  0
LINE
  8
_1-3_細線2
  6
CONTINUOUS
 62
    4
 10
836.25000030614797
 20
290.52027055710766
 11
839.85000030614879
 21
290.52027055710744
  0
LINE
  8
_1-3_細線2
  6
CONTINUOUS
 62
    4
 10
839.85000030614879
 20
304.92027097951689
 11
839.85000030614879
 21
290.52027055710766
  0
LINE
  8
_1-3_細線2
  6
CONTINUOUS
 62
    4
 10
836.25000030614797
 20
304.92027097951711
 11
836.25000030614797
 21
290.52027055710766
  0
LINE
  8
_1-3_細線2
  6
CONTINUOUS
 62
    4
 10
819.75
 20
265.17027055710776
 11
862.64999999999941
 21
265.17027055710776
  0
LINE
  8
_1-3_細線2
  6
CONTINUOUS
 62
    4
 10
819.75
 20
285.8702705571078
 11
862.64999999999941
 21
285.8702705571078
  0
LINE
  8
_1-3_細線2
  6
CONTINUOUS
 62
    4
 10
886.35000061229687
 20
304.92027097951689
 11
909.15000061229523
 21
304.92027097951689
  0
LINE
  8
_1-3_細線2
  6
CONTINUOUS
 62
    4
 10
909.15000061229523
 20
304.92027097951689
 11
909.15000061229523
 21
260.52027097951725
  0
ARC
  8
_1-3_細線2
  6
CONTINUOUS
 62
    4
 10
886.35000061229607
 20
304.92027097951711
 40
3.5999999999999996
 50
89.999999999999915
 51
179.99999999999983
  0
LINE
  8
_1-3_細線2
  6
CONTINUOUS
 62
    4
 10
912.75000061229605
 20
304.92027097951711
 11
912.75000061229605
 21
260.52027097951725
  0
LINE
  8
_1-3_細線2
  6
CONTINUOUS
 62
    4
 10
886.35000061229607
 20
308.52027097951725
 11
909.15000061229591
 21
308.52027097951725
  0
ARC
  8
_1-3_細線2
  6
CONTINUOUS
 62
    4
 10
909.15000061229591
 20
304.92027097951711
 40
3.5999999999999996
 50
0
 51
89.999999999999915
  0
LINE
  8
_1-3_細線2
  6
CONTINUOUS
 62
    4
 10
912.75000061229605
 20
260.52027097951725
 11
909.15000061229523
 21
260.52027097951725
  0
LINE
  8
_1-3_細線2
  6
CONTINUOUS
 62
    4
 10
882.75000061229605
 20
290.52027055710766
 11
886.35000061229687
 21
290.52027055710744
  0
LINE
  8
_1-3_細線2
  6
CONTINUOUS
 62
    4
 10
886.35000061229687
 20
304.92027097951689
 11
886.35000061229687
 21
290.52027055710766
  0
LINE
  8
_1-3_細線2
  6
CONTINUOUS
 62
    4
 10
882.75000061229605
 20
304.92027097951711
 11
882.75000061229605
 21
290.52027055710766
  0
LINE
  8
_1-3_細線2
  6
CONTINUOUS
 62
    4
 10
866.25000030614797
 20
265.17027055710776
 11
909.15000030614738
 21
265.17027055710776
  0
LINE
  8
_1-3_細線2
  6
CONTINUOUS
 62
    4
 10
866.25000030614797
 20
285.8702705571078
 11
909.15000030614738
 21
285.8702705571078
  0
LINE
  8
_1-3_細線2
  6
CONTINUOUS
 62
    4
 10
929.24999938770407
 20
285.8702705571078
 11
912.75000061229605
 21
285.8702705571078
  0
LINE
  8
_1-3_細線2
  6
CONTINUOUS
 62
    4
 10
929.24999938770407
 20
265.17027055710776
 11
912.75000061229605
 21
265.17027055710776
  0
LINE
  8
_1-5_寸法2
  6
CONTINUOUS
 62
    7
 10
866.25000061229537
 20
321.72027097951707
 11
866.25000061229537
 21
371.22027140192677
  0
LINE
  8
_1-5_寸法2
  6
CONTINUOUS
 62
    7
 10
866.25000061229537
 20
359.22027140192677
 11
854.65889069682657
 21
356.11444286069656
  0
LINE
  8
_1-5_寸法2
  6
CONTINUOUS
 62
    7
 10
866.25000061229537
 20
359.22027140192677
 11
854.65889069682657
 21
362.32609994315703
  0
LINE
  8
_1-5_寸法2
  6
CONTINUOUS
 62
    7
 10
882.75000061229537
 20
321.72027097951707
 11
882.75000061229537
 21
371.22027140192677
  0
LINE
  8
_1-5_寸法2
  6
CONTINUOUS
 62
    7
 10
837.88542411622166
 20
359.22027140192677
 11
882.75000061229537
 21
359.22027140192677
  0
TEXT
  8
_1-5_寸法2
 62
    7
 10
837.88542411622143
 20
359.22027140192677
 40
18
 41
1
 50
0
  1
5.5
  0
LINE
  8
_1-5_寸法2
  6
CONTINUOUS
 62
    7
 10
882.75000061229537
 20
359.22027140192677
 11
894.34111052776416
 21
362.32609994315692
  0
LINE
  8
_1-5_寸法2
  6
CONTINUOUS
 62
    7
 10
882.75000061229537
 20
359.22027140192677
 11
894.34111052776416
 21
356.11444286069644
  0
LINE
  8
_1-5_寸法2
  6
CONTINUOUS
 62
    7
 10
912.75000061229537
 20
321.72027097951707
 11
912.75000061229537
 21
371.22027140192677
  0
LINE
  8
_1-5_寸法2
  6
CONTINUOUS
 62
    7
 10
912.75000061229537
 20
359.22027140192677
 11
901.15889069682657
 21
356.11444286069656
  0
LINE
  8
_1-5_寸法2
  6
CONTINUOUS
 62
    7
 10
912.75000061229537
 20
359.22027140192677
 11
901.15889069682657
 21
362.32609994315703
  0
LINE
  8
_1-5_寸法2
  6
CONTINUOUS
 62
    7
 10
882.75000061229537
 20
359.22027140192677
 11
912.75000061229537
 21
359.22027140192677
  0
TEXT
  8
_1-5_寸法2
 62
    7
 10
888.75000061229537
 20
359.22027140192677
 40
18
 41
1
 50
0
  1
10
  0
TEXT
  8
_0-7_枠細線
 62
    5
 10
1158.5999999999997
 20
84
 40
24.000000000000007
 41
0.5999999999999997
 50
0
  1
表面形状については記号表参照のこと
  0
LINE
  8
_1-2_極細2
  6
CENTER1
 62
    2
 10
1480.8053580885139
 20
387.78844837092777
 11
1495.6810354412937
 21
352.74354868615012
  0
CIRCLE
  8
_1-2_極細2
  6
DASHED2
 62
    2
 10
1489.2057499145467
 20
367.99836541372235
 40
9
  0
LINE
  8
_1-2_極細2
  6
CENTER1
 62
    2
 10
1505.7666576047413
 20
375.02805366178166
 11
1474.8722167025112
 21
361.91414153790913
  0
LINE
  8
_1-2_極細2
  6
CONTINUOUS
 62
    2
 10
1500.4795751616548
 20
382.58937748564733
 11
1508.9648565358934
 21
391.07465885988591
  0
LINE
  8
_1-2_極細2
  6
DASHED2
 62
    2
 10
1535.9979920943615
 20
310.62027097951716
 11
1501.2410159283559
 21
310.62027097951716
  0
LINE
  8
_1-2_極細2
  6
DASHED2
 62
    2
 10
1501.3989095768866
 20
391.09900084759522
 11
1535.6269564325457
 21
310.46277568516109
  0
LINE
  8
_1-2_極細2
  6
CONTINUOUS
 62
    2
 10
1366.8799762369654
 20
313.02027097951679
 11
1392.6799759579653
 21
313.0202709795177
  0
LINE
  8
_1-2_極細2
  6
CONTINUOUS
 62
    2
 10
1364.7799762579657
 20
315.1202709795167
 11
1394.7799759579648
 21
315.1202709795167
  0
LINE
  8
_1-2_極細2
  6
CONTINUOUS
 62
    2
 10
1364.7799762579657
 20
291.12027121951735
 11
1364.7799762579657
 21
315.12027097951716
  0
LINE
  8
_1-2_極細2
  6
CONTINUOUS
 62
    2
 10
1366.8799762369654
 20
291.12027121951735
 11
1366.8799762369654
 21
313.0202709795177
  0
LINE
  8
_1-2_極細2
  6
CONTINUOUS
 62
    2
 10
1364.7799762579657
 20
291.12027121951735
 11
1366.8799762369654
 21
291.12027121951735
  0
LINE
  8
_1-2_極細2
  6
CONTINUOUS
 62
    2
 10
1500.4795751616548
 20
382.58937748564733
 11
1503.5854037028853
 21
394.18048740111601
  0
LINE
  8
_1-2_極細2
  6
CONTINUOUS
 62
    2
 10
1540.2410159283559
 20
260.22027157951754
 11
1540.2410159283559
 21
262.32027157951791
  0
LINE
  8
_1-2_極細2
  6
CONTINUOUS
 62
    2
 10
1501.2410159283559
 20
280.14122203476825
 11
1501.2410159283559
 21
262.32027097951743
  0
LINE
  8
_1-2_極細2
  6
CONTINUOUS
 62
    2
 10
1420.2410159283554
 20
262.32027157951791
 11
1420.2410159283554
 21
260.22027157951754
  0
LINE
  8
_1-2_極細2
  6
CONTINUOUS
 62
    2
 10
1420.2410159283554
 20
262.32027157951791
 11
1540.2410145183558
 21
262.32027157951791
  0
LINE
  8
_1-2_極細2
  6
CONTINUOUS
 62
    2
 10
1420.2410159283554
 20
260.22027157951754
 11
1540.2410145183558
 21
260.22027157951754
  0
LINE
  8
_1-2_極細2
  6
CONTINUOUS
 62
    2
 10
1421.7799759579648
 20
262.32027157951791
 11
1463.7799759579648
 21
262.32027157951791
  0
LINE
  8
_1-2_極細2
  6
CONTINUOUS
 62
    2
 10
1392.6799759579653
 20
313.0202709795177
 11
1392.6799759579653
 21
255.12027157951763
  0
LINE
  8
_1-2_極細2
  6
CONTINUOUS
 62
    2
 10
1394.7799759579648
 20
315.12027097951716
 11
1394.7799759579648
 21
257.22027157951754
  0
LINE
  8
_1-2_極細2
  6
DASHED2
 62
    2
 10
1501.2410159283559
 20
310.62027097951716
 11
1501.2410159283559
 21
280.14122203476825
  0
LINE
  8
_1-5_寸法2
  6
CONTINUOUS
 62
    7
 10
1468.382640354449
 20
332.37075741922092
 11
1457.6077006499777
 21
327.08864852551335
  0
ARC
  8
_1-5_寸法2
  6
CONTINUOUS
 62
    7
 10
1517.7410159283559
 20
275.82027097951743
 40
75.061353277580906
 50
131.11509464913786
 51
160.1952802838328
  0
LINE
  8
_1-5_寸法2
  6
CONTINUOUS
 62
    7
 10
1447.1193268440916
 20
301.25221519830359
 11
1448.1244459889231
 21
313.2100467535937
  0
LINE
  8
_1-5_寸法2
  6
CONTINUOUS
 62
    7
 10
1447.1193268440916
 20
301.25221519830359
 11
1453.9687013349903
 21
311.10544152694422
  0
LINE
  8
_1-5_寸法2
  6
CONTINUOUS
 62
    7
 10
1468.382640354449
 20
332.37075741922092
 11
1461.6923232929848
 21
322.40884707947828
  0
LINE
  8
_1-3_細線2
  6
CONTINUOUS
 62
    4
 10
1540.6277929986586
 20
287.16467203617242
 11
1531.4846845920106
 21
308.70448560695934
  0
LINE
  8
_1-3_細線2
  6
CONTINUOUS
 62
    4
 10
1466.63181868631
 20
361.67538123670386
 11
1505.3142004067477
 21
270.54540074491217
  0
ARC
  8
_1-3_細線2
  6
CONTINUOUS
 62
    4
 10
1517.7410159283559
 20
275.82027097951743
 40
13.5
 50
202.99999999999858
 51
292.99999999999983
  0
LINE
  8
_1-3_細線2
  6
CONTINUOUS
 62
    4
 10
1523.0158861629611
 20
263.39345545790923
 11
1532.6811871242112
 21
267.49613230704665
  0
ARC
  8
_1-3_細線2
  6
CONTINUOUS
 62
    4
 10
1526.820220196872
 20
281.30370510883324
 40
15
 50
292.99999999999989
 51
22.999999999998316
  0
LINE
  8
_1-3_細線2
  6
CONTINUOUS
 62
    4
 10
1538.3884709929039
 20
311.63496907062893
 11
1504.1604241372434
 21
392.27119423306306
  0
LINE
  8
_1-3_細線2
  6
CONTINUOUS
 62
    4
 10
1531.4846845920106
 20
308.70448560695934
 11
1538.3884709929039
 21
311.63496907062893
  0
LINE
  8
_1-3_細線2
  6
CONTINUOUS
 62
    4
 10
1504.1604241372434
 20
392.27119423306306
 11
1473.7837639733116
 21
379.37706699291687
  0
CIRCLE
  8
_1-3_細線2
  6
CONTINUOUS
 62
    4
 10
1489.2057499145467
 20
367.99836541372235
 40
5.25
  0
ARC
  8
_1-3_細線2
  6
CONTINUOUS
 62
    4
 10
1479.0586342079173
 20
366.95025147130912
 40
13.5
 50
113.00000000000109
 51
202.99999999999881
  0
CIRCLE
  8
_1-3_細線2
  6
CONTINUOUS
 62
    4
 10
1489.2057499145467
 20
367.99836541372235
 40
13.5
  0
LINE
  8
_1-2_極細2
  6
CONTINUOUS
 62
    2
 10
1586.9079882565457
 20
310.62027097951716
 11
1535.9979920943615
 21
310.62027097951716
  0
LINE
  8
_1-2_極細2
  6
CONTINUOUS
 62
    2
 10
1394.7799759579648
 20
257.22027157951754
 11
1603.961016014227
 21
257.22027157951754
  0
LINE
  8
_1-2_極細2
  6
CONTINUOUS
 62
    2
 10
1392.6799759579653
 20
255.12027157951763
 11
1603.5422600215638
 21
255.12027157951763
  0
LINE
  8
_1-2_極細2
  6
CONTINUOUS
 62
    2
 10
1501.2410159283559
 20
262.32027097951743
 11
1604.3693776720133
 21
262.32027097951743
  0
LINE
  8
_1-2_極細2
  6
CONTINUOUS
 62
    2
 10
1594.054413219877
 20
325.43973493771421
 11
1593.9459719451888
 21
325.24823867551697
  0
LINE
  8
_1-2_極細2
  6
CONTINUOUS
 62
    2
 10
1593.9459719451888
 20
325.24823867551697
 11
1593.6237610199528
 21
324.67896920515852
  0
LINE
  8
_1-2_極細2
  6
CONTINUOUS
 62
    2
 10
1593.6237610199528
 20
324.67896920515852
 11
1593.0979060563309
 21
323.74741845291294
  0
LINE
  8
_1-2_極細2
  6
CONTINUOUS
 62
    2
 10
1593.0979060563309
 20
323.74741845291294
 11
1592.3875759832431
 21
322.47886579106296
  0
LINE
  8
_1-2_極細2
  6
CONTINUOUS
 62
    2
 10
1592.3875759832431
 20
322.47886579106296
 11
1591.5233609964594
 21
320.90760978169158
  0
LINE
  8
_1-2_極細2
  6
CONTINUOUS
 62
    2
 10
1591.5233609964594
 20
320.90760978169158
 11
1590.5487933523732
 21
319.07596870323925
  0
LINE
  8
_1-2_極細2
  6
CONTINUOUS
 62
    2
 10
1590.5487933523732
 20
319.07596870323925
 11
1589.5198536318085
 21
317.03310739750452
  0
LINE
  8
_1-2_極細2
  6
CONTINUOUS
 62
    2
 10
1589.5198536318085
 20
317.03310739750452
 11
1588.5017121894339
 21
314.83374315857793
  0
LINE
  8
_1-2_極細2
  6
CONTINUOUS
 62
    2
 10
1588.5017121894339
 20
314.83374315857793
 11
1587.5626318072891
 21
312.53677038234594
  0
LINE
  8
_1-2_極細2
  6
CONTINUOUS
 62
    2
 10
1587.5626318072891
 20
312.53677038234594
 11
1586.7657380313431
 21
310.20382683774926
  0
LINE
  8
_1-2_極細2
  6
CONTINUOUS
 62
    2
 10
1586.7657380313431
 20
310.20382683774926
 11
1586.1600489555385
 21
307.89780899932259
  0
LINE
  8
_1-2_極細2
  6
CONTINUOUS
 62
    2
 10
1586.1600489555385
 20
307.89780899932259
 11
1585.7725620047008
 21
305.68133480884433
  0
LINE
  8
_1-2_極細2
  6
CONTINUOUS
 62
    2
 10
1585.7725620047008
 20
305.68133480884433
 11
1585.6031987611
 21
303.6151527909384
  0
LINE
  8
_1-2_極細2
  6
CONTINUOUS
 62
    2
 10
1585.6031987611
 20
303.6151527909384
 11
1585.6239811304235
 21
301.75650740071944
  0
LINE
  8
_1-2_極細2
  6
CONTINUOUS
 62
    2
 10
1585.6239811304235
 20
301.75650740071944
 11
1585.7830280750945
 21
300.15748981617924
  0
LINE
  8
_1-2_極細2
  6
CONTINUOUS
 62
    2
 10
1585.7830280750945
 20
300.15748981617924
 11
1586.012985543688
 21
298.86342671319392
  0
LINE
  8
_1-2_極細2
  6
CONTINUOUS
 62
    2
 10
1586.012985543688
 20
298.86342671319392
 11
1586.2425489867705
 21
297.91138110597797
  0
LINE
  8
_1-2_極細2
  6
CONTINUOUS
 62
    2
 10
1586.2425489867705
 20
297.91138110597797
 11
1586.4090260273692
 21
297.32885330236184
  0
LINE
  8
_1-2_極細2
  6
CONTINUOUS
 62
    2
 10
1586.4090260273692
 20
297.32885330236184
 11
1586.4695853537733
 21
297.13277197475088
  0
LINE
  8
_1-2_極細2
  6
CONTINUOUS
 62
    2
 10
1586.4695853537733
 20
297.13277197475088
 11
1586.532457477455
 21
296.93662766030059
  0
LINE
  8
_1-2_極細2
  6
CONTINUOUS
 62
    2
 10
1586.532457477455
 20
296.93662766030059
 11
1586.7327492527961
 21
296.35316766591507
  0
LINE
  8
_1-2_極細2
  6
CONTINUOUS
 62
    2
 10
1586.7327492527961
 20
296.35316766591507
 11
1587.1019186645681
 21
295.39718417353936
  0
LINE
  8
_1-2_極細2
  6
CONTINUOUS
 62
    2
 10
1587.1019186645681
 20
295.39718417353936
 11
1587.6813846671876
 21
294.09291877633734
  0
LINE
  8
_1-2_極細2
  6
CONTINUOUS
 62
    2
 10
1587.6813846671876
 20
294.09291877633734
 11
1588.5088876609316
 21
292.4734771598479
  0
LINE
  8
_1-2_極細2
  6
CONTINUOUS
 62
    2
 10
1588.5088876609316
 20
292.4734771598479
 11
1589.6044302457685
 21
290.58006565844073
  0
LINE
  8
_1-2_極細2
  6
CONTINUOUS
 62
    2
 10
1589.6044302457685
 20
290.58006565844073
 11
1590.9593358589063
 21
288.4610862895039
  0
LINE
  8
_1-2_極細2
  6
CONTINUOUS
 62
    2
 10
1590.9593358589063
 20
288.4610862895039
 11
1592.5312440804551
 21
286.1711159400096
  0
LINE
  8
_1-2_極細2
  6
CONTINUOUS
 62
    2
 10
1592.5312440804551
 20
286.1711159400096
 11
1594.246456586669
 21
283.76977768461359
  0
LINE
  8
_1-2_極細2
  6
CONTINUOUS
 62
    2
 10
1594.246456586669
 20
283.76977768461359
 11
1596.0092949002415
 21
281.32049342020366
  0
LINE
  8
_1-2_極細2
  6
CONTINUOUS
 62
    2
 10
1596.0092949002415
 20
281.32049342020366
 11
1597.7164524437062
 21
278.8890936345723
  0
LINE
  8
_1-2_極細2
  6
CONTINUOUS
 62
    2
 10
1597.7164524437062
 20
278.8890936345723
 11
1599.2731236199552
 21
276.54225785786082
  0
LINE
  8
_1-2_極細2
  6
CONTINUOUS
 62
    2
 10
1599.2731236199552
 20
276.54225785786082
 11
1600.6072612755283
 21
274.34577141612192
  0
LINE
  8
_1-2_極細2
  6
CONTINUOUS
 62
    2
 10
1600.6072612755283
 20
274.34577141612192
 11
1601.6787555209862
 21
272.36261029031232
  0
LINE
  8
_1-2_極細2
  6
CONTINUOUS
 62
    2
 10
1601.6787555209862
 20
272.36261029031232
 11
1602.4815358042551
 21
270.65090226223299
  0
LINE
  8
_1-2_極細2
  6
CONTINUOUS
 62
    2
 10
1602.4815358042551
 20
270.65090226223299
 11
1603.0382838145983
 21
269.26185216360966
  0
LINE
  8
_1-2_極細2
  6
CONTINUOUS
 62
    2
 10
1603.0382838145983
 20
269.26185216360966
 11
1603.3892017992603
 21
268.23775341795147
  0
LINE
  8
_1-2_極細2
  6
CONTINUOUS
 62
    2
 10
1603.3892017992603
 20
268.23775341795147
 11
1603.577686537988
 21
267.61022896303177
  0
LINE
  8
_1-2_極細2
  6
CONTINUOUS
 62
    2
 10
1603.577686537988
 20
267.61022896303177
 11
1603.6364754911706
 21
267.39884604882502
  0
LINE
  8
_1-2_極細2
  6
CONTINUOUS
 62
    2
 10
1603.6364754911706
 20
267.39884604882502
 11
1603.692895639309
 21
267.18731709762926
  0
LINE
  8
_1-2_極細2
  6
CONTINUOUS
 62
    2
 10
1603.692895639309
 20
267.18731709762926
 11
1603.8467406970499
 21
266.55764609218534
  0
LINE
  8
_1-2_極細2
  6
CONTINUOUS
 62
    2
 10
1603.8467406970499
 20
266.55764609218534
 11
1604.0545988014783
 21
265.52459505831769
  0
LINE
  8
_1-2_極細2
  6
CONTINUOUS
 62
    2
 10
1604.0545988014783
 20
265.52459505831769
 11
1604.2530062414457
 21
264.11278564551469
  0
LINE
  8
_1-2_極細2
  6
CONTINUOUS
 62
    2
 10
1604.2530062414457
 20
264.11278564551469
 11
1604.3699478544977
 21
262.35662882410622
  0
LINE
  8
_1-2_極細2
  6
CONTINUOUS
 62
    2
 10
1604.3699478544977
 20
262.35662882410622
 11
1604.3376956111792
 21
260.30005556494746
  0
LINE
  8
_1-2_極細2
  6
CONTINUOUS
 62
    2
 10
1604.3376956111792
 20
260.30005556494746
 11
1604.1045753348471
 21
257.99592906154851
  0
LINE
  8
_1-2_極細2
  6
CONTINUOUS
 62
    2
 10
1604.1045753348471
 20
257.99592906154851
 11
1603.6435604696376
 21
255.50504495886037
  0
LINE
  8
_1-2_極細2
  6
CONTINUOUS
 62
    2
 10
1603.6435604696376
 20
255.50504495886037
 11
1602.9563209834164
 21
252.89467684538303
  0
LINE
  8
_1-2_極細2
  6
CONTINUOUS
 62
    2
 10
1602.9563209834164
 20
252.89467684538303
 11
1602.0723318862779
 21
250.23668913698941
  0
LINE
  8
_1-2_極細2
  6
CONTINUOUS
 62
    2
 10
1602.0723318862779
 20
250.23668913698941
 11
1601.0436461309673
 21
247.60530455547166
  0
LINE
  8
_1-2_極細2
  6
CONTINUOUS
 62
    2
 10
1601.0436461309673
 20
247.60530455547166
 11
1599.9367397289211
 21
245.07466497711823
  0
LINE
  8
_1-2_極細2
  6
CONTINUOUS
 62
    2
 10
1599.9367397289211
 20
245.07466497711823
 11
1598.8232750180605
 21
242.71635211308791
  0
LINE
  8
_1-2_極細2
  6
CONTINUOUS
 62
    2
 10
1598.8232750180605
 20
242.71635211308791
 11
1597.7716244219532
 21
240.59703354129334
  0
LINE
  8
_1-2_極細2
  6
CONTINUOUS
 62
    2
 10
1597.7716244219532
 20
240.59703354129334
 11
1596.8405813930754
 21
238.77637188346409
  0
LINE
  8
_1-2_極細2
  6
CONTINUOUS
 62
    2
 10
1596.8405813930754
 20
238.77637188346409
 11
1596.0759832990839
 21
237.30528821037535
  0
LINE
  8
_1-2_極細2
  6
CONTINUOUS
 62
    2
 10
1596.0759832990839
 20
237.30528821037535
 11
1595.5101715696992
 21
236.22461677819484
  0
LINE
  8
_1-2_極細2
  6
CONTINUOUS
 62
    2
 10
1595.5101715696992
 20
236.22461677819484
 11
1595.1635216249906
 21
235.56413964547491
  0
LINE
  8
_1-2_極細2
  6
CONTINUOUS
 62
    2
 10
1595.1635216249906
 20
235.56413964547491
 11
1595.046858001539
 21
235.34195715993621
  0
LINE
  8
_1-5_寸法2
  6
CONTINUOUS
 62
    7
 10
1546.4887599259982
 20
273.35709923438606
 11
1611.3843522978505
 21
300.90364387925018
  0
LINE
  8
_1-5_寸法2
  6
CONTINUOUS
 62
    7
 10
1608.622837737493
 20
299.73145049378206
 11
1603.0818844595619
 21
306.82354727624249
  0
LINE
  8
_1-5_寸法2
  6
CONTINUOUS
 62
    7
 10
1608.622837737493
 20
299.73145049378206
 11
1607.3702798288523
 21
308.64386311245619
  0
LINE
  8
_1-5_寸法2
  6
CONTINUOUS
 62
    7
 10
1517.9679969390304
 20
398.13216116040246
 11
1562.1522301082018
 21
416.88725541425487
  0
LINE
  8
_1-5_寸法2
  6
CONTINUOUS
 62
    7
 10
1559.3907155478446
 20
415.71506202878669
 11
1564.9316688257754
 21
408.62296524632632
  0
LINE
  8
_1-5_寸法2
  6
CONTINUOUS
 62
    7
 10
1559.3907155478446
 20
415.71506202878669
 11
1560.6432734564853
 21
406.80264941011262
  0
LINE
  8
_1-5_寸法2
  6
CONTINUOUS
 62
    7
 10
1608.622837737493
 20
299.73145049378206
 11
1559.3907155478446
 21
415.71506202878669
  0
TEXT
  8
_1-5_寸法2
 62
    7
 10
1580.4901964862656
 20
366.00779994235648
 40
18
 41
1
 50
-66.999999999999744
  1
42
  0
LINE
  8
_1-5_寸法2
  6
CONTINUOUS
 62
    7
 10
1460.7708517589715
 20
375.4829540384909
 11
1436.7408873242346
 21
432.09400260274725
  0
LINE
  8
_1-5_寸法2
  6
CONTINUOUS
 62
    7
 10
1437.9130807097017
 20
429.3324880423898
 11
1445.0051774921624
 21
434.87344132032081
  0
LINE
  8
_1-5_寸法2
  6
CONTINUOUS
 62
    7
 10
1437.9130807097017
 20
429.3324880423898
 11
1446.8254933283761
 21
430.58504595103051
  0
LINE
  8
_1-5_寸法2
  6
CONTINUOUS
 62
    7
 10
1498.2994572099046
 20
406.07876703484982
 11
1479.5443630097711
 21
450.2630000774983
  0
LINE
  8
_1-5_寸法2
  6
CONTINUOUS
 62
    7
 10
1480.7165563952385
 20
447.50148551714085
 11
1473.6244596127781
 21
441.96053223920978
  0
LINE
  8
_1-5_寸法2
  6
CONTINUOUS
 62
    7
 10
1480.7165563952385
 20
447.50148551714085
 11
1471.8041437765642
 21
446.2489276085002
  0
LINE
  8
_1-5_寸法2
  6
CONTINUOUS
 62
    7
 10
1437.9130807097017
 20
429.3324880423898
 11
1480.7165563952385
 21
447.50148551714085
  0
TEXT
  8
_1-5_寸法2
 62
    7
 10
1442.7457311903265
 20
431.38382646695834
 40
18
 41
1
 50
23.000000000000419
  1
15.5
  0
LINE
  8
_1-2_極細2
  6
CENTER1
 62
    2
 10
1503.3557205645593
 20
277.78712511901142
 11
1532.0881211133733
 21
277.78712511901142
  0
LINE
  8
_1-2_極細2
  6
CENTER1
 62
    2
 10
1518.5356765315037
 20
262.78465747118992
 11
1518.5356765315037
 21
292.34737047237752
  0
CIRCLE
  8
_1-2_極細2
  6
CONTINUOUS
 62
    2
 10
1518.5356765315037
 20
277.78712521328964
 40
10.350000000000001
  0
CIRCLE
  8
_1-3_細線2
  6
CONTINUOUS
 62
    4
 10
1518.5356765315037
 20
277.78712521328964
 40
10.800000000000001
  0
TEXT
  8
_0-7_枠細線
 62
    5
 10
1546.4986510791366
 20
480.07974155962131
 40
24
 41
0.6000000000000002
 50
0
  1
Ｓ＝１：２
  0
TEXT
  8
_0-7_枠細線
 62
    5
 10
1414.7721975320151
 20
480.07974155962131
 40
24
 41
0.8
 50
0
  1
Ｂ部詳細図
  0
LINE
  8
_1-5_寸法2
  6
CONTINUOUS
 62
    7
 10
1500.4795751616548
 20
382.58937748564733
 11
1503.5854037028848
 21
394.18048740111607
  0
LINE
  8
_1-5_寸法2
  6
CONTINUOUS
 62
    7
 10
1500.4795751616548
 20
382.58937748564733
 11
1508.9648565358934
 21
391.07465885988591
  0
LINE
  8
_1-5_寸法2
  6
CONTINUOUS
 62
    7
 10
1500.4795751616548
 20
382.58937748564733
 11
1527.1770595390417
 21
428.83077686155809
  0
LINE
  8
_1-5_寸法2
  6
CONTINUOUS
 62
    7
 10
1527.1770595390417
 20
428.83077686155809
 11
1584.7770595390416
 21
428.83077686155809
  0
TEXT
  8
_1-5_寸法2
 62
    7
 10
1527.1770595390417
 20
428.83077686155809
 40
18
 41
0.7999999999999998
 50
0
  1
取外し具
  0
LINE
  8
_0-7_枠細線
  6
CONTINUOUS
 62
    5
 10
1050.0000000000002
 20
212.9999999999994
 11
1050.0000000000002
 21
87
  0
TEXT
  8
_0-7_枠細線
 62
    5
 10
940.80000000000132
 20
188.9999999999994
 40
18.000000000000004
 41
0.8
 50
0
  1
ノンスリップ
  0
LINE
  8
_0-7_枠細線
  6
CONTINUOUS
 62
    5
 10
929.91325000540792
 20
125.70332598028932
 11
1043.7698339940232
 21
125.70332598028932
  0
LINE
  8
_0-7_枠細線
  6
CONTINUOUS
 62
    5
 10
925.43101800585555
 20
145.7033259782894
 11
1039.2876019944711
 21
145.7033259782894
  0
ARC
  8
_0-7_枠細線
  6
CONTINUOUS
 62
    5
 10
943.00000000409955
 20
131.70332597968931
 40
3.9999999996
 50
51.317813000006808
 51
203.57817800000188
  0
ARC
  8
_0-7_枠細線
  6
CONTINUOUS
 62
    5
 10
948.00000000359933
 20
137.94832397906495
 40
3.9999999996
 50
231.3178130000006
 51
308.68218699999613
  0
LINE
  8
_0-7_枠細線
  6
CONTINUOUS
 62
    5
 10
939.33394000446651
 20
130.10332597984936
 11
956.66606000273259
 21
130.10332597984936
  0
ARC
  8
_0-7_枠細線
  6
CONTINUOUS
 62
    5
 10
953.00000000309956
 20
131.70332597968931
 40
3.9999999996
 50
336.42182199999411
 51
128.6821869999992
  0
ARC
  8
_0-7_枠細線
  6
CONTINUOUS
 62
    5
 10
979.00000000049977
 20
139.70332597888932
 40
3.9999999996
 50
156.42182199999701
 51
308.6821869999946
  0
ARC
  8
_0-7_枠細線
  6
CONTINUOUS
 62
    5
 10
983.99999999999955
 20
133.45832797951368
 40
3.9999999996
 50
51.317813000007824
 51
128.68218699999727
  0
ARC
  8
_0-7_枠細線
  6
CONTINUOUS
 62
    5
 10
988.99999999949978
 20
139.70332597888932
 40
3.9999999996
 50
231.31781299999577
 51
23.578178000004584
  0
LINE
  8
_0-7_枠細線
  6
CONTINUOUS
 62
    5
 10
975.33394000086673
 20
141.30332597872928
 11
992.66605999913236
 21
141.30332597872928
  0
LINE
  8
_0-7_枠細線
  6
CONTINUOUS
 62
    5
 10
1011.3339399972665
 20
130.10332597984936
 11
1028.6660599955328
 21
130.10332597984936
  0
ARC
  8
_0-7_枠細線
  6
CONTINUOUS
 62
    5
 10
1014.9999999968995
 20
131.70332597968931
 40
3.9999999996
 50
51.317813000005536
 51
203.57817800000188
  0
ARC
  8
_0-7_枠細線
  6
CONTINUOUS
 62
    5
 10
1019.9999999963993
 20
137.94832397906495
 40
3.9999999996
 50
231.31781300000188
 51
308.68218699999869
  0
ARC
  8
_0-7_枠細線
  6
CONTINUOUS
 62
    5
 10
1024.9999999958995
 20
131.70332597968931
 40
3.9999999996
 50
336.4218219999961
 51
128.68218699999792
  0
ARC
  8
_0-7_枠細線
  6
CONTINUOUS
 62
    5
 10
979.00000000049977
 20
139.70332597888932
 40
7.4599999992540358
 50
151.14636799999636
 51
308.68218700000426
  0
LINE
  8
_0-7_枠細線
  6
CONTINUOUS
 62
    5
 10
924.99149400590022
 20
143.3033259785293
 11
972.46612000115192
 21
143.3033259785293
  0
LINE
  8
_0-7_枠細線
  6
CONTINUOUS
 62
    5
 10
959.53388200244581
 20
128.10332598004942
 11
1008.466119997554
 21
128.10332598004942
  0
ARC
  8
_0-7_枠細線
  6
CONTINUOUS
 62
    5
 10
920.06447800639307
 20
128.74723197998475
 40
10.308427998969092
 50
317.5616289999993
 51
42.438371000002093
  0
ARC
  8
_0-7_枠細線
  6
CONTINUOUS
 62
    5
 10
943.00000000409955
 20
131.70332597968931
 40
7.4599999992540358
 50
51.317812999992654
 51
208.85363199999745
  0
ARC
  8
_0-7_枠細線
  6
CONTINUOUS
 62
    5
 10
935.27979200487107
 20
142.6594199785938
 40
10.308427998969092
 50
137.56162899999987
 51
222.43837100000141
  0
LINE
  8
_0-7_枠細線
  6
CONTINUOUS
 62
    5
 10
930.35277600536392
 20
128.10332598004942
 11
936.46612000475216
 21
128.10332598004942
  0
ARC
  8
_0-7_枠細線
  6
CONTINUOUS
 62
    5
 10
948.00000000359933
 20
137.94832397906495
 40
0.5399999999459634
 50
231.31781300002865
 51
308.68218699999886
  0
ARC
  8
_0-7_枠細線
  6
CONTINUOUS
 62
    5
 10
953.00000000309956
 20
131.70332597968931
 40
7.4599999992540358
 50
331.14636800000056
 51
128.68218700000699
  0
ARC
  8
_0-7_枠細線
  6
CONTINUOUS
 62
    5
 10
1033.9210619950086
 20
128.74723197998475
 40
10.308427998969092
 50
317.56162899999799
 51
42.438371000002093
  0
ARC
  8
_0-7_枠細線
  6
CONTINUOUS
 62
    5
 10
1049.1363759934868
 20
142.6594199785938
 40
10.308427998969092
 50
137.56162900000288
 51
222.43837100000013
  0
LINE
  8
_0-7_枠細線
  6
CONTINUOUS
 62
    5
 10
1031.5338819952458
 20
128.10332598004942
 11
1044.2093599939797
 21
128.10332598004942
  0
LINE
  8
_0-7_枠細線
  6
CONTINUOUS
 62
    5
 10
995.53388199884603
 20
143.3033259785293
 11
1038.8480779945157
 21
143.3033259785293
  0
ARC
  8
_0-7_枠細線
  6
CONTINUOUS
 62
    5
 10
1014.9999999968995
 20
131.70332597968931
 40
7.4599999992540358
 50
51.317812999993329
 51
208.85363200000538
  0
ARC
  8
_0-7_枠細線
  6
CONTINUOUS
 62
    5
 10
983.99999999999955
 20
133.45832797951368
 40
0.5399999999459634
 50
51.317813000032764
 51
128.68218699999548
  0
ARC
  8
_0-7_枠細線
  6
CONTINUOUS
 62
    5
 10
988.99999999949978
 20
139.70332597888932
 40
7.4599999992540358
 50
231.31781299999028
 51
28.853631999998139
  0
ARC
  8
_0-7_枠細線
  6
CONTINUOUS
 62
    5
 10
1019.9999999963993
 20
137.94832397906495
 40
0.5399999999459634
 50
231.31781300002865
 51
308.6821870000083
  0
ARC
  8
_0-7_枠細線
  6
CONTINUOUS
 62
    5
 10
1024.9999999958995
 20
131.70332597968931
 40
7.4599999992540358
 50
331.14636800000056
 51
128.68218700000631
  0
LINE
  8
_0-7_枠細線
  6
CENTER1
 62
    5
 10
948.00000000359933
 20
147.38307197812114
 11
948.00000000359933
 21
124.16529398044315
  0
LINE
  8
_0-7_枠細線
  6
CENTER1
 62
    5
 10
1019.9999999963993
 20
147.38307197812114
 11
1019.9999999963993
 21
124.16529398044315
  0
LINE
  8
_0-7_枠細線
  6
CENTER1
 62
    5
 10
983.99999999999955
 20
147.38307197812114
 11
983.99999999999955
 21
124.16529398044315
  0
LINE
  8
_0-7_枠細線
  6
CONTINUOUS
 62
    5
 10
948.00000000359933
 20
119.70332598028932
 11
948.00000000359933
 21
89.703325980289321
  0
LINE
  8
_0-7_枠細線
  6
CONTINUOUS
 62
    5
 10
948.00000000359933
 20
95.703325980289321
 11
959.59110991906823
 21
98.809154521519645
  0
LINE
  8
_0-7_枠細線
  6
CONTINUOUS
 62
    5
 10
948.00000000359933
 20
95.703325980289321
 11
959.59110991906823
 21
92.597497439059083
  0
LINE
  8
_0-7_枠細線
  6
CONTINUOUS
 62
    5
 10
983.99999999999955
 20
119.70332598028932
 11
983.99999999999955
 21
89.703325980289321
  0
LINE
  8
_0-7_枠細線
  6
CONTINUOUS
 62
    5
 10
983.99999999999955
 20
95.703325980289321
 11
972.40889008453064
 21
92.597497439059168
  0
LINE
  8
_0-7_枠細線
  6
CONTINUOUS
 62
    5
 10
983.99999999999955
 20
95.703325980289321
 11
972.40889008453064
 21
98.809154521519645
  0
LINE
  8
_0-7_枠細線
  6
CONTINUOUS
 62
    5
 10
948.00000000359933
 20
95.703325980289321
 11
983.99999999999955
 21
95.703325980289321
  0
TEXT
  8
_0-7_枠細線
 62
    5
 10
957.00000000179944
 20
95.703325980289321
 40
18
 41
1
 50
0
  1
18
  0
LINE
  8
_0-7_枠細線
  6
CONTINUOUS
 62
    5
 10
983.99999999999955
 20
95.703325980289321
 11
995.59110991546822
 21
98.809154521519474
  0
LINE
  8
_0-7_枠細線
  6
CONTINUOUS
 62
    5
 10
983.99999999999955
 20
95.703325980289321
 11
995.59110991546822
 21
92.597497439058998
  0
LINE
  8
_0-7_枠細線
  6
CONTINUOUS
 62
    5
 10
1019.9999999963993
 20
119.70332598028932
 11
1019.9999999963993
 21
89.703325980289321
  0
LINE
  8
_0-7_枠細線
  6
CONTINUOUS
 62
    5
 10
1019.9999999963993
 20
95.703325980289321
 11
1008.4088900809304
 21
92.597497439059168
  0
LINE
  8
_0-7_枠細線
  6
CONTINUOUS
 62
    5
 10
1019.9999999963993
 20
95.703325980289321
 11
1008.4088900809304
 21
98.809154521519645
  0
LINE
  8
_0-7_枠細線
  6
CONTINUOUS
 62
    5
 10
983.99999999999955
 20
95.703325980289321
 11
1019.9999999963993
 21
95.703325980289321
  0
TEXT
  8
_0-7_枠細線
 62
    5
 10
992.99999999819966
 20
95.703325980289321
 40
18
 41
1
 50
0
  1
18
  0
TEXT
  8
_0-7_枠細線
 62
    5
 10
955.20000000000061
 20
158.99999999999949
 40
18.000000000000004
 41
0.7999999999999997
 50
0
  1
品番－Ｄ
  0
LINE
  8
_0-7_枠細線
  6
CONTINUOUS
 62
    5
 10
917.99999999999977
 20
212.9999999999994
 11
917.99999999999977
 21
87
  0
TEXT
  8
_0-7_枠細線
 62
    5
 10
823.19999999999959
 20
188.99999999999949
 40
18.000000000000004
 41
0.8
 50
0
  1
プレーン
  0
LINE
  8
_0-7_枠細線
  6
CONTINUOUS
 62
    5
 10
797.31282300546764
 20
125.70332598028932
 11
911.16940699408315
 21
125.70332598028932
  0
LINE
  8
_0-7_枠細線
  6
CONTINUOUS
 62
    5
 10
792.83059100591572
 20
145.7033259782894
 11
906.68717499453123
 21
145.7033259782894
  0
ARC
  8
_0-7_枠細線
  6
CONTINUOUS
 62
    5
 10
901.32063499506694
 20
128.74723197998475
 40
10.308427998969092
 50
317.5616290000047
 51
42.438370999995726
  0
ARC
  8
_0-7_枠細線
  6
CONTINUOUS
 62
    5
 10
787.46405100645325
 20
128.74723197998475
 40
10.308427998969206
 50
317.5616289999997
 51
42.438371000000764
  0
LINE
  8
_0-7_枠細線
  6
CONTINUOUS
 62
    5
 10
792.39106700596039
 20
143.3033259785293
 11
906.24765099457591
 21
143.3033259785293
  0
LINE
  8
_0-7_枠細線
  6
CONTINUOUS
 62
    5
 10
797.75234900542409
 20
128.10332598004942
 11
911.60893299403915
 21
128.10332598004942
  0
ARC
  8
_0-7_枠細線
  6
CONTINUOUS
 62
    5
 10
802.67936500493261
 20
142.6594199785938
 40
10.308427998969206
 50
137.56162900000027
 51
222.43837100000314
  0
ARC
  8
_0-7_枠細線
  6
CONTINUOUS
 62
    5
 10
916.5359489935463
 20
142.6594199785938
 40
10.308427998969092
 50
137.56162899999987
 51
222.43837100000266
  0
TEXT
  8
_0-7_枠細線
 62
    5
 10
823.20000000000061
 20
158.99999999999949
 40
18.000000000000004
 41
0.7999999999999997
 50
0
  1
品番－Ｆ
  0
TEXT
  8
_0-7_枠細線
 62
    5
 10
727.20000000000005
 20
188.9999999999994
 40
18.000000000000004
 41
0.8
 50
0
  1
タ イ プ
  0
LINE
  8
_0-7_枠細線
  6
CONTINUOUS
 62
    5
 10
725.99999999999932
 20
152.99999999999949
 11
1050.0000000000002
 21
152.99999999999949
  0
LINE
  8
_0-7_枠細線
  6
CONTINUOUS
 62
    5
 10
725.99999999999932
 20
182.9999999999994
 11
1050.0000000000002
 21
182.9999999999994
  0
LINE
  8
_0-7_枠細線
  6
CONTINUOUS
 62
    5
 10
725.99999999999932
 20
212.9999999999994
 11
1050.0000000000002
 21
212.9999999999994
  0
LINE
  8
_0-7_枠細線
  6
CONTINUOUS
 62
    5
 10
725.99999999999932
 20
87
 11
1050.0000000000002
 21
87
  0
LINE
  8
_0-7_枠細線
  6
CONTINUOUS
 62
    5
 10
786.00000000000023
 20
212.9999999999994
 11
786.00000000000023
 21
87
  0
LINE
  8
_0-7_枠細線
  6
CONTINUOUS
 62
    5
 10
725.99999999999932
 20
212.9999999999994
 11
725.99999999999932
 21
87
  0
TEXT
  8
_0-7_枠細線
 62
    5
 10
727.20000000000005
 20
110.99999999999974
 40
18.000000000000004
 41
0.8
 50
0
  1
表面形状
  0
TEXT
  8
_0-7_枠細線
 62
    5
 10
735.3290536089728
 20
215.99999999999949
 40
21.000000000000004
 41
0.7999999999999997
 50
0
  1
記号表
  0
TEXT
  8
_0-7_枠細線
 62
    5
 10
727.20000000000005
 20
158.99999999999966
 40
18.000000000000004
 41
0.8
 50
0
  1
記　　号
  0
ARC
  8
_0-1_計細線
  6
CONTINUOUS
 62
    3
 10
778.39040756597365
 20
901.37869169195142
 40
32.499868667505325
 50
269.99999999999977
 51
89.999999999999545
  0
LINE
  8
_0-1_計細線
  6
CONTINUOUS
 62
    3
 10
791.31298867894907
 20
899.59726555738985
 11
778.31304121194694
 21
899.59726555738985
  0
CIRCLE
  8
_0-1_計細線
  6
CONTINUOUS
 62
    3
 10
784.0218514758833
 20
895.67304141524323
 40
1.9999919180004326
  0
CIRCLE
  8
_0-1_計細線
  6
CONTINUOUS
 62
    3
 10
790.49804530548022
 20
894.33938680456299
 40
1.9999919180004326
  0
CIRCLE
  8
_0-1_計細線
  6
CONTINUOUS
 62
    3
 10
785.35549941992463
 20
889.1968409190074
 40
1.9999919180004326
  0
LINE
  8
_0-1_計細線
  6
CONTINUOUS
 62
    3
 10
791.31298867894907
 20
899.59726555738985
 11
791.31298867894907
 21
901.34725848563971
  0
CIRCLE
  8
_0-1_計細線
  6
CONTINUOUS
 62
    3
 10
772.60423094800785
 20
895.67304141524323
 40
1.9999919180004326
  0
CIRCLE
  8
_0-1_計細線
  6
CONTINUOUS
 62
    3
 10
766.12803711841093
 20
894.33938680456299
 40
1.9999919180004326
  0
CIRCLE
  8
_0-1_計細線
  6
CONTINUOUS
 62
    3
 10
771.27058300396652
 20
889.1968409190074
 40
1.9999919180004326
  0
CIRCLE
  8
_0-1_計細線
  6
CONTINUOUS
 62
    3
 10
778.29543461642675
 20
893.31566427477469
 40
1.9999919180004326
  0
CIRCLE
  8
_0-1_計細線
  6
CONTINUOUS
 62
    3
 10
778.29543461642675
 20
887.31454185874168
 40
1.9999919180004326
  0
LINE
  8
_0-1_計細線
  6
CONTINUOUS
 62
    3
 10
765.31309374494481
 20
899.59726555738985
 11
765.31309374494481
 21
901.34725848563971
  0
LINE
  8
_0-1_計細線
  6
CONTINUOUS
 62
    3
 10
765.31309374494481
 20
899.59726555738985
 11
778.31304121194694
 21
899.59726555738985
  0
LINE
  8
_0-1_計細線
  6
CONTINUOUS
 62
    3
 10
791.31298867894907
 20
903.09725141388958
 11
778.31304121194694
 21
903.09725141388958
  0
CIRCLE
  8
_0-1_計細線
  6
CONTINUOUS
 62
    3
 10
784.0218514758833
 20
907.02147555603756
 40
1.9999919180004326
  0
CIRCLE
  8
_0-1_計細線
  6
CONTINUOUS
 62
    3
 10
790.49804530548022
 20
908.35512350007753
 40
1.9999919180004326
  0
CIRCLE
  8
_0-1_計細線
  6
CONTINUOUS
 62
    3
 10
785.35549941992463
 20
913.49766938563312
 40
1.9999919180004326
  0
LINE
  8
_0-1_計細線
  6
CONTINUOUS
 62
    3
 10
791.31298867894907
 20
903.09725141388958
 11
791.31298867894907
 21
901.34725848563971
  0
CIRCLE
  8
_0-1_計細線
  6
CONTINUOUS
 62
    3
 10
772.60423094800785
 20
907.02147555603756
 40
1.9999919180004326
  0
CIRCLE
  8
_0-1_計細線
  6
CONTINUOUS
 62
    3
 10
766.12803711841093
 20
908.35512350007753
 40
1.9999919180004326
  0
CIRCLE
  8
_0-1_計細線
  6
CONTINUOUS
 62
    3
 10
771.27058300396652
 20
913.49766938563312
 40
1.9999919180004326
  0
CIRCLE
  8
_0-1_計細線
  6
CONTINUOUS
 62
    3
 10
778.29543461642675
 20
909.37884602986583
 40
1.9999919180004326
  0
CIRCLE
  8
_0-1_計細線
  6
CONTINUOUS
 62
    3
 10
778.29543461642675
 20
915.37997511253911
 40
1.9999919180004326
  0
LINE
  8
_0-1_計細線
  6
CONTINUOUS
 62
    3
 10
765.31309374494481
 20
903.09725141388958
 11
765.31309374494481
 21
901.34725848563971
  0
LINE
  8
_0-1_計細線
  6
CONTINUOUS
 62
    3
 10
765.31309374494481
 20
903.09725141388958
 11
778.31304121194694
 21
903.09725141388958
  0
CIRCLE
  8
_0-1_計細線
  6
CONTINUOUS
 62
    3
 10
778.2356748579175
 20
901.37869169195142
 40
16.499933323502546
  0
CIRCLE
  8
_0-1_計細線
  6
CONTINUOUS
 62
    3
 10
778.2356748579175
 20
901.37869169195142
 40
19.999919180003303
  0
CIRCLE
  8
_0-1_計細線
  6
CONTINUOUS
 62
    3
 10
778.2356748579175
 20
901.37869169195142
 40
21.999911098003736
  0
CIRCLE
  8
_0-1_計細線
  6
CONTINUOUS
 62
    3
 10
778.2356748579175
 20
901.37869169195142
 40
32.249869677755441
  0
ARC
  8
_0-1_計細線
  6
CONTINUOUS
 62
    3
 10
778.2356748579175
 20
901.37869169195142
 40
32.499868667505325
 50
89.999999999999915
 51
269.99999999999977
  0
LINE
  8
_0-5_寸法線
  6
CONTINUOUS
 62
    7
 10
894.64028776978375
 20
969.41201989453862
 11
897.74611631101402
 21
981.00312981000741
  0
LINE
  8
_0-5_寸法線
  6
CONTINUOUS
 62
    7
 10
894.64028776978375
 20
969.41201989453862
 11
903.12556914402217
 21
977.89730126877703
  0
LINE
  8
_0-5_寸法線
  6
CONTINUOUS
 62
    7
 10
894.64028776978375
 20
969.41201989453862
 11
910.06052427601753
 21
996.12065298806385
  0
LINE
  8
_0-5_寸法線
  6
CONTINUOUS
 62
    7
 10
910.06052427601753
 20
996.12065298806385
 11
1025.2605242760178
 21
996.12065298806385
  0
TEXT
  8
_0-5_寸法線
 62
    7
 10
910.06052427601765
 20
996.12065298806385
 40
18
 41
0.7999999999999998
 50
0
  1
排水ユニット本体
  0
LINE
  8
_0-5_寸法線
  6
CONTINUOUS
 62
    7
 10
780.84141574653961
 20
899.59726555738985
 11
785.94283657906419
 21
888.73561257593781
  0
LINE
  8
_0-5_寸法線
  6
CONTINUOUS
 62
    7
 10
780.84141574653961
 20
899.59726555738985
 11
779.82854929217501
 21
887.64008773209912
  0
LINE
  8
_0-5_寸法線
  6
CONTINUOUS
 62
    7
 10
780.84141574653961
 20
899.59726555738985
 11
799.24019037133917
 21
796.91096463465783
  0
LINE
  8
_0-5_寸法線
  6
CONTINUOUS
 62
    7
 10
799.24019037133917
 20
796.91096463465783
 11
885.64019037133903
 21
796.91096463465783
  0
TEXT
  8
_0-5_寸法線
 62
    7
 10
799.24019037133917
 20
796.91096463465783
 40
18
 41
0.7999999999999998
 50
0
  1
ストレーナー
  0
LINE
  8
_0-5_寸法線
  6
CONTINUOUS
 62
    7
 10
770.92795801007674
 20
880.62794802354642
 11
772.09122499786224
 21
868.68446402953828
  0
LINE
  8
_0-5_寸法線
  6
CONTINUOUS
 62
    7
 10
770.92795801007674
 20
880.62794802354642
 11
765.96363477587886
 21
869.70295398114956
  0
LINE
  8
_0-5_寸法線
  6
CONTINUOUS
 62
    7
 10
770.92795801007674
 20
880.62794802354642
 11
757.013041497725
 21
796.91096463465783
  0
LINE
  8
_0-5_寸法線
  6
CONTINUOUS
 62
    7
 10
757.013041497725
 20
796.91096463465783
 11
713.81304149772495
 21
796.91096463465783
  0
TEXT
  8
_0-5_寸法線
 62
    7
 10
713.81304149772495
 20
796.91096463465783
 40
18
 41
0.7999999999999998
 50
0
  1
排水口
  0
LINE
  8
_0-1_計細線
  6
CONTINUOUS
 62
    3
 10
342.81304121194688
 20
852.09725848564244
 11
342.81304121194688
 21
842.09725848564244
  0
LINE
  8
_0-1_計細線
  6
CONTINUOUS
 62
    3
 10
342.81304121194688
 20
867.59725848564199
 11
342.81304121194688
 21
857.59725848564199
  0
LINE
  8
_0-1_計細線
  6
CONTINUOUS
 62
    3
 10
342.81304121194688
 20
883.09725848564153
 11
342.81304121194688
 21
873.09725848564153
  0
LINE
  8
_0-1_計細線
  6
CONTINUOUS
 62
    3
 10
342.81304121194688
 20
914.09725848564062
 11
342.81304121194688
 21
904.09725848564062
  0
LINE
  8
_0-1_計細線
  6
CONTINUOUS
 62
    3
 10
342.81304121194688
 20
929.59725848564017
 11
342.81304121194688
 21
919.59725848564017
  0
LINE
  8
_0-1_計細線
  6
CONTINUOUS
 62
    3
 10
342.81304121194688
 20
945.09725848564017
 11
342.81304121194688
 21
935.09725848564005
  0
LINE
  8
_0-1_計細線
  6
CONTINUOUS
 62
    3
 10
342.81304121194688
 20
960.59725848563971
 11
342.81304121194688
 21
950.5972584856396
  0
ARC
  8
_0-1_計細線
  6
CONTINUOUS
 62
    3
 10
1436.5763929071761
 20
935.34725856217995
 40
0.8
 50
179.99999999999983
 51
269.99999999999977
  0
LINE
  8
_0-1_計細線
  6
CONTINUOUS
 62
    3
 10
1436.5763929071761
 20
934.54725856217999
 11
1439.9763929071758
 21
934.54725856217999
  0
ARC
  8
_0-1_計細線
  6
CONTINUOUS
 62
    3
 10
1439.9763929071758
 20
933.04725856217999
 40
1.5
 50
0
 51
89.999999999999915
  0
LINE
  8
_0-1_計細線
  6
CONTINUOUS
 62
    3
 10
1441.4763929071758
 20
933.04725856217999
 11
1441.4763929071758
 21
901.34725848563994
  0
LINE
  8
_0-0_計極細
  6
CONTINUOUS
 62
    2
 10
1436.5763929071761
 20
901.34725848563971
 11
1436.5763929071761
 21
934.54725856217999
  0
ARC
  8
_0-1_計細線
  6
CONTINUOUS
 62
    3
 10
1436.5763929071761
 20
867.34725840909937
 40
0.8
 50
89.999999999999915
 51
179.99999999999983
  0
LINE
  8
_0-1_計細線
  6
CONTINUOUS
 62
    3
 10
1436.5763929071761
 20
868.14725840909932
 11
1439.9763929071758
 21
868.14725840909932
  0
ARC
  8
_0-1_計細線
  6
CONTINUOUS
 62
    3
 10
1439.9763929071758
 20
869.64725840909932
 40
1.5
 50
269.99999999999977
 51
359.99999999999966
  0
LINE
  8
_0-1_計細線
  6
CONTINUOUS
 62
    3
 10
1441.4763929071758
 20
869.64725840909932
 11
1441.4763929071758
 21
901.34725848563937
  0
LINE
  8
_0-0_計極細
  6
CONTINUOUS
 62
    2
 10
1436.5763929071761
 20
901.34725848563971
 11
1436.5763929071761
 21
868.14725840909932
  0
LINE
  8
_0-1_計細線
  6
CONTINUOUS
 62
    3
 10
1441.4763929071758
 20
933.09725845388971
 11
1443.2763929071475
 21
933.09725845388971
  0
LINE
  8
_0-1_計細線
  6
CONTINUOUS
 62
    3
 10
1423.7763605791777
 20
964.0474859939311
 11
1423.7763605791777
 21
838.64741083133345
  0
LINE
  8
_0-1_計細線
  6
CONTINUOUS
 62
    3
 10
1423.7763605791777
 20
838.64741083133345
 11
1435.7763120871775
 21
838.64741083133345
  0
LINE
  8
_0-1_計細線
  6
CONTINUOUS
 62
    3
 10
1435.7763120871775
 20
838.64741083133345
 11
1435.7763120871775
 21
964.0474859939311
  0
LINE
  8
_0-1_計細線
  6
CONTINUOUS
 62
    3
 10
1435.7763120871775
 20
964.0474859939311
 11
1423.7763605791777
 21
964.0474859939311
  0
LINE
  8
_0-1_計細線
  6
CONTINUOUS
 62
    3
 10
1415.7763929071759
 20
829.34744841263284
 11
1415.7763929071759
 21
901.34725848563971
  0
LINE
  8
_0-1_計細線
  6
CONTINUOUS
 62
    3
 10
1415.7763929071759
 20
973.34744841263284
 11
1415.7763929071759
 21
901.34725848563971
  0
LINE
  8
_0-1_計細線
  6
CONTINUOUS
 62
    3
 10
1415.7763929071759
 20
973.34744841263284
 11
1423.7763605791777
 21
973.34744841263284
  0
LINE
  8
_0-1_計細線
  6
CONTINUOUS
 62
    3
 10
1423.7763605791777
 20
973.34744841263284
 11
1423.7763605791777
 21
901.34725848563971
  0
LINE
  8
_0-1_計細線
  6
CONTINUOUS
 62
    3
 10
1423.7763605791777
 20
829.34744841263284
 11
1423.7763605791777
 21
901.34725848563971
  0
LINE
  8
_0-1_計細線
  6
CONTINUOUS
 62
    3
 10
1415.7763929071759
 20
829.34744841263284
 11
1423.7763605791777
 21
829.34744841263284
  0
LINE
  8
_0-1_計細線
  6
CONTINUOUS
 62
    3
 10
1423.7763120871775
 20
965.24748599393092
 11
1423.7763120871775
 21
964.0474859939311
  0
LINE
  8
_0-1_計細線
  6
CONTINUOUS
 62
    3
 10
1423.7763120871775
 20
964.0474859939311
 11
1458.7763120871764
 21
964.0474859939311
  0
LINE
  8
_0-1_計細線
  6
CONTINUOUS
 62
    3
 10
1458.7763120871764
 20
964.0474859939311
 11
1458.7763120871764
 21
965.24748599393092
  0
LINE
  8
_0-1_計細線
  6
CONTINUOUS
 62
    3
 10
1458.7763120871764
 20
965.24748599393092
 11
1423.7763120871775
 21
965.24748599393092
  0
LINE
  8
_0-0_計極細
  6
CONTINUOUS
 62
    2
 10
1425.7763120871775
 20
964.0474859939311
 11
1425.7763120871775
 21
965.24748599393092
  0
LINE
  8
_0-0_計極細
  6
CONTINUOUS
 62
    2
 10
1437.7763120871775
 20
964.0474859939311
 11
1437.7763120871775
 21
965.24748599393092
  0
LINE
  8
_0-0_計極細
  6
CONTINUOUS
 62
    2
 10
1439.7763120871766
 20
964.0474859939311
 11
1439.7763120871766
 21
965.24748599393092
  0
LINE
  8
_0-0_計極細
  6
CONTINUOUS
 62
    2
 10
1441.7763120871766
 20
964.0474859939311
 11
1441.7763120871766
 21
965.24748599393092
  0
LINE
  8
_0-0_計極細
  6
CONTINUOUS
 62
    2
 10
1455.7763120871764
 20
964.0474859939311
 11
1455.7763120871764
 21
965.24748599393092
  0
LINE
  8
_0-0_計極細
  6
CONTINUOUS
 62
    2
 10
1435.7763120871775
 20
964.0474859939311
 11
1435.7763120871775
 21
965.24748599393092
  0
LINE
  8
_0-1_計細線
  6
CONTINUOUS
 62
    3
 10
1423.7763120871775
 20
838.64741083133345
 11
1423.7763120871775
 21
837.44741083133363
  0
LINE
  8
_0-1_計細線
  6
CONTINUOUS
 62
    3
 10
1423.7763120871775
 20
837.44741083133363
 11
1458.7763120871764
 21
837.44741083133363
  0
LINE
  8
_0-1_計細線
  6
CONTINUOUS
 62
    3
 10
1458.7763120871764
 20
837.44741083133363
 11
1458.7763120871764
 21
838.64741083133345
  0
LINE
  8
_0-1_計細線
  6
CONTINUOUS
 62
    3
 10
1458.7763120871764
 20
838.64741083133345
 11
1423.7763120871775
 21
838.64741083133345
  0
LINE
  8
_0-0_計極細
  6
CONTINUOUS
 62
    2
 10
1425.7763120871775
 20
837.44741083133363
 11
1425.7763120871775
 21
838.64741083133345
  0
LINE
  8
_0-0_計極細
  6
CONTINUOUS
 62
    2
 10
1437.7763120871775
 20
837.44741083133363
 11
1437.7763120871775
 21
838.64741083133345
  0
LINE
  8
_0-0_計極細
  6
CONTINUOUS
 62
    2
 10
1439.7763120871766
 20
837.44741083133363
 11
1439.7763120871766
 21
838.64741083133345
  0
LINE
  8
_0-0_計極細
  6
CONTINUOUS
 62
    2
 10
1441.7763120871766
 20
837.44741083133363
 11
1441.7763120871766
 21
838.64741083133345
  0
LINE
  8
_0-0_計極細
  6
CONTINUOUS
 62
    2
 10
1455.7763120871764
 20
837.44741083133363
 11
1455.7763120871764
 21
838.64741083133345
  0
LINE
  8
_0-0_計極細
  6
CONTINUOUS
 62
    2
 10
1435.7763120871775
 20
837.44741083133363
 11
1435.7763120871775
 21
838.64741083133345
  0
ARC
  8
_0-1_計細線
  6
CONTINUOUS
 62
    3
 10
1443.2763929071475
 20
930.09725845688968
 40
2.9999999969999998
 50
0
 51
89.999999999999915
  0
LINE
  8
_0-0_計極細
  6
CONTINUOUS
 62
    2
 10
1446.2763929071186
 20
924.3472584626395
 11
1456.2763929070184
 21
924.3472584626395
  0
LINE
  8
_0-1_計細線
  6
CONTINUOUS
 62
    3
 10
1446.2763929071186
 20
927.34725845963976
 11
1456.2763929070184
 21
927.34725845963976
  0
LINE
  8
_0-0_計極細
  6
CONTINUOUS
 62
    2
 10
1479.7794555738517
 20
901.34725848563971
 11
1479.7794555738517
 21
924.69725846228926
  0
LINE
  8
_0-1_計細線
  6
CONTINUOUS
 62
    3
 10
1480.7763929071759
 20
901.34725848563971
 11
1480.7763929071759
 21
923.69725846328913
  0
LINE
  8
_0-0_計極細
  6
CONTINUOUS
 62
    2
 10
1456.2763929070184
 20
923.69725846328913
 11
1480.7763929071759
 21
923.69725846328913
  0
LINE
  8
_0-1_計細線
  6
CONTINUOUS
 62
    3
 10
1456.2763929070184
 20
924.69725846228926
 11
1479.7794555738517
 21
924.69725846228926
  0
LINE
  8
_0-1_計細線
  6
CONTINUOUS
 62
    3
 10
1456.2763929070184
 20
901.34725848563971
 11
1456.2763929070184
 21
927.34725845963976
  0
LINE
  8
_0-1_計細線
  6
CONTINUOUS
 62
    3
 10
1446.2763929071186
 20
901.34725848563971
 11
1446.2763929071186
 21
930.09725845688968
  0
LINE
  8
_0-1_計細線
  6
CONTINUOUS
 62
    3
 10
1441.4763929071758
 20
869.59725851738961
 11
1443.2763929071475
 21
869.59725851738961
  0
ARC
  8
_0-1_計細線
  6
CONTINUOUS
 62
    3
 10
1443.2763929071475
 20
872.59725851438964
 40
2.9999999969999998
 50
269.99999999999977
 51
359.99999999999966
  0
LINE
  8
_0-0_計極細
  6
CONTINUOUS
 62
    2
 10
1446.2763929071186
 20
878.34725850863992
 11
1456.2763929070184
 21
878.34725850863992
  0
LINE
  8
_0-1_計細線
  6
CONTINUOUS
 62
    3
 10
1446.2763929071186
 20
875.34725851163955
 11
1456.2763929070184
 21
875.34725851163955
  0
LINE
  8
_0-0_計極細
  6
CONTINUOUS
 62
    2
 10
1479.7794555738517
 20
901.34725848563971
 11
1479.7794555738517
 21
877.99725850899017
  0
LINE
  8
_0-1_計細線
  6
CONTINUOUS
 62
    3
 10
1480.7763929071759
 20
901.34725848563971
 11
1480.7763929071759
 21
878.99725850799018
  0
LINE
  8
_0-0_計極細
  6
CONTINUOUS
 62
    2
 10
1456.2763929070184
 20
878.99725850799018
 11
1480.7763929071759
 21
878.99725850799018
  0
LINE
  8
_0-1_計細線
  6
CONTINUOUS
 62
    3
 10
1456.2763929070184
 20
877.99725850899017
 11
1479.7794555738517
 21
877.99725850899017
  0
LINE
  8
_0-1_計細線
  6
CONTINUOUS
 62
    3
 10
1456.2763929070184
 20
901.34725848563971
 11
1456.2763929070184
 21
875.34725851163955
  0
LINE
  8
_0-1_計細線
  6
CONTINUOUS
 62
    3
 10
1446.2763929071186
 20
901.34725848563971
 11
1446.2763929071186
 21
872.59725851438964
  0
LINE
  8
_0-0_計極細
  6
CONTINUOUS
 62
    2
 10
1446.2763929071186
 20
904.3472584826394
 11
1456.2763929070184
 21
904.3472584826394
  0
LINE
  8
_0-0_計極細
  6
CONTINUOUS
 62
    2
 10
1446.2763929071186
 20
898.34725848863934
 11
1456.2763929070184
 21
898.34725848863934
  0
LINE
  8
_0-1_計細線
  6
CONTINUOUS
 62
    3
 10
1479.7794555738517
 20
924.69725846228926
 11
1480.7763929071759
 21
923.69725846328913
  0
LINE
  8
_0-1_計細線
  6
CONTINUOUS
 62
    3
 10
1479.7794555738517
 20
877.99725850899017
 11
1480.7763929071759
 21
878.99725850799018
  0
LINE
  8
_0-0_計極細
  6
CENTER1
 62
    2
 10
1389.1294964028789
 20
901.34725848563971
 11
1500.9496402877708
 21
901.34725848563971
  0
LINE
  8
_0-5_寸法線
  6
CONTINUOUS
 62
    7
 10
1415.7763929071757
 20
985.34706855864647
 11
1415.776392907175
 21
1069.3472584856395
  0
LINE
  8
_0-5_寸法線
  6
CONTINUOUS
 62
    7
 10
1415.776392907175
 20
1063.3472584856395
 11
1427.3675028226439
 21
1066.4530870268698
  0
LINE
  8
_0-5_寸法線
  6
CONTINUOUS
 62
    7
 10
1415.776392907175
 20
1063.3472584856395
 11
1427.3675028226439
 21
1060.2414299444092
  0
LINE
  8
_0-5_寸法線
  6
CONTINUOUS
 62
    7
 10
1458.7763120871764
 20
977.2471061399458
 11
1458.7763120871757
 21
1069.3472584856395
  0
LINE
  8
_0-5_寸法線
  6
CONTINUOUS
 62
    7
 10
1458.7763120871757
 20
1063.3472584856395
 11
1447.1852021717068
 21
1060.2414299444092
  0
LINE
  8
_0-5_寸法線
  6
CONTINUOUS
 62
    7
 10
1458.7763120871757
 20
1063.3472584856395
 11
1447.1852021717068
 21
1066.4530870268698
  0
LINE
  8
_0-5_寸法線
  6
CONTINUOUS
 62
    7
 10
1415.776392907175
 20
1063.3472584856395
 11
1458.7763120871757
 21
1063.3472584856395
  0
TEXT
  8
_0-5_寸法線
 62
    7
 10
1428.2763524971758
 20
1063.3472584856395
 40
18
 41
1
 50
0
  1
43
  0
LINE
  8
_0-5_寸法線
  6
CONTINUOUS
 62
    7
 10
1415.7763929071759
 20
985.34706855864647
 11
1415.7763929071759
 21
1027.3472584856397
  0
LINE
  8
_0-5_寸法線
  6
CONTINUOUS
 62
    7
 10
1415.7763929071759
 20
1021.3472584856397
 11
1404.185282991707
 21
1018.2414299444094
  0
LINE
  8
_0-5_寸法線
  6
CONTINUOUS
 62
    7
 10
1415.7763929071759
 20
1021.3472584856397
 11
1404.185282991707
 21
1024.45308702687
  0
LINE
  8
_0-5_寸法線
  6
CONTINUOUS
 62
    7
 10
1435.7763120871775
 20
977.2471061399458
 11
1435.7763120871775
 21
1027.3472584856397
  0
LINE
  8
_0-5_寸法線
  6
CONTINUOUS
 62
    7
 10
1390.5248123317026
 20
1021.3472584856397
 11
1435.7763120871775
 21
1021.3472584856397
  0
TEXT
  8
_0-5_寸法線
 62
    7
 10
1390.5248123317024
 20
1021.3472584856397
 40
18
 41
1
 50
0
  1
20
  0
LINE
  8
_0-5_寸法線
  6
CONTINUOUS
 62
    7
 10
1435.7763120871775
 20
1021.3472584856397
 11
1447.3674220026464
 21
1024.45308702687
  0
LINE
  8
_0-5_寸法線
  6
CONTINUOUS
 62
    7
 10
1435.7763120871775
 20
1021.3472584856397
 11
1447.3674220026464
 21
1018.2414299444094
  0
LINE
  8
_0-5_寸法線
  6
CONTINUOUS
 62
    7
 10
1458.7763120871764
 20
977.2471061399458
 11
1458.7763120871764
 21
1027.3472584856397
  0
LINE
  8
_0-5_寸法線
  6
CONTINUOUS
 62
    7
 10
1458.7763120871764
 20
1021.3472584856397
 11
1447.1852021717077
 21
1018.2414299444094
  0
LINE
  8
_0-5_寸法線
  6
CONTINUOUS
 62
    7
 10
1458.7763120871764
 20
1021.3472584856397
 11
1447.1852021717077
 21
1024.45308702687
  0
LINE
  8
_0-5_寸法線
  6
CONTINUOUS
 62
    7
 10
1435.7763120871775
 20
1021.3472584856397
 11
1458.7763120871764
 21
1021.3472584856397
  0
TEXT
  8
_0-5_寸法線
 62
    7
 10
1438.2763120871773
 20
1021.3472584856394
 40
18
 41
1
 50
0
  1
23
  0
LINE
  8
_0-5_寸法線
  6
CONTINUOUS
 62
    7
 10
1238.3130412119469
 20
829.34725848563971
 11
1334.3130412119469
 21
829.34725848563937
  0
LINE
  8
_0-5_寸法線
  6
CONTINUOUS
 62
    7
 10
1328.3130412119469
 20
829.34725848563937
 11
1325.2072126707167
 21
840.93836840110816
  0
LINE
  8
_0-5_寸法線
  6
CONTINUOUS
 62
    7
 10
1328.3130412119469
 20
829.34725848563937
 11
1331.4188697531772
 21
840.93836840110816
  0
LINE
  8
_0-5_寸法線
  6
CONTINUOUS
 62
    7
 10
1238.3130412119469
 20
973.34725848563971
 11
1334.3130412119469
 21
973.34725848563937
  0
LINE
  8
_0-5_寸法線
  6
CONTINUOUS
 62
    7
 10
1328.3130412119469
 20
973.34725848563937
 11
1331.4188697531772
 21
961.75614857017058
  0
LINE
  8
_0-5_寸法線
  6
CONTINUOUS
 62
    7
 10
1328.3130412119469
 20
973.34725848563937
 11
1325.2072126707167
 21
961.75614857017058
  0
LINE
  8
_0-5_寸法線
  6
CONTINUOUS
 62
    7
 10
1328.3130412119469
 20
829.34725848563937
 11
1328.3130412119469
 21
973.34725848563937
  0
TEXT
  8
_0-5_寸法線
 62
    7
 10
1328.3130412119469
 20
887.84725848563937
 40
18
 41
1
 50
90
  1
144
  0
LINE
  8
_0-5_寸法線
  6
CONTINUOUS
 62
    7
 10
1238.3130412119469
 20
829.34725848563971
 11
1292.3130412119469
 21
829.34725848563937
  0
LINE
  8
_0-5_寸法線
  6
CONTINUOUS
 62
    7
 10
1286.3130412119469
 20
829.34725848563937
 11
1283.2072126707167
 21
840.93836840110816
  0
LINE
  8
_0-5_寸法線
  6
CONTINUOUS
 62
    7
 10
1286.3130412119469
 20
829.34725848563937
 11
1289.4188697531772
 21
840.93836840110816
  0
LINE
  8
_0-5_寸法線
  6
CONTINUOUS
 62
    7
 10
1238.3130412119469
 20
901.34725848563994
 11
1292.3130412119469
 21
901.34725848563971
  0
LINE
  8
_0-5_寸法線
  6
CONTINUOUS
 62
    7
 10
1286.3130412119469
 20
901.34725848563971
 11
1289.4188697531772
 21
889.75614857017092
  0
LINE
  8
_0-5_寸法線
  6
CONTINUOUS
 62
    7
 10
1286.3130412119469
 20
901.34725848563971
 11
1283.2072126707167
 21
889.75614857017092
  0
LINE
  8
_0-5_寸法線
  6
CONTINUOUS
 62
    7
 10
1286.3130412119469
 20
829.34725848563937
 11
1286.3130412119469
 21
901.34725848563971
  0
TEXT
  8
_0-5_寸法線
 62
    7
 10
1286.3130412119469
 20
856.34725848564005
 40
18
 41
1
 50
90
  1
72
  0
LINE
  8
_0-5_寸法線
  6
CONTINUOUS
 62
    7
 10
1286.3130412119469
 20
901.34725848563971
 11
1283.2072126707167
 21
912.93836840110851
  0
LINE
  8
_0-5_寸法線
  6
CONTINUOUS
 62
    7
 10
1286.3130412119469
 20
901.34725848563971
 11
1289.4188697531772
 21
912.93836840110851
  0
LINE
  8
_0-5_寸法線
  6
CONTINUOUS
 62
    7
 10
1238.3130412119469
 20
973.34725848563971
 11
1292.3130412119469
 21
973.34725848563937
  0
LINE
  8
_0-5_寸法線
  6
CONTINUOUS
 62
    7
 10
1286.3130412119469
 20
973.34725848563937
 11
1289.4188697531772
 21
961.75614857017058
  0
LINE
  8
_0-5_寸法線
  6
CONTINUOUS
 62
    7
 10
1286.3130412119469
 20
973.34725848563937
 11
1283.2072126707167
 21
961.75614857017058
  0
LINE
  8
_0-5_寸法線
  6
CONTINUOUS
 62
    7
 10
1286.3130412119469
 20
901.34725848563971
 11
1286.3130412119469
 21
973.34725848563937
  0
TEXT
  8
_0-5_寸法線
 62
    7
 10
1286.3130412119469
 20
928.34725848564005
 40
18
 41
1
 50
90
  1
72
  0
LINE
  8
_0-5_寸法線
  6
CONTINUOUS
 62
    7
 10
1415.7763929071759
 20
817.34706855864647
 11
1415.7763929071759
 21
775.34725848563971
  0
LINE
  8
_0-5_寸法線
  6
CONTINUOUS
 62
    7
 10
1415.7763929071759
 20
781.34725848563971
 11
1427.3675028226448
 21
784.45308702686987
  0
LINE
  8
_0-5_寸法線
  6
CONTINUOUS
 62
    7
 10
1415.7763929071759
 20
781.34725848563971
 11
1427.3675028226448
 21
778.24142994440945
  0
LINE
  8
_0-5_寸法線
  6
CONTINUOUS
 62
    7
 10
1480.7763929071759
 20
866.99419715952581
 11
1480.7763929071759
 21
775.34725848563971
  0
LINE
  8
_0-5_寸法線
  6
CONTINUOUS
 62
    7
 10
1480.7763929071759
 20
781.34725848563971
 11
1469.185282991707
 21
778.24142994440945
  0
LINE
  8
_0-5_寸法線
  6
CONTINUOUS
 62
    7
 10
1480.7763929071759
 20
781.34725848563971
 11
1469.185282991707
 21
784.45308702686987
  0
LINE
  8
_0-5_寸法線
  6
CONTINUOUS
 62
    7
 10
1415.7763929071759
 20
781.34725848563971
 11
1480.7763929071759
 21
781.34725848563971
  0
TEXT
  8
_0-5_寸法線
 62
    7
 10
1439.2763929071766
 20
781.34725848563971
 40
18
 41
1
 50
0
  1
65
  0
LINE
  8
_0-0_計極細
  6
CENTER1
 62
    2
 10
322.14158195412142
 20
901.34725848563971
 11
1235.1703025807544
 21
901.34725848563971
  0
LINE
  8
_0-1_計細線
  6
CONTINUOUS
 62
    3
 10
341.31304121194688
 20
962.34725848563971
 11
341.31304121194688
 21
840.3472584856396
  0
LINE
  8
_0-1_計細線
  6
CONTINUOUS
 62
    3
 10
341.31304121194688
 20
840.3472584856396
 11
1215.3130412119474
 21
840.3472584856396
  0
LINE
  8
_0-1_計細線
  6
CONTINUOUS
 62
    3
 10
1215.3130412119474
 20
840.3472584856396
 11
1215.3130412119474
 21
962.34725848563971
  0
LINE
  8
_0-1_計細線
  6
CONTINUOUS
 62
    3
 10
1215.3130412119474
 20
962.34725848563971
 11
341.31304121194688
 21
962.34725848563971
  0
LINE
  8
_0-1_計細線
  6
CONTINUOUS
 62
    3
 10
1226.3130412119469
 20
829.34725848563971
 11
1226.3130412119469
 21
973.34725848563971
  0
LINE
  8
_0-1_計細線
  6
CONTINUOUS
 62
    3
 10
1226.3130412119469
 20
973.34725848563971
 11
330.31304121194694
 21
973.34725848563971
  0
LINE
  8
_0-1_計細線
  6
CONTINUOUS
 62
    3
 10
330.31304121194694
 20
973.34725848563971
 11
330.31304121194694
 21
829.34725848563971
  0
LINE
  8
_0-1_計細線
  6
CONTINUOUS
 62
    3
 10
330.31304121194694
 20
829.34725848563971
 11
1226.3130412119469
 21
829.34725848563971
  0
LINE
  8
_0-5_寸法線
  6
CONTINUOUS
 62
    7
 10
342.81304121194688
 20
985.34725848563971
 11
342.81304121194688
 21
1027.3472584856397
  0
LINE
  8
_0-5_寸法線
  6
CONTINUOUS
 62
    7
 10
342.81304121194688
 20
1021.3472584856397
 11
354.40415112741567
 21
1024.45308702687
  0
LINE
  8
_0-5_寸法線
  6
CONTINUOUS
 62
    7
 10
342.81304121194688
 20
1021.3472584856397
 11
354.40415112741567
 21
1018.2414299444094
  0
LINE
  8
_0-5_寸法線
  6
CONTINUOUS
 62
    7
 10
1213.8130412119481
 20
985.34725848563971
 11
1213.8130412119481
 21
1027.3472584856397
  0
LINE
  8
_0-5_寸法線
  6
CONTINUOUS
 62
    7
 10
1213.8130412119481
 20
1021.3472584856397
 11
1202.2219312964794
 21
1018.2414299444096
  0
LINE
  8
_0-5_寸法線
  6
CONTINUOUS
 62
    7
 10
1213.8130412119481
 20
1021.3472584856397
 11
1202.2219312964794
 21
1024.45308702687
  0
LINE
  8
_0-5_寸法線
  6
CONTINUOUS
 62
    7
 10
342.81304121194688
 20
1021.3472584856397
 11
1213.8130412119481
 21
1021.3472584856397
  0
TEXT
  8
_0-5_寸法線
 62
    7
 10
764.81304121194762
 20
1021.3472584856397
 40
18
 41
1
 50
0
  1
871
  0
LINE
  8
_0-0_計極細
  6
CONTINUOUS
 62
    2
 10
389.81303933189656
 20
883.09726034568814
 11
389.81303933189656
 21
888.59726012568274
  0
LINE
  8
_0-0_計極細
  6
CONTINUOUS
 62
    2
 10
389.81303933189656
 20
904.09725950566701
 11
389.81303933189656
 21
898.59725972567242
  0
LINE
  8
_0-0_計極細
  6
CONTINUOUS
 62
    2
 10
378.86304193723385
 20
904.09725848564062
 11
378.86304193723385
 21
902.49725956967734
  0
LINE
  8
_0-0_計極細
  6
CONTINUOUS
 62
    2
 10
378.86304193723385
 20
901.49725960967749
 11
378.86304193723385
 21
898.59725848564051
  0
LINE
  8
_0-0_計極細
  6
CONTINUOUS
 62
    2
 10
385.76304193735632
 20
904.09725848564062
 11
385.76304193735632
 21
902.49725956967734
  0
LINE
  8
_0-0_計極細
  6
CONTINUOUS
 62
    2
 10
385.76304193735632
 20
901.49725960967749
 11
385.76304193735632
 21
898.59725848564051
  0
LINE
  8
_0-0_計極細
  6
CONTINUOUS
 62
    2
 10
378.86304193723385
 20
883.09725848564096
 11
378.86304193723385
 21
884.69726028167781
  0
LINE
  8
_0-0_計極細
  6
CONTINUOUS
 62
    2
 10
378.86304193723385
 20
885.6972602416779
 11
378.86304193723385
 21
888.59725848564062
  0
LINE
  8
_0-0_計極細
  6
CONTINUOUS
 62
    2
 10
385.76304193735632
 20
883.09725848564096
 11
385.76304193735632
 21
884.69726028167781
  0
LINE
  8
_0-0_計極細
  6
CONTINUOUS
 62
    2
 10
385.76304193735632
 20
885.6972602416779
 11
385.76304193735632
 21
888.59725848564062
  0
LINE
  8
_0-0_計極細
  6
CONTINUOUS
 62
    2
 10
346.31304109190432
 20
883.69726032167796
 11
355.3130407319054
 21
883.69726032167796
  0
LINE
  8
_0-0_計極細
  6
CONTINUOUS
 62
    2
 10
346.31304109190432
 20
883.69726032167796
 11
346.31304109190432
 21
884.69726028167781
  0
LINE
  8
_0-0_計極細
  6
CONTINUOUS
 62
    2
 10
355.3130407319054
 20
883.69726032167796
 11
355.3130407319054
 21
884.69726028167781
  0
LINE
  8
_0-0_計極細
  6
CONTINUOUS
 62
    2
 10
346.31304109190432
 20
903.49725952967788
 11
355.3130407319054
 21
903.49725952967788
  0
LINE
  8
_0-0_計極細
  6
CONTINUOUS
 62
    2
 10
346.31304109190432
 20
903.49725952967788
 11
346.31304109190432
 21
902.49725956967734
  0
LINE
  8
_0-0_計極細
  6
CONTINUOUS
 62
    2
 10
355.3130407319054
 20
903.49725952967788
 11
355.3130407319054
 21
902.49725956967734
  0
LINE
  8
_0-1_計細線
  6
CONTINUOUS
 62
    3
 10
387.31303945190484
 20
901.49725960967749
 11
387.31303945190484
 21
902.49725956967734
  0
LINE
  8
_0-1_計細線
  6
CONTINUOUS
 62
    3
 10
374.51303996390561
 20
901.49725960967749
 11
387.31303945190484
 21
901.49725960967749
  0
LINE
  8
_0-1_計細線
  6
CONTINUOUS
 62
    3
 10
387.31303945190484
 20
902.49725956967734
 11
345.31304113190481
 21
902.49725956967734
  0
LINE
  8
_0-1_計細線
  6
CONTINUOUS
 62
    3
 10
345.31304113190481
 20
884.69726028167781
 11
387.31303945190484
 21
884.69726028167781
  0
LINE
  8
_0-1_計細線
  6
CONTINUOUS
 62
    3
 10
387.31303945190484
 20
885.6972602416779
 11
374.51303996390561
 21
885.6972602416779
  0
LINE
  8
_0-1_計細線
  6
CONTINUOUS
 62
    3
 10
387.31303945190484
 20
884.69726028167781
 11
387.31303945190484
 21
885.6972602416779
  0
LINE
  8
_0-1_計細線
  6
CONTINUOUS
 62
    3
 10
374.51303996390561
 20
884.69726028167781
 11
374.51303996390561
 21
902.49725956967734
  0
LINE
  8
_0-1_計細線
  6
CONTINUOUS
 62
    3
 10
345.31304113190481
 20
902.49725956967734
 11
345.31304113190481
 21
884.69726028167781
  0
TEXT
  8
_0-5_寸法線
 62
    7
 10
288.25872185928893
 20
871.07236746914191
 40
18
 41
1
 50
0
  1
Ｂ部
  0
CIRCLE
  8
_0-5_寸法線
  6
CONTINUOUS
 62
    7
 10
361.81910099753713
 20
893.59725992567758
 40
32.624478443415455
  0
LINE
  8
_0-0_計極細
  6
CONTINUOUS
 62
    2
 10
349.81304093190511
 20
904.09725950566701
 11
349.81304093190511
 21
903.49725952967788
  0
LINE
  8
_0-0_計極細
  6
CONTINUOUS
 62
    2
 10
349.81304093190511
 20
883.69726032167796
 11
349.81304093190511
 21
883.09726034568814
  0
LINE
  8
_0-0_計極細
  6
CONTINUOUS
 62
    2
 10
389.81303933189656
 20
919.59725888565094
 11
389.81303933189656
 21
914.09725910565669
  0
LINE
  8
_0-0_計極細
  6
CONTINUOUS
 62
    2
 10
349.81304093190511
 20
919.59725888565094
 11
349.81304093190511
 21
914.09725910565669
  0
LINE
  8
_0-0_計極細
  6
CONTINUOUS
 62
    2
 10
385.76303961680424
 20
919.59725848564017
 11
385.7630419279821
 21
914.09725848564062
  0
LINE
  8
_0-0_計極細
  6
CONTINUOUS
 62
    2
 10
378.86303964700755
 20
919.59725848564017
 11
378.86304192798252
 21
914.09725848564062
  0
LINE
  8
_0-0_計極細
  6
CONTINUOUS
 62
    2
 10
389.81303933189656
 20
935.09725888565083
 11
389.81303933189656
 21
929.5972591056568
  0
LINE
  8
_0-0_計極細
  6
CONTINUOUS
 62
    2
 10
349.81304093190511
 20
935.09725888565083
 11
349.81304093190511
 21
929.5972591056568
  0
LINE
  8
_0-0_計極細
  6
CONTINUOUS
 62
    2
 10
385.76303961680424
 20
935.09725848564005
 11
385.7630419279821
 21
929.59725848564062
  0
LINE
  8
_0-0_計極細
  6
CONTINUOUS
 62
    2
 10
378.86303964700755
 20
935.09725848564005
 11
378.86304192798252
 21
929.59725848564062
  0
LINE
  8
_0-0_計極細
  6
CONTINUOUS
 62
    2
 10
389.81303933189656
 20
950.59725888565038
 11
389.81303933189656
 21
945.09725910565635
  0
LINE
  8
_0-0_計極細
  6
CONTINUOUS
 62
    2
 10
349.81304093190511
 20
950.59725888565038
 11
349.81304093190511
 21
945.09725910565635
  0
LINE
  8
_0-0_計極細
  6
CONTINUOUS
 62
    2
 10
385.76303961680424
 20
950.5972584856396
 11
385.7630419279821
 21
945.09725848564017
  0
LINE
  8
_0-0_計極細
  6
CONTINUOUS
 62
    2
 10
378.86303964700755
 20
950.5972584856396
 11
378.86304192798252
 21
945.09725848564017
  0
LINE
  8
_0-0_計極細
  6
CONTINUOUS
 62
    2
 10
389.81303933189656
 20
873.09725888565231
 11
389.81303933189656
 21
867.59725910565805
  0
LINE
  8
_0-0_計極細
  6
CONTINUOUS
 62
    2
 10
349.81304093190511
 20
873.09725888565231
 11
349.81304093190511
 21
867.59725910565805
  0
LINE
  8
_0-0_計極細
  6
CONTINUOUS
 62
    2
 10
385.76303961680424
 20
873.09725848564153
 11
385.7630419279821
 21
867.59725848564199
  0
LINE
  8
_0-0_計極細
  6
CONTINUOUS
 62
    2
 10
378.86303964700755
 20
873.09725848564153
 11
378.86304192798252
 21
867.59725848564199
  0
LINE
  8
_0-0_計極細
  6
CONTINUOUS
 62
    2
 10
389.81303933189656
 20
857.59725888565276
 11
389.81303933189656
 21
852.09725910565851
  0
LINE
  8
_0-0_計極細
  6
CONTINUOUS
 62
    2
 10
349.81304093190511
 20
857.59725888565276
 11
349.81304093190511
 21
852.09725910565851
  0
LINE
  8
_0-0_計極細
  6
CONTINUOUS
 62
    2
 10
385.76303961680424
 20
857.59725848564199
 11
385.7630419279821
 21
852.09725848564244
  0
LINE
  8
_0-0_計極細
  6
CONTINUOUS
 62
    2
 10
378.86303964700755
 20
857.59725848564199
 11
378.86304192798252
 21
852.09725848564244
  0
LINE
  8
_0-1_計細線
  6
CONTINUOUS
 62
    3
 10
376.81303985190561
 20
898.59725848564108
 11
376.81303985190561
 21
888.59725848564108
  0
LINE
  8
_0-0_計極細
  6
CONTINUOUS
 62
    2
 10
649.76303732072745
 20
950.5972584856396
 11
649.76303963190571
 21
945.09725848564017
  0
LINE
  8
_0-0_計極細
  6
CONTINUOUS
 62
    2
 10
642.86303735093088
 20
950.5972584856396
 11
642.86303963190574
 21
945.09725848564017
  0
LINE
  8
_0-0_計極細
  6
CONTINUOUS
 62
    2
 10
653.81303933189804
 20
950.59725744561342
 11
653.81303933189804
 21
945.09725766561917
  0
LINE
  8
_0-0_計極細
  6
CONTINUOUS
 62
    2
 10
638.81303993191352
 20
950.59725744561342
 11
638.81303993191352
 21
945.09725766561917
  0
LINE
  8
_0-0_計極細
  6
CENTER1
 62
    2
 10
646.31303963190578
 20
996.69028112338606
 11
646.31303963190578
 21
788.96726011990745
  0
LINE
  8
_0-5_寸法線
  6
CONTINUOUS
 62
    7
 10
646.30918603691771
 20
982.37119376200121
 11
657.90029595238661
 21
985.47702230323148
  0
LINE
  8
_0-5_寸法線
  6
CONTINUOUS
 62
    7
 10
646.30918603691771
 20
982.37119376200121
 11
657.90029595238661
 21
979.26536522077083
  0
LINE
  8
_0-5_寸法線
  6
CONTINUOUS
 62
    7
 10
646.30918603691771
 20
982.37119376200121
 11
700.06455210147772
 21
982.37119376200121
  0
LINE
  8
_0-5_寸法線
  6
CONTINUOUS
 62
    7
 10
700.06455210147772
 20
982.37119376200121
 11
700.06455210147772
 21
981.98761206028553
  0
LINE
  8
_0-5_寸法線
  6
CONTINUOUS
 62
    7
 10
646.30918603691771
 20
799.14806089447256
 11
657.90029595238661
 21
802.25388943570272
  0
LINE
  8
_0-5_寸法線
  6
CONTINUOUS
 62
    7
 10
646.30918603691771
 20
799.14806089447256
 11
657.90029595238661
 21
796.0422323532423
  0
LINE
  8
_0-5_寸法線
  6
CONTINUOUS
 62
    7
 10
646.30918603691771
 20
799.14806089447256
 11
700.06455210147772
 21
799.14806089447256
  0
LINE
  8
_0-5_寸法線
  6
CONTINUOUS
 62
    7
 10
700.06455210147772
 20
799.14806089447256
 11
700.06455210147772
 21
798.76447919275677
  0
LINE
  8
_0-0_計極細
  6
CONTINUOUS
 62
    2
 10
649.76303732072745
 20
935.09725848564005
 11
649.76303963190571
 21
929.59725848564062
  0
LINE
  8
_0-0_計極細
  6
CONTINUOUS
 62
    2
 10
642.86303735093088
 20
935.09725848564005
 11
642.86303963190574
 21
929.59725848564062
  0
LINE
  8
_0-0_計極細
  6
CONTINUOUS
 62
    2
 10
653.81303933189804
 20
935.09725744561342
 11
653.81303933189804
 21
929.59725766561962
  0
LINE
  8
_0-0_計極細
  6
CONTINUOUS
 62
    2
 10
638.81303993191352
 20
935.09725744561342
 11
638.81303993191352
 21
929.59725766561962
  0
LINE
  8
_0-0_計極細
  6
CONTINUOUS
 62
    2
 10
649.76303732072745
 20
919.59725848564017
 11
649.76303963190571
 21
914.09725848564062
  0
LINE
  8
_0-0_計極細
  6
CONTINUOUS
 62
    2
 10
642.86303735093088
 20
919.59725848564017
 11
642.86303963190574
 21
914.09725848564062
  0
LINE
  8
_0-0_計極細
  6
CONTINUOUS
 62
    2
 10
653.81303933189804
 20
919.59725744561331
 11
653.81303933189804
 21
914.09725766561974
  0
LINE
  8
_0-0_計極細
  6
CONTINUOUS
 62
    2
 10
638.81303993191352
 20
919.59725744561331
 11
638.81303993191352
 21
914.09725766561974
  0
LINE
  8
_0-0_計極細
  6
CONTINUOUS
 62
    2
 10
649.76303732072745
 20
904.09725848564062
 11
649.76303963190571
 21
898.59725848564108
  0
LINE
  8
_0-0_計極細
  6
CONTINUOUS
 62
    2
 10
642.86303735093088
 20
904.09725848564062
 11
642.86303963190574
 21
898.59725848564108
  0
LINE
  8
_0-0_計極細
  6
CONTINUOUS
 62
    2
 10
653.81303933189804
 20
904.09725744561433
 11
653.81303933189804
 21
898.59725766562019
  0
LINE
  8
_0-0_計極細
  6
CONTINUOUS
 62
    2
 10
638.81303993191352
 20
904.09725744561433
 11
638.81303993191352
 21
898.59725766562019
  0
LINE
  8
_0-0_計極細
  6
CONTINUOUS
 62
    2
 10
649.76303732072745
 20
888.59725848564108
 11
649.76303963190571
 21
883.09725848564153
  0
LINE
  8
_0-0_計極細
  6
CONTINUOUS
 62
    2
 10
642.86303735093088
 20
888.59725848564108
 11
642.86303963190574
 21
883.09725848564153
  0
LINE
  8
_0-0_計極細
  6
CONTINUOUS
 62
    2
 10
653.81303933189804
 20
888.59725744561422
 11
653.81303933189804
 21
883.09725766562065
  0
LINE
  8
_0-0_計極細
  6
CONTINUOUS
 62
    2
 10
638.81303993191352
 20
888.59725744561422
 11
638.81303993191352
 21
883.09725766562065
  0
LINE
  8
_0-0_計極細
  6
CONTINUOUS
 62
    2
 10
649.76303732072745
 20
873.09725848564153
 11
649.76303963190571
 21
867.59725848564199
  0
LINE
  8
_0-0_計極細
  6
CONTINUOUS
 62
    2
 10
642.86303735093088
 20
873.09725848564153
 11
642.86303963190574
 21
867.59725848564199
  0
LINE
  8
_0-0_計極細
  6
CONTINUOUS
 62
    2
 10
653.81303933189804
 20
873.09725744561524
 11
653.81303933189804
 21
867.5972576656211
  0
LINE
  8
_0-0_計極細
  6
CONTINUOUS
 62
    2
 10
638.81303993191352
 20
873.09725744561524
 11
638.81303993191352
 21
867.5972576656211
  0
LINE
  8
_0-0_計極細
  6
CONTINUOUS
 62
    2
 10
649.76303732072745
 20
857.59725848564199
 11
649.76303963190571
 21
852.09725848564244
  0
LINE
  8
_0-0_計極細
  6
CONTINUOUS
 62
    2
 10
642.86303735093088
 20
857.59725848564199
 11
642.86303963190574
 21
852.09725848564244
  0
LINE
  8
_0-0_計極細
  6
CONTINUOUS
 62
    2
 10
653.81303933189804
 20
857.59725744561513
 11
653.81303933189804
 21
852.09725766562156
  0
LINE
  8
_0-0_計極細
  6
CONTINUOUS
 62
    2
 10
638.81303993191352
 20
857.59725744561513
 11
638.81303993191352
 21
852.09725766562156
  0
LINE
  8
_0-5_寸法線
  6
CONTINUOUS
 62
    7
 10
618.30632284594026
 20
862.17062417119064
 11
615.20049430470999
 21
850.57951425572185
  0
LINE
  8
_0-5_寸法線
  6
CONTINUOUS
 62
    7
 10
618.30632284594026
 20
862.17062417119064
 11
609.82104147170162
 21
853.685342796952
  0
LINE
  8
_0-5_寸法線
  6
CONTINUOUS
 62
    7
 10
618.30632284594026
 20
862.17062417119064
 11
580.62864084529951
 21
796.91096463465783
  0
LINE
  8
_0-5_寸法線
  6
CONTINUOUS
 62
    7
 10
580.62864084529951
 20
796.91096463465783
 11
537.42864084529947
 21
796.91096463465783
  0
TEXT
  8
_0-5_寸法線
 62
    7
 10
537.42864084529947
 20
796.91096463465783
 40
18
 41
0.7999999999999998
 50
0
  1
上フタ
  0
LINE
  8
_0-5_寸法線
  6
CONTINUOUS
 62
    7
 10
361.71257103662492
 20
887.41392114315488
 11
367.20457584925919
 21
876.74443740972151
  0
LINE
  8
_0-5_寸法線
  6
CONTINUOUS
 62
    7
 10
361.71257103662492
 20
887.41392114315488
 11
361.1340448553558
 21
875.42787477841955
  0
LINE
  8
_0-5_寸法線
  6
CONTINUOUS
 62
    7
 10
361.71257103662492
 20
887.41392114315488
 11
381.34064157626835
 21
796.91096463465783
  0
LINE
  8
_0-5_寸法線
  6
CONTINUOUS
 62
    7
 10
381.34064157626835
 20
796.91096463465783
 11
438.94064157626821
 21
796.91096463465783
  0
TEXT
  8
_0-5_寸法線
 62
    7
 10
381.34064157626835
 20
796.91096463465783
 40
18
 41
0.7999999999999998
 50
0
  1
取外し具
  0
ARC
  8
_0-0_計極細
  6
CONTINUOUS
 62
    2
 10
748.29812547727715
 20
872.34725848572975
 40
54.312365187078846
 50
147.72737804884292
 51
213.8460561937558
  0
ARC
  8
_0-0_計極細
  6
CONTINUOUS
 62
    2
 10
656.45406171222521
 20
930.34725848555354
 40
54.312365187078846
 50
327.72737804884275
 51
33.846056193750599
  0
LINE
  8
_0-1_計細線
  6
CONTINUOUS
 62
    3
 10
701.56249232347045
 20
960.59725848563971
 11
342.81304121194688
 21
960.59725848563971
  0
LINE
  8
_0-1_計細線
  6
CONTINUOUS
 62
    3
 10
342.81304121194688
 20
950.5972584856396
 11
706.85019759793704
 21
950.5972584856396
  0
LINE
  8
_0-1_計細線
  6
CONTINUOUS
 62
    3
 10
708.72518674519233
 20
945.09725848564017
 11
342.81304121194688
 21
945.09725848564017
  0
LINE
  8
_0-1_計細線
  6
CONTINUOUS
 62
    3
 10
342.81304121194688
 20
935.09725848564005
 11
710.55831766509641
 21
935.09725848564005
  0
LINE
  8
_0-1_計細線
  6
CONTINUOUS
 62
    3
 10
710.76124827362537
 20
929.59725848564017
 11
342.81304121194688
 21
929.59725848564017
  0
LINE
  8
_0-1_計細線
  6
CONTINUOUS
 62
    3
 10
342.81304121194688
 20
919.59725848564017
 11
709.69192898934716
 21
919.59725848564017
  0
LINE
  8
_0-1_計細線
  6
CONTINUOUS
 62
    3
 10
708.27848174966903
 20
914.09725848564062
 11
342.81304121194688
 21
914.09725848564062
  0
LINE
  8
_0-1_計細線
  6
CONTINUOUS
 62
    3
 10
342.81304121194688
 20
904.09725848564062
 11
704.00162224080714
 21
904.09725848564062
  0
LINE
  8
_0-1_計細線
  6
CONTINUOUS
 62
    3
 10
700.75056494869341
 20
898.59725848564108
 11
376.81303985190561
 21
898.59725848564108
  0
LINE
  8
_0-1_計細線
  6
CONTINUOUS
 62
    3
 10
376.81303985190561
 20
888.59725848564108
 11
696.47370543983243
 21
888.59725848564108
  0
LINE
  8
_0-1_計細線
  6
CONTINUOUS
 62
    3
 10
695.06025820015452
 20
883.09725848564153
 11
342.81304121194688
 21
883.09725848564153
  0
LINE
  8
_0-1_計細線
  6
CONTINUOUS
 62
    3
 10
342.81304121194688
 20
873.09725848564153
 11
693.99093891587677
 21
873.09725848564153
  0
LINE
  8
_0-1_計細線
  6
CONTINUOUS
 62
    3
 10
694.19386952440618
 20
867.59725848564199
 11
342.81304121194688
 21
867.59725848564199
  0
LINE
  8
_0-1_計細線
  6
CONTINUOUS
 62
    3
 10
342.81304121194688
 20
857.59725848564199
 11
696.02700044431049
 21
857.59725848564199
  0
LINE
  8
_0-1_計細線
  6
CONTINUOUS
 62
    3
 10
697.90198959156623
 20
852.09725848564244
 11
342.81304121194688
 21
852.09725848564244
  0
LINE
  8
_0-1_計細線
  6
CONTINUOUS
 62
    3
 10
342.81304121194688
 20
842.09725848564244
 11
703.18969486603464
 21
842.09725848564244
  0
LINE
  8
_0-5_寸法線
  6
CONTINUOUS
 62
    7
 10
330.313041211947
 20
985.34725848563971
 11
330.31304121194717
 21
1069.3472584856395
  0
LINE
  8
_0-5_寸法線
  6
CONTINUOUS
 62
    7
 10
330.31304121194717
 20
1063.3472584856395
 11
341.90415112741596
 21
1066.4530870268698
  0
LINE
  8
_0-5_寸法線
  6
CONTINUOUS
 62
    7
 10
330.31304121194717
 20
1063.3472584856395
 11
341.90415112741596
 21
1060.2414299444092
  0
LINE
  8
_0-5_寸法線
  6
CONTINUOUS
 62
    7
 10
1226.3130412119469
 20
985.34725848563971
 11
1226.3130412119472
 21
1069.3472584856395
  0
LINE
  8
_0-5_寸法線
  6
CONTINUOUS
 62
    7
 10
1226.3130412119472
 20
1063.3472584856395
 11
1214.7219312964783
 21
1060.2414299444092
  0
LINE
  8
_0-5_寸法線
  6
CONTINUOUS
 62
    7
 10
1226.3130412119472
 20
1063.3472584856395
 11
1214.7219312964783
 21
1066.4530870268698
  0
LINE
  8
_0-5_寸法線
  6
CONTINUOUS
 62
    7
 10
330.31304121194717
 20
1063.3472584856395
 11
1226.3130412119472
 21
1063.3472584856395
  0
TEXT
  8
_0-5_寸法線
 62
    7
 10
764.81304121194739
 20
1063.3472584856395
 40
18
 41
1
 50
0
  1
896
  0
LINE
  8
_0-5_寸法線
  6
CONTINUOUS
 62
    7
 10
330.31304121194694
 20
817.34725848563971
 11
330.31304121194682
 21
763.34725848563971
  0
LINE
  8
_0-5_寸法線
  6
CONTINUOUS
 62
    7
 10
330.31304121194682
 20
769.34725848563971
 11
341.90415112741562
 21
772.45308702686987
  0
LINE
  8
_0-5_寸法線
  6
CONTINUOUS
 62
    7
 10
330.31304121194682
 20
769.34725848563971
 11
341.90415112741562
 21
766.24142994440945
  0
LINE
  8
_0-5_寸法線
  6
CONTINUOUS
 62
    7
 10
778.31304121194694
 20
817.34725848563971
 11
778.31304121194671
 21
763.34725848563971
  0
LINE
  8
_0-5_寸法線
  6
CONTINUOUS
 62
    7
 10
778.31304121194671
 20
769.34725848563971
 11
766.72193129647803
 21
766.24142994440956
  0
LINE
  8
_0-5_寸法線
  6
CONTINUOUS
 62
    7
 10
778.31304121194671
 20
769.34725848563971
 11
766.72193129647803
 21
772.45308702686987
  0
LINE
  8
_0-5_寸法線
  6
CONTINUOUS
 62
    7
 10
330.31304121194682
 20
769.34725848563971
 11
778.31304121194671
 21
769.34725848563971
  0
TEXT
  8
_0-5_寸法線
 62
    7
 10
540.81304121194694
 20
769.34725848563971
 40
18
 41
1
 50
0
  1
448
  0
LINE
  8
_0-5_寸法線
  6
CONTINUOUS
 62
    7
 10
778.31304121194671
 20
769.34725848563971
 11
789.90415112741562
 21
772.45308702686987
  0
LINE
  8
_0-5_寸法線
  6
CONTINUOUS
 62
    7
 10
778.31304121194671
 20
769.34725848563971
 11
789.90415112741562
 21
766.24142994440945
  0
LINE
  8
_0-5_寸法線
  6
CONTINUOUS
 62
    7
 10
1226.3130412119469
 20
817.34725848563971
 11
1226.3130412119467
 21
763.34725848563971
  0
LINE
  8
_0-5_寸法線
  6
CONTINUOUS
 62
    7
 10
1226.3130412119467
 20
769.34725848563971
 11
1214.7219312964778
 21
766.24142994440956
  0
LINE
  8
_0-5_寸法線
  6
CONTINUOUS
 62
    7
 10
1226.3130412119467
 20
769.34725848563971
 11
1214.7219312964778
 21
772.45308702686987
  0
LINE
  8
_0-5_寸法線
  6
CONTINUOUS
 62
    7
 10
778.31304121194671
 20
769.34725848563971
 11
1226.3130412119467
 21
769.34725848563971
  0
TEXT
  8
_0-5_寸法線
 62
    7
 10
988.81304121194671
 20
769.34725848563971
 40
18
 41
1
 50
0
  1
448
  0
TEXT
  8
_0-5_寸法線
 62
    7
 10
675.63076196445536
 20
981.56081235110082
 40
24
 41
1
 50
0
  1
Ａ’
  0
TEXT
  8
_0-5_寸法線
 62
    7
 10
671.34864869365583
 20
797.5316424604938
 40
24
 41
1
 50
0
  1
Ａ
  0
LINE
  8
_0-0_計極細
  6
CENTER1
 62
    2
 10
778.31304121194694
 20
982.09138381201001
 11
778.31304121194694
 21
579.73890339425611
  0
ENDSEC
  0
EOF
