  0
SECTION
  2
HEADER
  9
$ACADVER
  1
AC1009
  9
$INSBASE
 10
0
 20
0
 30
0
  9
$EXTMIN
 10
0
 20
0
  9
$EXTMAX
 10
1485
 20
1050
  9
$LIMMIN
 10
0
 20
0
  9
$LIMMAX
 10
1485
 20
1050
  9
$LTSCALE
 40
5
  0
ENDSEC
  0
SECTION
  2
TABLES
  0
TABLE
  2
LTYPE
 70
     9
  0
LTYPE
  2
CONTINUOUS
 70
    64
  3
実線
 72
    65
 73
     0
 40
0.0
  0
LTYPE
  2
DASHED1
 70
    64
  3
--  --  --  --  --  --  --  --  
 72
    65
 73
     2
 40
2.5
 49
1.25
 49
-1.25
  0
LTYPE
  2
DASHED2
 70
    64
  3
----    ----    ----    ----    
 72
    65
 73
     2
 40
5.0
 49
2.5
 49
-2.5
  0
LTYPE
  2
DASHED3
 70
    64
  3
------  ------  ------  ------  
 72
    65
 73
     2
 40
5.0
 49
3.75
 49
-1.25
  0
LTYPE
  2
CENTER1
 70
    64
  3
----- - ----- - ----- - ----- - 
 72
    65
 73
     4
 40
10.0
 49
6.25
 49
-1.25
 49
1.25
 49
-1.25
  0
LTYPE
  2
CENTER2
 70
    64
  3
----------  --  ----------  --  
 72
    65
 73
     4
 40
20.0
 49
12.5
 49
-2.5
 49
2.5
 49
-2.5
  0
LTYPE
  2
PHANTOM1
 70
    64
  3
--- - - --- - - --- - - --- - - 
 72
    65
 73
     6
 40
10.0
 49
3.25
 49
-1.25
 49
1.25
 49
-1.25
 49
1.25
 49
-1.25
  0
LTYPE
  2
PHANTOM2
 70
    64
  3
--------  -  -  --------  -  -  
 72
    65
 73
     6
 40
20.0
 49
10.0
 49
-2.5
 49
1.25
 49
-2.5
 49
1.25
 49
-2.5
  0
LTYPE
  2
DOT
 70
    64
  3
-   -   -   -   -   -   -   -   
 72
    65
 73
     2
 40
2.5
 49
0.625
 49
-1.875
  0
LTYPE
  2
DUMMY
 70
    64
  3
ダミー
 72
    65
 73
     0
 40
0.0
  0
LTYPE
  2
RAND1
 70
    64
  3
ランダム線1
 72
    65
 73
     4
 40
10.0
 49
1.0
 49
-2.0
 49
3.0
 49
-4.0
  0
LTYPE
  2
RAND2
 70
    64
  3
ランダム線2
 72
    65
 73
     4
 40
14.0
 49
2.0
 49
-3.0
 49
4.0
 49
-5.0
  0
LTYPE
  2
RAND3
 70
    64
  3
ランダム線3
 72
    65
 73
     4
 40
18.0
 49
3.0
 49
-4.0
 49
5.0
 49
-6.0
  0
LTYPE
  2
RAND4
 70
    64
  3
ランダム線4
 72
    65
 73
     4
 40
22.0
 49
4.0
 49
-5.0
 49
6.0
 49
-7.0
  0
LTYPE
  2
RAND5
 70
    64
  3
ランダム線5
 72
    65
 73
     4
 40
26.0
 49
5.0
 49
-6.0
 49
7.0
 49
-8.0
  0
LTYPE
  2
LONG1
 70
    64
  3
----------  --  ----------  --  
 72
    65
 73
     4
 40
40.0
 49
32.5
 49
-2.5
 49
2.5
 49
-2.5
  0
LTYPE
  2
LONG2
 70
    64
  3
--------  -  -  --------  -  -  
 72
    65
 73
     6
 40
40.0
 49
30.0
 49
-2.5
 49
1.25
 49
-2.5
 49
1.25
 49
-2.5
  0
LTYPE
  2
LONG3
 70
    64
  3
+++++++++++++++..+++++++++++++++
 72
    65
 73
     2
 40
40.0
 49
37.5
 49
-2.5
  0
LTYPE
  2
LONG4
 70
    64
  3
+++++++++++++++..+++++++++++++++
 72
    65
 73
     2
 40
80.0
 49
75.0
 49
-5.0
  0
LTYPE
  2
LONG5
 70
    64
  3
----------  --  ----------  --  
 72
    65
 73
     4
 40
60.0
 49
37.5
 49
-7.5
 49
7.5
 49
-7.5
  0
LTYPE
  2
dashed
 70
   64
  3
-------   -------------   ------
 72
   65
 73
    2
 40
7.5
 49
6
 49
-1.5
  0
LTYPE
  2
dashed_spaced
 70
   64
  3
----        --------        ----
 72
   65
 73
    2
 40
12
 49
6
 49
-6
  0
LTYPE
  2
long_dashed_dotted
 70
   64
  3
------------- --- --------------
 72
   65
 73
    4
 40
15.25
 49
12
 49
-1.5
 49
0.25
 49
-1.5
  0
LTYPE
  2
long_dashed_double-dotted
 70
   64
  3
----------- --- --- ------------
 72
   65
 73
    6
 40
17
 49
12
 49
-1.5
 49
0.25
 49
-1.5
 49
0.25
 49
-1.5
  0
LTYPE
  2
long_dashed_triplicate-dotted
 70
   64
  3
--------- --- --- --- ----------
 72
   65
 73
    8
 40
18.75
 49
12
 49
-1.5
 49
0.25
 49
-1.5
 49
0.25
 49
-1.5
 49
0.25
 49
-1.5
  0
LTYPE
  2
dotted
 70
   64
  3
   -       -       -       -    
 72
   65
 73
    2
 40
1.75
 49
0.25
 49
-1.5
  0
LTYPE
  2
chain
 70
   64
  3
-------------- -- --------------
 72
   65
 73
    4
 40
18.5
 49
12
 49
-1.5
 49
3.5
 49
-1.5
  0
LTYPE
  2
chain_double_dash
 70
   64
  3
------------ -- -- -------------
 72
   65
 73
    6
 40
23.5
 49
12
 49
-1.5
 49
3.5
 49
-1.5
 49
3.5
 49
-1.5
  0
LTYPE
  2
dashed_dotted
 70
   64
  3
-----------     -     ----------
 72
   65
 73
    4
 40
9.25
 49
6
 49
-1.5
 49
0.25
 49
-1.5
  0
LTYPE
  2
double-dashed_dotted
 70
   64
  3
------   -----------   -   -----
 72
   65
 73
    6
 40
16.75
 49
6
 49
-1.5
 49
6
 49
-1.5
 49
0.25
 49
-1.5
  0
LTYPE
  2
dashed_double-dotted
 70
   64
  3
---------    -    -    ---------
 72
   65
 73
    6
 40
11
 49
6
 49
-1.5
 49
0.25
 49
-1.5
 49
0.25
 49
-1.5
  0
LTYPE
  2
double-dashed_double-dotted
 70
   64
  3
-----   ---------   -   -   ----
 72
   65
 73
    8
 40
18.5
 49
6
 49
-1.5
 49
6
 49
-1.5
 49
0.25
 49
-1.5
 49
0.25
 49
-1.5
  0
LTYPE
  2
dashed_triplicate-dotted
 70
   64
  3
-------    -    -    -    ------
 72
   65
 73
    8
 40
12.75
 49
6
 49
-1.5
 49
0.25
 49
-1.5
 49
0.25
 49
-1.5
 49
0.25
 49
-1.5
  0
LTYPE
  2
double-dashed_triplicate-dotted
 70
   64
  3
-----  ---------  -  -  -  -----
 72
   65
 73
   10
 40
20.25
 49
6
 49
-1.5
 49
6
 49
-1.5
 49
0.25
 49
-1.5
 49
0.25
 49
-1.5
 49
0.25
 49
-1.5
  0
LTYPE
  2
undefined
 70
   64
  3
--------------------------------
 72
   65
 73
    0
 40
0
  0
ENDTAB
  0
TABLE
  2
STYLE
  5
3
100
AcDbSymbolTable
 70
     1
  0
STYLE
  5
10
100
AcDbSymbolTableRecord
100
AcDbTextStyleTableRecord
  2
STANDARD
 70
     0
 40
0.0
 41
1.0
 50
0.0
 71
     0
 42
0.2
  3
txt
  4
bigfont.shx
  0
STYLE
  5
26
100
AcDbSymbolTableRecord
100
AcDbTextStyleTableRecord
  2
TATEGAKI
 70
    68
 40
0.0
 41
1.0
 50
0.0
 71
     0
 42
1.0
  3
txt
  4
bigfont.shx
  0
ENDTAB
  0
TABLE
  2
LAYER
 70
   10
  0
LAYER
  2
_0-0_計極細
 70
   64
 62
    7
  6
CONTINUOUS
  0
LAYER
  2
_0-1_計細線
 70
   64
 62
    7
  6
CONTINUOUS
  0
LAYER
  2
_0-5_寸法線
 70
   64
 62
    7
  6
CONTINUOUS
  0
LAYER
  2
_0-7_枠細線
 70
   64
 62
    7
  6
CONTINUOUS
  0
LAYER
  2
_0-8_枠中線
 70
   64
 62
    7
  6
CONTINUOUS
  0
LAYER
  2
_0-9_枠極太
 70
   64
 62
    7
  6
CONTINUOUS
  0
LAYER
  2
_0-a_極細3
 70
   64
 62
    7
  6
CONTINUOUS
  0
LAYER
  2
_0-b_細線3
 70
   64
 62
    7
  6
CONTINUOUS
  0
LAYER
  2
_0-d_寸法3
 70
   64
 62
    7
  6
CONTINUOUS
  0
LAYER
  2
ADD_LINE
 70
   64
 62
    7
  6
CONTINUOUS
  0
ENDTAB
  0
ENDSEC
  0
SECTION
  2
BLOCKS
  0
ENDSEC
  0
SECTION
  2
ENTITIES
  0
LINE
  8
_0-7_枠細線
  6
CONTINUOUS
 62
    5
 10
1424.9999999999998
 20
942.5
 11
889.99999999999989
 21
942.5
  0
TEXT
  8
_0-7_枠細線
 62
    5
 10
894.99999999999989
 20
945
 40
12.5
 41
1
 50
0
  1
記号
  0
TEXT
  8
_0-7_枠細線
 62
    5
 10
996.87499999999989
 20
945
 40
12.5
 41
1
 50
0
  1
訂　 正　 記　 事
  0
TEXT
  8
_0-7_枠細線
 62
    5
 10
1181.2499999999998
 20
945
 40
12.5
 41
1
 50
0
  1
訂 正 年 月 日
  0
TEXT
  8
_0-7_枠細線
 62
    5
 10
1306.2499999999998
 20
945
 40
12.5
 41
1
 50
0
  1
備　　　　　考
  0
LINE
  8
_0-7_枠細線
  6
CONTINUOUS
 62
    5
 10
1184.9999999999998
 20
180
 11
1184.9999999999998
 21
100
  0
TEXT
  8
_0-7_枠細線
 62
    5
 10
937.49999999999989
 20
97.5
 40
17.5
 41
1
 50
0
  1
備考
  7
TATEGAKI
  0
TEXT
  8
_0-7_枠細線
 62
    5
 10
937.49999999999989
 20
137.5
 40
17.5
 41
1
 50
0
  1
品番
  7
TATEGAKI
  0
TEXT
  8
_0-7_枠細線
 62
    5
 10
937.49999999999989
 20
177.5
 40
17.5
 41
1
 50
0
  1
品名
  7
TATEGAKI
  0
LINE
  8
_0-7_枠細線
  6
CONTINUOUS
 62
    5
 10
1184.9999999999998
 20
140
 11
924.99999999999989
 21
140
  0
LINE
  8
_0-7_枠細線
  6
CONTINUOUS
 62
    5
 10
949.99999999999989
 20
180
 11
949.99999999999989
 21
60
  0
LINE
  8
_0-8_枠中線
  6
CONTINUOUS
 62
    5
 10
1424.9999999999998
 20
180
 11
924.99999999999989
 21
180
  0
LINE
  8
_0-8_枠中線
  6
CONTINUOUS
 62
    5
 10
924.99999999999989
 20
180
 11
924.99999999999989
 21
60
  0
LINE
  8
_0-7_枠細線
  6
CONTINUOUS
 62
    5
 10
1244.9999999999998
 20
180
 11
1244.9999999999998
 21
60
  0
TEXT
  8
_0-7_枠細線
 62
    5
 10
1192.4999999999998
 20
160
 40
15
 41
1
 50
0
  1
縮　尺
  0
TEXT
  8
_0-7_枠細線
 62
    5
 10
1193.9999999999998
 20
117.5
 40
20
 41
0.7000000000000001
 50
0
  1
１：５
  0
LINE
  8
_0-7_枠細線
  6
CONTINUOUS
 62
    5
 10
1184.9999999999998
 20
155
 11
1244.9999999999998
 21
155
  0
LINE
  8
_0-7_枠細線
  6
CONTINUOUS
 62
    5
 10
1244.9999999999998
 20
100
 11
924.99999999999989
 21
100
  0
LINE
  8
_0-7_枠細線
  6
CONTINUOUS
 62
    5
 10
1424.9999999999998
 20
90
 11
1244.9999999999998
 21
90
  0
LINE
  8
_0-7_枠細線
  6
CONTINUOUS
 62
    5
 10
1244.9999999999998
 20
120
 11
1424.9999999999998
 21
120
  0
LINE
  8
_0-7_枠細線
  6
CONTINUOUS
 62
    5
 10
1424.9999999999998
 20
140
 11
1244.9999999999998
 21
140
  0
TEXT
  8
_0-7_枠細線
 62
    5
 10
1254.9999999999998
 20
147.5
 40
25
 41
0.8
 50
0
  1
株式会社シマブン
  0
TEXT
  8
_0-7_枠細線
 62
    5
 10
1252.4999999999998
 20
59.999999999999929
 40
15
 41
1
 50
0
  1
年月日
  0
TEXT
  8
_0-7_枠細線
 62
    5
 10
1252.4999999999998
 20
75
 40
15
 41
1
 50
0
  1
作　成
  0
TEXT
  8
_0-7_枠細線
 62
    5
 10
1256.2499999999998
 20
122.5
 40
15
 41
1
 50
0
  1
承 認
  0
LINE
  8
_0-7_枠細線
  6
CONTINUOUS
 62
    5
 10
1304.9999999999998
 20
140
 11
1304.9999999999998
 21
60
  0
TEXT
  8
_0-7_枠細線
 62
    5
 10
1316.2499999999998
 20
122.5
 40
15
 41
1
 50
0
  1
検 図
  0
LINE
  8
_0-7_枠細線
  6
CONTINUOUS
 62
    5
 10
1364.9999999999998
 20
140
 11
1364.9999999999998
 21
90
  0
TEXT
  8
_0-7_枠細線
 62
    5
 10
1374.9999999999998
 20
95
 40
20
 41
1
 50
0
  1
藤戸
  0
TEXT
  8
_0-7_枠細線
 62
    5
 10
1376.2499999999998
 20
122.5
 40
15
 41
1
 50
0
  1
設 計
  0
TEXT
  8
_0-7_枠細線
 62
    5
 10
1254.9999999999998
 20
95
 40
20
 41
1
 50
0
  1
隠塚
  0
TEXT
  8
_0-7_枠細線
 62
    5
 10
1314.9999999999998
 20
95
 40
20
 41
1
 50
0
  1
渋田
  0
TEXT
  8
_0-7_枠細線
 62
    5
 10
1309.9999999999998
 20
67.5
 40
15
 41
0.6666666666666666
 50
0
  1
２０１２年０２月２９日
  0
LINE
  8
_0-7_枠細線
  6
CONTINUOUS
 62
    5
 10
1424.9999999999998
 20
925
 11
889.99999999999989
 21
925
  0
TEXT
  8
_0-7_枠細線
 62
    5
 10
938.85037037037011
 20
927.5
 40
12.500000000000002
 41
1
 50
0
  1
品番変更
  0
TEXT
  8
_0-7_枠細線
 62
    5
 10
956.55807915457672
 20
218.48278215653394
 40
25
 41
0.8
 50
0
  1
側面詳細図
  0
TEXT
  8
_0-7_枠細線
 62
    5
 10
1027.2366688631305
 20
193.70761534481403
 40
20
 41
0.6
 50
0
  1
Ｓ＝１：３
  0
TEXT
  8
_0-7_枠細線
 62
    5
 10
1179.9999999999998
 20
927.5
 40
12.5
 41
0.7199999999999999
 50
0
  1
２０１５．０４．０１
  0
ARC
  8
_0-a_極細3
  6
CONTINUOUS
 62
    7
 10
953.46646366835171
 20
288.88554488551267
 40
21.070607518177617
 50
150.03871396148111
 51
205.23810402387852
  0
ARC
  8
_0-a_極細3
  6
CONTINUOUS
 62
    7
 10
915.34789344047408
 20
270.9173338303558
 40
21.070607518177617
 50
330.03871396148247
 51
25.238104023878527
  0
LINE
  8
_0-d_寸法3
  6
CONTINUOUS
 62
    7
 10
922.69126241195295
 20
292.40143935793401
 11
894.35792907861946
 21
292.40143935793418
  0
LINE
  8
_0-d_寸法3
  6
CONTINUOUS
 62
    7
 10
899.35792907861946
 20
292.40143935793412
 11
901.94611952964465
 21
282.74218109504346
  0
LINE
  8
_0-d_寸法3
  6
CONTINUOUS
 62
    7
 10
899.35792907861946
 20
292.40143935793412
 11
896.76973862759439
 21
282.74218109504346
  0
LINE
  8
_0-d_寸法3
  6
CONTINUOUS
 62
    7
 10
922.69126241195295
 20
267.40143935793401
 11
894.35792907861946
 21
267.40143935793418
  0
LINE
  8
_0-d_寸法3
  6
CONTINUOUS
 62
    7
 10
899.35792907861946
 20
267.40143935793412
 11
896.76973862759439
 21
277.06069762082478
  0
LINE
  8
_0-d_寸法3
  6
CONTINUOUS
 62
    7
 10
899.35792907861946
 20
267.40143935793412
 11
901.94611952964465
 21
277.06069762082478
  0
LINE
  8
_0-d_寸法3
  6
CONTINUOUS
 62
    7
 10
899.35792907861946
 20
292.40143935793412
 11
899.35792907861946
 21
267.40143935793412
  0
TEXT
  8
_0-d_寸法3
 62
    7
 10
899.35792907861946
 20
272.40143935793412
 40
15
 41
1
 50
90
  1
15
  0
LINE
  8
_0-a_極細3
  6
CENTER1
 62
    7
 10
914.55665531664977
 20
279.9014393579339
 11
1077.5360825895468
 21
279.9014393579339
  0
ARC
  8
_0-b_細線3
  6
CONTINUOUS
 62
    7
 10
958.58023746876131
 20
369.93058031496412
 40
97.696522151887564
 50
263.73185704547734
 51
276.26814295452192
  0
ARC
  8
_0-b_細線3
  6
CONTINUOUS
 62
    7
 10
958.58023746876131
 20
188.20563173423736
 40
97.696522151887407
 50
83.731857045477739
 51
96.268142954522261
  0
LINE
  8
_0-b_細線3
  6
CONTINUOUS
 62
    7
 10
953.58023746876165
 20
290.4014393579339
 11
953.58023746876165
 21
292.4014393579339
  0
LINE
  8
_0-b_細線3
  6
CONTINUOUS
 62
    7
 10
947.91357080209525
 20
290.4014393579339
 11
953.58023746876165
 21
290.4014393579339
  0
LINE
  8
_0-b_細線3
  6
CONTINUOUS
 62
    7
 10
947.91357080209525
 20
267.4014393579339
 11
947.91357080209525
 21
290.4014393579339
  0
LINE
  8
_0-b_細線3
  6
CONTINUOUS
 62
    7
 10
945.91357080209514
 20
267.4014393579339
 11
947.91357080209525
 21
267.4014393579339
  0
LINE
  8
_0-b_細線3
  6
CONTINUOUS
 62
    7
 10
945.91357080209514
 20
290.4014393579339
 11
945.91357080209514
 21
267.4014393579339
  0
LINE
  8
_0-b_細線3
  6
CONTINUOUS
 62
    7
 10
940.24690413542874
 20
290.4014393579339
 11
945.91357080209514
 21
290.4014393579339
  0
LINE
  8
_0-b_細線3
  6
CONTINUOUS
 62
    7
 10
940.24690413542874
 20
292.4014393579339
 11
940.24690413542874
 21
290.4014393579339
  0
LINE
  8
_0-b_細線3
  6
CONTINUOUS
 62
    7
 10
953.58023746876165
 20
292.4014393579339
 11
940.24690413542874
 21
292.4014393579339
  0
ARC
  8
_0-b_細線3
  6
CONTINUOUS
 62
    7
 10
1005.2469041354283
 20
369.93058031496298
 40
97.696522151886498
 50
263.73185704547677
 51
276.26814295452255
  0
ARC
  8
_0-b_細線3
  6
CONTINUOUS
 62
    7
 10
1005.2469041354283
 20
188.20563173423835
 40
97.696522151886498
 50
83.731857045477142
 51
96.268142954522872
  0
ARC
  8
_0-b_細線3
  6
CONTINUOUS
 62
    7
 10
981.91357080209468
 20
369.93058031496298
 40
97.696522151886498
 50
263.73185704547706
 51
276.26814295452255
  0
ARC
  8
_0-b_細線3
  6
CONTINUOUS
 62
    7
 10
981.91357080209468
 20
188.20563173423835
 40
97.696522151886498
 50
83.731857045477142
 51
96.268142954522602
  0
LINE
  8
_0-b_細線3
  6
CONTINUOUS
 62
    7
 10
976.91357080209514
 20
290.4014393579339
 11
976.91357080209514
 21
292.4014393579339
  0
LINE
  8
_0-b_細線3
  6
CONTINUOUS
 62
    7
 10
971.24690413542862
 20
290.4014393579339
 11
976.91357080209514
 21
290.4014393579339
  0
LINE
  8
_0-b_細線3
  6
CONTINUOUS
 62
    7
 10
971.24690413542862
 20
267.4014393579339
 11
971.24690413542862
 21
290.4014393579339
  0
LINE
  8
_0-b_細線3
  6
CONTINUOUS
 62
    7
 10
969.24690413542862
 20
267.4014393579339
 11
971.24690413542862
 21
267.4014393579339
  0
LINE
  8
_0-b_細線3
  6
CONTINUOUS
 62
    7
 10
969.24690413542862
 20
290.4014393579339
 11
969.24690413542862
 21
267.4014393579339
  0
LINE
  8
_0-b_細線3
  6
CONTINUOUS
 62
    7
 10
963.58023746876165
 20
290.4014393579339
 11
969.24690413542862
 21
290.4014393579339
  0
LINE
  8
_0-b_細線3
  6
CONTINUOUS
 62
    7
 10
963.58023746876165
 20
292.4014393579339
 11
963.58023746876165
 21
290.4014393579339
  0
LINE
  8
_0-b_細線3
  6
CONTINUOUS
 62
    7
 10
976.91357080209514
 20
292.4014393579339
 11
963.58023746876165
 21
292.4014393579339
  0
LINE
  8
_0-b_細線3
  6
CONTINUOUS
 62
    7
 10
1000.2469041354283
 20
290.4014393579339
 11
1000.2469041354283
 21
292.4014393579339
  0
LINE
  8
_0-b_細線3
  6
CONTINUOUS
 62
    7
 10
994.58023746876165
 20
290.4014393579339
 11
1000.2469041354283
 21
290.4014393579339
  0
LINE
  8
_0-b_細線3
  6
CONTINUOUS
 62
    7
 10
994.58023746876165
 20
267.4014393579339
 11
994.58023746876165
 21
290.4014393579339
  0
LINE
  8
_0-b_細線3
  6
CONTINUOUS
 62
    7
 10
992.58023746876177
 20
267.4014393579339
 11
994.58023746876165
 21
267.4014393579339
  0
LINE
  8
_0-b_細線3
  6
CONTINUOUS
 62
    7
 10
992.58023746876177
 20
290.4014393579339
 11
992.58023746876177
 21
267.4014393579339
  0
LINE
  8
_0-b_細線3
  6
CONTINUOUS
 62
    7
 10
986.91357080209468
 20
290.4014393579339
 11
992.58023746876177
 21
290.4014393579339
  0
LINE
  8
_0-b_細線3
  6
CONTINUOUS
 62
    7
 10
986.91357080209468
 20
292.4014393579339
 11
986.91357080209468
 21
290.4014393579339
  0
LINE
  8
_0-b_細線3
  6
CONTINUOUS
 62
    7
 10
1000.2469041354283
 20
292.4014393579339
 11
986.91357080209468
 21
292.4014393579339
  0
LINE
  8
_0-b_細線3
  6
CONTINUOUS
 62
    7
 10
1023.5802374687617
 20
290.4014393579339
 11
1023.5802374687617
 21
292.4014393579339
  0
LINE
  8
_0-b_細線3
  6
CONTINUOUS
 62
    7
 10
1017.9135708020948
 20
290.4014393579339
 11
1023.5802374687617
 21
290.4014393579339
  0
LINE
  8
_0-b_細線3
  6
CONTINUOUS
 62
    7
 10
1017.9135708020948
 20
267.4014393579339
 11
1017.9135708020948
 21
290.4014393579339
  0
LINE
  8
_0-b_細線3
  6
CONTINUOUS
 62
    7
 10
1015.9135708020951
 20
267.4014393579339
 11
1017.9135708020948
 21
267.4014393579339
  0
LINE
  8
_0-b_細線3
  6
CONTINUOUS
 62
    7
 10
1015.9135708020951
 20
290.4014393579339
 11
1015.9135708020951
 21
267.4014393579339
  0
LINE
  8
_0-b_細線3
  6
CONTINUOUS
 62
    7
 10
1010.2469041354287
 20
290.4014393579339
 11
1015.9135708020951
 21
290.4014393579339
  0
LINE
  8
_0-b_細線3
  6
CONTINUOUS
 62
    7
 10
1010.2469041354287
 20
292.4014393579339
 11
1010.2469041354287
 21
290.4014393579339
  0
LINE
  8
_0-b_細線3
  6
CONTINUOUS
 62
    7
 10
1023.5802374687617
 20
292.4014393579339
 11
1010.2469041354287
 21
292.4014393579339
  0
LINE
  8
_0-d_寸法3
  6
CONTINUOUS
 62
    7
 10
940.24690413542874
 20
302.4014393579339
 11
940.24690413542874
 21
347.4014393579339
  0
LINE
  8
_0-d_寸法3
  6
CONTINUOUS
 62
    7
 10
940.24690413542874
 20
342.4014393579339
 11
930.58764587253791
 21
339.81324890690871
  0
LINE
  8
_0-d_寸法3
  6
CONTINUOUS
 62
    7
 10
940.24690413542874
 20
342.4014393579339
 11
930.58764587253791
 21
344.98962980895919
  0
LINE
  8
_0-d_寸法3
  6
CONTINUOUS
 62
    7
 10
953.58023746876211
 20
302.4014393579339
 11
953.58023746876211
 21
347.4014393579339
  0
CIRCLE
  8
_0-d_寸法3
  6
CONTINUOUS
 62
    1
 10
953.58023746876211
 20
342.4014393579339
 40
1.5000000000000002
  0
LINE
  8
_0-d_寸法3
  6
CONTINUOUS
 62
    7
 10
915.24690413542874
 20
342.4014393579339
 11
953.58023746876211
 21
342.4014393579339
  0
TEXT
  8
_0-d_寸法3
 62
    7
 10
922.74147008584794
 20
342.4014393579339
 40
15
 41
1
 50
0
  1
8
  0
LINE
  8
_0-d_寸法3
  6
CONTINUOUS
 62
    7
 10
963.58023746876211
 20
302.4014393579339
 11
963.58023746876211
 21
347.4014393579339
  0
LINE
  8
_0-d_寸法3
  6
CONTINUOUS
 62
    7
 10
963.58023746876211
 20
342.4014393579339
 11
973.23949573165294
 21
344.98962980895902
  0
LINE
  8
_0-d_寸法3
  6
CONTINUOUS
 62
    7
 10
963.58023746876211
 20
342.4014393579339
 11
973.23949573165294
 21
339.81324890690865
  0
LINE
  8
_0-d_寸法3
  6
CONTINUOUS
 62
    7
 10
953.58023746876211
 20
342.4014393579339
 11
988.58023746876211
 21
342.4014393579339
  0
TEXT
  8
_0-d_寸法3
 62
    7
 10
973.30097625868746
 20
342.4014393579339
 40
15
 41
1
 50
0
  1
6
  0
ARC
  8
_0-b_細線3
  6
CONTINUOUS
 62
    7
 10
1028.5802374687612
 20
369.93058031496298
 40
97.696522151886498
 50
263.73185704547677
 51
276.26814295452255
  0
ARC
  8
_0-b_細線3
  6
CONTINUOUS
 62
    7
 10
1028.5802374687612
 20
188.20563173423835
 40
97.696522151886498
 50
83.731857045477142
 51
96.268142954522872
  0
LINE
  8
_0-b_細線3
  6
CONTINUOUS
 62
    7
 10
1046.9135708020947
 20
290.4014393579339
 11
1046.9135708020947
 21
292.4014393579339
  0
LINE
  8
_0-b_細線3
  6
CONTINUOUS
 62
    7
 10
1041.2469041354277
 20
290.4014393579339
 11
1046.9135708020947
 21
290.4014393579339
  0
LINE
  8
_0-b_細線3
  6
CONTINUOUS
 62
    7
 10
1041.2469041354277
 20
267.4014393579339
 11
1041.2469041354277
 21
290.4014393579339
  0
LINE
  8
_0-b_細線3
  6
CONTINUOUS
 62
    7
 10
1039.2469041354282
 20
267.4014393579339
 11
1041.2469041354277
 21
267.4014393579339
  0
LINE
  8
_0-b_細線3
  6
CONTINUOUS
 62
    7
 10
1039.2469041354282
 20
290.4014393579339
 11
1039.2469041354282
 21
267.4014393579339
  0
LINE
  8
_0-b_細線3
  6
CONTINUOUS
 62
    7
 10
1033.5802374687617
 20
290.4014393579339
 11
1039.2469041354282
 21
290.4014393579339
  0
LINE
  8
_0-b_細線3
  6
CONTINUOUS
 62
    7
 10
1033.5802374687617
 20
292.4014393579339
 11
1033.5802374687617
 21
290.4014393579339
  0
LINE
  8
_0-b_細線3
  6
CONTINUOUS
 62
    7
 10
1046.9135708020947
 20
292.4014393579339
 11
1033.5802374687617
 21
292.4014393579339
  0
ARC
  8
_0-b_細線3
  6
CONTINUOUS
 62
    7
 10
1051.9135708020942
 20
369.93058031496298
 40
97.696522151886498
 50
263.73185704547677
 51
276.26814295452255
  0
ARC
  8
_0-b_細線3
  6
CONTINUOUS
 62
    7
 10
1051.9135708020942
 20
188.20563173423835
 40
97.696522151886498
 50
83.731857045477142
 51
96.268142954522872
  0
LINE
  8
_0-b_細線3
  6
CONTINUOUS
 62
    7
 10
1070.2469041354277
 20
290.4014393579339
 11
1070.2469041354277
 21
292.4014393579339
  0
LINE
  8
_0-b_細線3
  6
CONTINUOUS
 62
    7
 10
1064.5802374687607
 20
290.4014393579339
 11
1070.2469041354277
 21
290.4014393579339
  0
LINE
  8
_0-b_細線3
  6
CONTINUOUS
 62
    7
 10
1064.5802374687607
 20
267.4014393579339
 11
1064.5802374687607
 21
290.4014393579339
  0
LINE
  8
_0-b_細線3
  6
CONTINUOUS
 62
    7
 10
1062.5802374687612
 20
267.4014393579339
 11
1064.5802374687607
 21
267.4014393579339
  0
LINE
  8
_0-b_細線3
  6
CONTINUOUS
 62
    7
 10
1062.5802374687612
 20
290.4014393579339
 11
1062.5802374687612
 21
267.4014393579339
  0
LINE
  8
_0-b_細線3
  6
CONTINUOUS
 62
    7
 10
1056.9135708020947
 20
290.4014393579339
 11
1062.5802374687612
 21
290.4014393579339
  0
LINE
  8
_0-b_細線3
  6
CONTINUOUS
 62
    7
 10
1056.9135708020947
 20
292.4014393579339
 11
1056.9135708020947
 21
290.4014393579339
  0
LINE
  8
_0-b_細線3
  6
CONTINUOUS
 62
    7
 10
1070.2469041354277
 20
292.4014393579339
 11
1056.9135708020947
 21
292.4014393579339
  0
ARC
  8
_0-a_極細3
  6
CONTINUOUS
 62
    7
 10
1096.5953677034852
 20
288.88554488551267
 40
21.070607518177617
 50
150.03871396148173
 51
205.23810402387798
  0
ARC
  8
_0-a_極細3
  6
CONTINUOUS
 62
    7
 10
1058.4767974756071
 20
270.9173338303558
 40
21.070607518177617
 50
330.03871396148247
 51
25.238104023878019
  0
ARC
  8
_0-b_細線3
  6
CONTINUOUS
 62
    7
 10
1075.2469041354273
 20
188.20563173423835
 40
97.696522151886498
 50
89.712447716540126
 51
96.268142954522872
  0
ARC
  8
_0-b_細線3
  6
CONTINUOUS
 62
    7
 10
1075.2469041354273
 20
369.93058031496298
 40
97.696522151886498
 50
263.73185704547654
 51
272.49521673648451
  0
ARC
  8
_0-b_細線3
  6
CONTINUOUS
 62
    7
 10
935.24690413542771
 20
188.20563173423736
 40
97.696522151887407
 50
83.731857045477739
 51
91.544741679869503
  0
ARC
  8
_0-b_細線3
  6
CONTINUOUS
 62
    7
 10
935.24690413542771
 20
369.93058031496412
 40
97.696522151887564
 50
270.66272511896562
 51
276.26814295452192
  0
LINE
  8
_0-d_寸法3
  6
CONTINUOUS
 62
    7
 10
1016.9135708020951
 20
302.40143935793412
 11
1016.9135708020951
 21
347.4014393579339
  0
LINE
  8
_0-d_寸法3
  6
CONTINUOUS
 62
    7
 10
1016.9135708020951
 20
342.4014393579339
 11
1026.5728290649859
 21
344.98962980895908
  0
LINE
  8
_0-d_寸法3
  6
CONTINUOUS
 62
    7
 10
1016.9135708020951
 20
342.4014393579339
 11
1026.5728290649859
 21
339.81324890690871
  0
LINE
  8
_0-d_寸法3
  6
CONTINUOUS
 62
    7
 10
1040.2469041354286
 20
302.4014393579339
 11
1040.2469041354286
 21
347.4014393579339
  0
LINE
  8
_0-d_寸法3
  6
CONTINUOUS
 62
    7
 10
1040.2469041354286
 20
342.4014393579339
 11
1030.5876458725379
 21
339.81324890690871
  0
LINE
  8
_0-d_寸法3
  6
CONTINUOUS
 62
    7
 10
1040.2469041354286
 20
342.4014393579339
 11
1030.5876458725379
 21
344.98962980895919
  0
LINE
  8
_0-d_寸法3
  6
CONTINUOUS
 62
    7
 10
1016.9135708020951
 20
342.4014393579339
 11
1040.2469041354286
 21
342.4014393579339
  0
TEXT
  8
_0-d_寸法3
 62
    7
 10
1021.0802374687617
 20
342.4014393579339
 40
15
 41
1
 50
0
  1
14
  0
LINE
  8
_0-d_寸法3
  6
CONTINUOUS
 62
    7
 10
1040.2469041354286
 20
342.4014393579339
 11
1049.9061623983193
 21
344.98962980895902
  0
LINE
  8
_0-d_寸法3
  6
CONTINUOUS
 62
    7
 10
1040.2469041354286
 20
342.4014393579339
 11
1049.9061623983193
 21
339.81324890690865
  0
LINE
  8
_0-d_寸法3
  6
CONTINUOUS
 62
    7
 10
1063.5802374687617
 20
302.4014393579339
 11
1063.5802374687617
 21
347.4014393579339
  0
LINE
  8
_0-d_寸法3
  6
CONTINUOUS
 62
    7
 10
1063.5802374687617
 20
342.4014393579339
 11
1053.9209792058709
 21
339.81324890690871
  0
LINE
  8
_0-d_寸法3
  6
CONTINUOUS
 62
    7
 10
1063.5802374687617
 20
342.4014393579339
 11
1053.9209792058709
 21
344.98962980895919
  0
LINE
  8
_0-d_寸法3
  6
CONTINUOUS
 62
    7
 10
1040.2469041354286
 20
342.4014393579339
 11
1063.5802374687617
 21
342.4014393579339
  0
TEXT
  8
_0-d_寸法3
 62
    7
 10
1044.4135708020951
 20
342.4014393579339
 40
15
 41
1
 50
0
  1
14
  0
LINE
  8
_0-b_細線3
  6
CONTINUOUS
 62
    7
 10
936.12309469687284
 20
267.40143935793321
 11
1079.2519987320061
 21
267.40143935793321
  0
LINE
  8
_0-b_細線3
  6
CONTINUOUS
 62
    7
 10
932.69126241195295
 20
292.4014393579339
 11
1075.820166447086
 21
292.4014393579339
  0
TEXT
  8
_0-7_枠細線
 62
    5
 10
965.49999999999977
 20
150
 40
20
 41
0.5
 50
0
  1
Ｔバー ステンレスグレーチング Ｈ１５タイプ
  0
LINE
  8
_0-a_極細3
  6
CENTER1
 62
    7
 10
470.43065977017193
 20
251.21560987248404
 11
470.43065977017193
 21
306.33227653915696
  0
LINE
  8
_0-d_寸法3
  6
CONTINUOUS
 62
    7
 10
462.23913932728203
 20
273.13720372144439
 11
426.88679760159653
 21
297.89117989113515
  0
LINE
  8
_0-d_寸法3
  6
CONTINUOUS
 62
    7
 10
430.98255782304142
 20
295.0232977093799
 11
428.39436737201623
 21
304.68255597227056
  0
LINE
  8
_0-d_寸法3
  6
CONTINUOUS
 62
    7
 10
430.98255782304142
 20
295.0232977093799
 11
433.57074827406672
 21
304.68255597227056
  0
LINE
  8
_0-d_寸法3
  6
CONTINUOUS
 62
    7
 10
462.23913932728203
 20
298.13720372144439
 11
426.88679760159653
 21
322.89117989113515
  0
LINE
  8
_0-d_寸法3
  6
CONTINUOUS
 62
    7
 10
430.98255782304142
 20
320.0232977093799
 11
433.57074827406666
 21
310.36403944648919
  0
LINE
  8
_0-d_寸法3
  6
CONTINUOUS
 62
    7
 10
430.98255782304142
 20
320.0232977093799
 11
428.39436737201623
 21
310.36403944648924
  0
LINE
  8
_0-d_寸法3
  6
CONTINUOUS
 62
    7
 10
430.98255782304142
 20
295.0232977093799
 11
430.98255782304142
 21
320.0232977093799
  0
TEXT
  8
_0-d_寸法3
 62
    7
 10
430.98255782304142
 20
300.02329770937968
 40
15
 41
1
 50
90
  1
15
  0
TEXT
  8
_0-7_枠細線
 62
    5
 10
420.5086121309381
 20
117.40107435625575
 40
25
 41
0.8
 50
0
  1
断面詳細図
  0
TEXT
  8
_0-7_枠細線
 62
    5
 10
535.45758188010564
 20
117.40107435625575
 40
20
 41
0.6
 50
0
  1
Ｓ＝１：３
  0
CIRCLE
  8
_0-a_極細3
  6
CONTINUOUS
 62
    7
 10
240.3808992336559
 20
277.36040533014921
 40
0.5530864197530718
  0
LINE
  8
_0-a_極細3
  6
CONTINUOUS
 62
    7
 10
245.43065977017164
 20
292.4014393579339
 11
245.43065977017164
 21
280.73477269126693
  0
LINE
  8
_0-a_極細3
  6
CONTINUOUS
 62
    7
 10
245.43065977017164
 20
292.4014393579339
 11
156.25291262505726
 21
292.4014393579339
  0
LINE
  8
_0-a_極細3
  6
CONTINUOUS
 62
    7
 10
253.76399310350513
 20
280.73477269126693
 11
156.25291262505726
 21
280.73477269126693
  0
LINE
  8
_0-a_極細3
  6
CONTINUOUS
 62
    7
 10
253.76399310350513
 20
292.4014393579339
 11
245.43065977017164
 21
292.4014393579339
  0
LINE
  8
_0-a_極細3
  6
CONTINUOUS
 62
    7
 10
253.76399310350513
 20
291.56810602460041
 11
253.76399310350513
 21
292.4014393579339
  0
LINE
  8
_0-a_極細3
  6
CONTINUOUS
 62
    7
 10
253.56590284714557
 20
280.73477269126693
 11
253.76399310350465
 21
280.93286294762652
  0
LINE
  8
_0-a_極細3
  6
CONTINUOUS
 62
    7
 10
249.3232621600265
 20
280.73477269126693
 11
253.76399310350513
 21
285.17550363474561
  0
LINE
  8
_0-a_極細3
  6
CONTINUOUS
 62
    7
 10
245.43065977017164
 20
281.08481098853167
 11
253.76399310350513
 21
289.41814432186493
  0
LINE
  8
_0-a_極細3
  6
CONTINUOUS
 62
    7
 10
245.43065977017164
 20
285.32745167565076
 11
252.50464745245438
 21
292.4014393579339
  0
LINE
  8
_0-a_極細3
  6
CONTINUOUS
 62
    7
 10
245.43065977017164
 20
289.57009236277031
 11
248.26200676533523
 21
292.4014393579339
  0
LINE
  8
_0-a_極細3
  6
CONTINUOUS
 62
    7
 10
253.76399310350513
 20
290.12047248567524
 11
251.4830262312467
 21
292.4014393579339
  0
LINE
  8
_0-a_極細3
  6
CONTINUOUS
 62
    7
 10
253.76399310350513
 20
285.87783179855592
 11
247.24038554412715
 21
292.4014393579339
  0
LINE
  8
_0-a_極細3
  6
CONTINUOUS
 62
    7
 10
245.43065977017164
 20
289.96852444477008
 11
253.76399310350513
 21
281.63519111143682
  0
LINE
  8
_0-a_極細3
  6
CONTINUOUS
 62
    7
 10
245.43065977017164
 20
285.72588375765076
 11
250.42177083655503
 21
280.73477269126693
  0
LINE
  8
_0-a_極細3
  6
CONTINUOUS
 62
    7
 10
245.43065977017164
 20
281.48324307053144
 11
246.17913014943596
 21
280.73477269126693
  0
LINE
  8
_0-a_極細3
  6
CONTINUOUS
 62
    7
 10
236.59534009254102
 20
280.73477268513966
 11
245.43065977017164
 21
289.57009236277031
  0
LINE
  8
_0-a_極細3
  6
CONTINUOUS
 62
    7
 10
215.38213664223355
 20
280.73477267042858
 11
227.04880332973886
 21
292.40143935793367
  0
LINE
  8
_0-a_極細3
  6
CONTINUOUS
 62
    7
 10
194.16893319192587
 20
280.73477265571705
 11
205.83559989414204
 21
292.4014393579339
  0
LINE
  8
_0-a_極細3
  6
CONTINUOUS
 62
    7
 10
172.955729741618
 20
280.73477264100597
 11
184.62239645854595
 21
292.4014393579339
  0
LINE
  8
_0-a_極細3
  6
CONTINUOUS
 62
    7
 10
156.25291262505726
 20
285.24515896004118
 11
163.40919302294949
 21
292.40143935793367
  0
LINE
  8
_0-a_極細3
  6
DASHED2
 62
    7
 10
225.98873836738733
 20
280.73477267778412
 11
237.65540504753702
 21
292.4014393579339
  0
LINE
  8
_0-a_極細3
  6
DASHED2
 62
    7
 10
204.77553491707965
 20
280.73477266307282
 11
216.4422016119407
 21
292.4014393579339
  0
LINE
  8
_0-a_極細3
  6
DASHED2
 62
    7
 10
183.56233146677212
 20
280.73477264836151
 11
195.22899817634411
 21
292.4014393579339
  0
LINE
  8
_0-a_極細3
  6
DASHED2
 62
    7
 10
162.34912801646431
 20
280.73477263365044
 11
174.01579474074771
 21
292.4014393579339
  0
LINE
  8
_0-a_極細3
  6
CONTINUOUS
 62
    7
 10
187.09732643683836
 20
255.73477269126715
 11
187.09732643683836
 21
187.4014393579339
  0
LINE
  8
_0-a_極細3
  6
CONTINUOUS
 62
    7
 10
270.43065977017164
 20
187.4014393579339
 11
187.09732643683836
 21
187.4014393579339
  0
LINE
  8
_0-a_極細3
  6
CONTINUOUS
 62
    7
 10
187.09732643683836
 20
255.73477269126715
 11
156.25291262505726
 21
255.73477269126715
  0
LINE
  8
_0-a_極細3
  6
CONTINUOUS
 62
    7
 10
270.43065977017164
 20
187.4014393579339
 11
270.43065977017164
 21
161.15983906315478
  0
LINE
  8
_0-a_極細3
  6
CONTINUOUS
 62
    7
 10
233.00868520518185
 20
161.1598391795917
 11
259.2502853835245
 21
187.4014393579339
  0
LINE
  8
_0-a_極細3
  6
CONTINUOUS
 62
    7
 10
162.29800730654077
 20
161.15983939960486
 11
188.53960726486989
 21
187.4014393579339
  0
LINE
  8
_0-a_極細3
  6
CONTINUOUS
 62
    7
 10
156.25291262505726
 20
225.82542283677617
 11
186.16226247954847
 21
255.73477269126715
  0
LINE
  8
_0-a_極細3
  6
CONTINUOUS
 62
    7
 10
225.93761741531765
 20
161.15983920159309
 11
252.17921757165874
 21
187.4014393579339
  0
LINE
  8
_0-a_極細3
  6
CONTINUOUS
 62
    7
 10
156.25291262505726
 20
162.18581252998689
 11
187.09732643683836
 21
193.03022634176818
  0
LINE
  8
_0-a_極細3
  6
CONTINUOUS
 62
    7
 10
156.25291262505726
 20
232.8964906486417
 11
179.09119466768274
 21
255.73477269126715
  0
LINE
  8
_0-a_極細3
  6
CONTINUOUS
 62
    7
 10
218.86654962545393
 20
161.15983922359447
 11
245.10814975979343
 21
187.4014393579339
  0
LINE
  8
_0-a_極細3
  6
CONTINUOUS
 62
    7
 10
156.25291262505726
 20
169.25688034185242
 11
187.09732643683836
 21
200.10129415363372
  0
LINE
  8
_0-a_極細3
  6
CONTINUOUS
 62
    7
 10
156.25291262505726
 20
239.96755846050704
 11
172.02012685581741
 21
255.73477269126715
  0
CIRCLE
  8
_0-a_極細3
  6
CONTINUOUS
 62
    7
 10
174.14880046822447
 20
270.93818310792722
 40
0.5530864197530718
  0
CIRCLE
  8
_0-a_極細3
  6
CONTINUOUS
 62
    7
 10
163.81793627069399
 20
260.9826275523717
 40
0.5530864197530718
  0
CIRCLE
  8
_0-a_極細3
  6
CONTINUOUS
 62
    7
 10
174.42534367810126
 20
262.0492942190383
 40
0.5530864197530718
  0
CIRCLE
  8
_0-a_極細3
  6
CONTINUOUS
 62
    7
 10
187.04756590032346
 20
264.00484977459382
 40
0.5530864197530718
  0
CIRCLE
  8
_0-a_極細3
  6
CONTINUOUS
 62
    7
 10
215.49201034476715
 20
275.73818310792717
 40
0.5530864197530718
  0
CIRCLE
  8
_0-a_極細3
  6
CONTINUOUS
 62
    7
 10
246.06978812254468
 20
269.515960885705
 40
0.5530864197530718
  0
CIRCLE
  8
_0-a_極細3
  6
CONTINUOUS
 62
    7
 10
221.18089923365602
 20
268.9826275523717
 40
0.5530864197530718
  0
CIRCLE
  8
_0-a_極細3
  6
CONTINUOUS
 62
    7
 10
193.99201034476789
 20
256.74929421903835
 40
0.5530864197530718
  0
CIRCLE
  8
_0-a_極細3
  6
CONTINUOUS
 62
    7
 10
214.43645478921155
 20
255.50484977459382
 40
0.5530864197530718
  0
CIRCLE
  8
_0-a_極細3
  6
CONTINUOUS
 62
    7
 10
239.50312145587816
 20
251.7715164412607
 40
0.5530864197530718
  0
CIRCLE
  8
_0-a_極細3
  6
CONTINUOUS
 62
    7
 10
226.88089923365581
 20
246.08262755237183
 40
0.5530864197530718
  0
CIRCLE
  8
_0-a_極細3
  6
CONTINUOUS
 62
    7
 10
212.12534367810079
 20
232.57151644126068
 40
0.5530864197530718
  0
CIRCLE
  8
_0-a_極細3
  6
CONTINUOUS
 62
    7
 10
239.50312145587816
 20
239.86040533014969
 40
0.5530864197530718
  0
CIRCLE
  8
_0-a_極細3
  6
CONTINUOUS
 62
    7
 10
198.39201034476744
 20
212.7492942190388
 40
0.5530864197530718
  0
CIRCLE
  8
_0-a_極細3
  6
CONTINUOUS
 62
    7
 10
192.70312145587866
 20
194.79373866348325
 40
0.5530864197530718
  0
CIRCLE
  8
_0-a_極細3
  6
CONTINUOUS
 62
    7
 10
201.41423256698985
 20
201.54929421903873
 40
0.5530864197530718
  0
CIRCLE
  8
_0-a_極細3
  6
CONTINUOUS
 62
    7
 10
207.63645478921177
 20
193.01596088570548
 40
0.5530864197530718
  0
CIRCLE
  8
_0-a_極細3
  6
CONTINUOUS
 62
    7
 10
246.93645478921155
 20
210.9048497745944
 40
0.5530864197530718
  0
CIRCLE
  8
_0-a_極細3
  6
CONTINUOUS
 62
    7
 10
235.73645478921165
 20
205.39373866348319
 40
0.5530864197530718
  0
CIRCLE
  8
_0-a_極細3
  6
CONTINUOUS
 62
    7
 10
241.95867701143385
 20
202.90484977459442
 40
0.5530864197530718
  0
CIRCLE
  8
_0-a_極細3
  6
CONTINUOUS
 62
    7
 10
238.40312145587816
 20
193.6604053301501
 40
0.5530864197530718
  0
CIRCLE
  8
_0-a_極細3
  6
CONTINUOUS
 62
    7
 10
258.31423256698929
 20
194.72707199681665
 40
0.5530864197530718
  0
CIRCLE
  8
_0-a_極細3
  6
CONTINUOUS
 62
    7
 10
271.29201034476694
 20
197.92707199681672
 40
0.5530864197530718
  0
CIRCLE
  8
_0-a_極細3
  6
CONTINUOUS
 62
    7
 10
284.98089923365575
 20
182.99373866348361
 40
0.5530864197530718
  0
CIRCLE
  8
_0-a_極細3
  6
CONTINUOUS
 62
    7
 10
278.04756590032241
 20
168.06040533015022
 40
0.5530864197530718
  0
CIRCLE
  8
_0-a_極細3
  6
CONTINUOUS
 62
    7
 10
261.38089923365584
 20
211.6752201449647
 40
0.5530864197530718
  0
CIRCLE
  8
_0-a_極細3
  6
CONTINUOUS
 62
    7
 10
276.13645478921126
 20
245.80855347829788
 40
0.5530864197530718
  0
CIRCLE
  8
_0-a_極細3
  6
CONTINUOUS
 62
    7
 10
291.24756590032223
 20
235.85299792274239
 40
0.5530864197530718
  0
CIRCLE
  8
_0-a_極細3
  6
CONTINUOUS
 62
    7
 10
291.78089923365548
 20
217.89744236718687
 40
0.5530864197530718
  0
CIRCLE
  8
_0-a_極細3
  6
CONTINUOUS
 62
    7
 10
256.5364547892114
 20
247.63077570051996
 40
0.5530864197530718
  0
CIRCLE
  8
_0-a_極細3
  6
CONTINUOUS
 62
    7
 10
236.24756590032263
 20
269.61472631780384
 40
1.825531472681392
  0
CIRCLE
  8
_0-a_極細3
  6
CONTINUOUS
 62
    7
 10
184.48544619888779
 20
276.54434059250161
 40
1.825531472681392
  0
CIRCLE
  8
_0-a_極細3
  6
CONTINUOUS
 62
    7
 10
211.02534367810051
 20
246.81472631780392
 40
1.825531472681392
  0
CIRCLE
  8
_0-a_極細3
  6
CONTINUOUS
 62
    7
 10
191.42534367810077
 20
208.81472631780437
 40
1.825531472681392
  0
CIRCLE
  8
_0-a_極細3
  6
CONTINUOUS
 62
    7
 10
244.62534367809994
 20
196.01472631780467
 40
1.825531472681392
  0
CIRCLE
  8
_0-a_極細3
  6
CONTINUOUS
 62
    7
 10
280.60312145587761
 20
192.41472631780468
 40
1.825531472681392
  0
CIRCLE
  8
_0-a_極細3
  6
CONTINUOUS
 62
    7
 10
285.40312145587734
 20
173.74805965113822
 40
1.825531472681392
  0
CIRCLE
  8
_0-a_極細3
  6
CONTINUOUS
 62
    7
 10
164.2883666578085
 20
277.43694854002592
 40
1.825531472681392
  0
LINE
  8
_0-a_極細3
  6
CONTINUOUS
 62
    7
 10
302.93065977017164
 20
262.4014393579339
 11
303.76399310350513
 21
262.4014393579339
  0
LINE
  8
_0-a_極細3
  6
CONTINUOUS
 62
    7
 10
303.76399310350513
 20
262.4014393579339
 11
303.76399310350513
 21
161.15983906315478
  0
CIRCLE
  8
_0-a_極細3
  6
CONTINUOUS
 62
    7
 10
296.87655895587625
 20
246.41472631780448
 40
1.825531472681392
  0
CIRCLE
  8
_0-a_極細3
  6
CONTINUOUS
 62
    7
 10
295.88460293735909
 20
191.70484977459452
 40
0.5530864197530718
  0
CIRCLE
  8
_0-a_極細3
  6
CONTINUOUS
 62
    7
 10
297.21793627069303
 20
169.04877874142471
 40
0.5530864197530718
  0
CIRCLE
  8
_0-a_極細3
  6
CONTINUOUS
 62
    7
 10
284.84756590031799
 20
227.30361520669362
 40
1.825531472681392
  0
LINE
  8
_0-a_極細3
  6
CONTINUOUS
 62
    7
 10
210.12392488301984
 20
212.28314052043743
 11
204.9936227331348
 21
226.37852983222592
  0
LINE
  8
_0-a_極細3
  6
CONTINUOUS
 62
    7
 10
260.11796755681632
 20
246.44215053147221
 11
265.24826970670108
 21
232.34676121968369
  0
LINE
  8
_0-a_極細3
  6
CONTINUOUS
 62
    7
 10
204.9936227331348
 20
226.37852983222592
 11
260.11796755681632
 21
246.44215053147221
  0
LINE
  8
_0-a_極細3
  6
CONTINUOUS
 62
    7
 10
210.12392488301984
 20
212.28314052043743
 11
265.24826970670108
 21
232.34676121968369
  0
LINE
  8
_0-a_極細3
  6
CENTER1
 62
    7
 10
202.60334041608473
 20
217.52720513630177
 11
266.63436089865013
 21
240.8325906213372
  0
LINE
  8
_0-a_極細3
  6
CONTINUOUS
 62
    7
 10
228.76399310350513
 20
187.4014393579339
 11
228.76399310350513
 21
231.48700070625
  0
LINE
  8
_0-a_極細3
  6
CONTINUOUS
 62
    7
 10
228.76399310350513
 20
231.48700070625
 11
213.76399310350513
 21
231.48700070625
  0
LINE
  8
_0-a_極細3
  6
CONTINUOUS
 62
    7
 10
213.76399310350513
 20
231.48700070625
 11
213.76399310350513
 21
187.4014393579339
  0
CIRCLE
  8
_0-a_極細3
  6
CONTINUOUS
 62
    7
 10
243.14386219661912
 20
217.32336829311271
 40
1.825531472681392
  0
CIRCLE
  8
_0-a_極細3
  6
CONTINUOUS
 62
    7
 10
264.85250417192776
 20
223.54559051533514
 40
1.825531472681392
  0
LINE
  8
_0-a_極細3
  6
CENTER1
 62
    7
 10
221.26399310350513
 20
179.12469907348097
 11
221.26399310350513
 21
235.76272087085954
  0
LINE
  8
_0-d_寸法3
  6
CONTINUOUS
 62
    7
 10
243.76399310350513
 20
292.40143935793401
 11
197.81396202491564
 21
292.4014393579339
  0
LINE
  8
_0-d_寸法3
  6
CONTINUOUS
 62
    7
 10
202.81396202491564
 20
292.4014393579339
 11
205.40215247594077
 21
282.74218109504318
  0
LINE
  8
_0-d_寸法3
  6
CONTINUOUS
 62
    7
 10
202.81396202491564
 20
292.4014393579339
 11
200.22577157389037
 21
282.74218109504324
  0
LINE
  8
_0-d_寸法3
  6
CONTINUOUS
 62
    7
 10
241.76399310350519
 20
262.40143935793401
 11
197.81396202491607
 21
262.4014393579339
  0
LINE
  8
_0-d_寸法3
  6
CONTINUOUS
 62
    7
 10
202.81396202491607
 20
262.4014393579339
 11
200.2257715738908
 21
272.06069762082456
  0
LINE
  8
_0-d_寸法3
  6
CONTINUOUS
 62
    7
 10
202.81396202491607
 20
262.4014393579339
 11
205.40215247594125
 21
272.06069762082461
  0
LINE
  8
_0-d_寸法3
  6
CONTINUOUS
 62
    7
 10
202.81396202491564
 20
292.4014393579339
 11
202.81396202491607
 21
262.4014393579339
  0
TEXT
  8
_0-d_寸法3
 62
    7
 10
202.81396202491607
 20
269.9014393579339
 40
15
 41
1
 50
90
  1
18
  0
LINE
  8
_0-d_寸法3
  6
CONTINUOUS
 62
    7
 10
243.76399310350513
 20
262.40143935793373
 11
197.81396202491607
 21
262.40143935793367
  0
LINE
  8
_0-d_寸法3
  6
CONTINUOUS
 62
    7
 10
202.81396202491607
 20
262.40143935793367
 11
205.40215247594119
 21
252.74218109504301
  0
LINE
  8
_0-d_寸法3
  6
CONTINUOUS
 62
    7
 10
202.81396202491607
 20
262.40143935793367
 11
200.2257715738908
 21
252.74218109504304
  0
LINE
  8
_0-d_寸法3
  6
CONTINUOUS
 62
    7
 10
241.76399310350519
 20
224.06810602460044
 11
197.81396202491607
 21
224.06810602460044
  0
LINE
  8
_0-d_寸法3
  6
CONTINUOUS
 62
    7
 10
202.81396202491607
 20
224.06810602460041
 11
200.2257715738908
 21
233.7273642874911
  0
LINE
  8
_0-d_寸法3
  6
CONTINUOUS
 62
    7
 10
202.81396202491607
 20
224.06810602460041
 11
205.40215247594125
 21
233.7273642874911
  0
LINE
  8
_0-d_寸法3
  6
CONTINUOUS
 62
    7
 10
202.81396202491607
 20
262.40143935793367
 11
202.81396202491607
 21
224.06810602460041
  0
TEXT
  8
_0-d_寸法3
 62
    7
 10
202.81396202491607
 20
235.73477269126715
 40
15
 41
1
 50
90
  1
23
  0
LINE
  8
_0-d_寸法3
  6
CONTINUOUS
 62
    7
 10
253.76399310350507
 20
214.06810602460067
 11
253.76399310350484
 21
196.9234141236953
  0
LINE
  8
_0-d_寸法3
  6
CONTINUOUS
 62
    7
 10
253.76399310350493
 20
201.9234141236953
 11
263.42325136639556
 21
204.51160457472042
  0
LINE
  8
_0-d_寸法3
  6
CONTINUOUS
 62
    7
 10
253.76399310350493
 20
201.9234141236953
 11
263.42325136639556
 21
199.33522367267003
  0
LINE
  8
_0-d_寸法3
  6
CONTINUOUS
 62
    7
 10
303.76399310350507
 20
252.4014393579339
 11
303.76399310350439
 21
196.9234141236953
  0
LINE
  8
_0-d_寸法3
  6
CONTINUOUS
 62
    7
 10
303.7639931035045
 20
201.9234141236953
 11
294.10473484061367
 21
199.33522367267003
  0
LINE
  8
_0-d_寸法3
  6
CONTINUOUS
 62
    7
 10
303.7639931035045
 20
201.9234141236953
 11
294.10473484061384
 21
204.51160457472048
  0
LINE
  8
_0-d_寸法3
  6
CONTINUOUS
 62
    7
 10
253.76399310350493
 20
201.9234141236953
 11
303.7639931035045
 21
201.9234141236953
  0
TEXT
  8
_0-d_寸法3
 62
    7
 10
271.26399310350462
 20
201.9234141236953
 40
15
 41
1
 50
0
  1
30
  0
ARC
  8
_0-b_細線3
  6
CONTINUOUS
 62
    7
 10
258.76399310350513
 20
267.4014393579339
 40
5
 50
179.99999999999983
 51
269.99999999999977
  0
LINE
  8
_0-b_細線3
  6
CONTINUOUS
 62
    7
 10
253.76399310350513
 20
267.4014393579339
 11
253.76399310350513
 21
291.56810602460041
  0
LINE
  8
_0-b_細線3
  6
CONTINUOUS
 62
    7
 10
258.76399310350513
 20
262.4014393579339
 11
302.93065977017164
 21
262.4014393579339
  0
LINE
  8
_0-b_細線3
  6
CONTINUOUS
 62
    7
 10
303.76399310350513
 20
263.23477269126715
 11
302.93065977017164
 21
262.4014393579339
  0
LINE
  8
_0-b_細線3
  6
CONTINUOUS
 62
    7
 10
303.76399310350513
 20
266.56810602460064
 11
303.76399310350513
 21
263.23477269126715
  0
LINE
  8
_0-b_細線3
  6
CONTINUOUS
 62
    7
 10
302.93065977017164
 20
267.4014393579339
 11
303.76399310350513
 21
266.56810602460064
  0
LINE
  8
_0-b_細線3
  6
CONTINUOUS
 62
    7
 10
258.76399310350513
 20
267.4014393579339
 11
302.93065977017164
 21
267.4014393579339
  0
LINE
  8
_0-b_細線3
  6
CONTINUOUS
 62
    7
 10
254.59732643683822
 20
292.4014393579339
 11
253.76399310350513
 21
291.56810602460041
  0
LINE
  8
_0-b_細線3
  6
CONTINUOUS
 62
    7
 10
257.93065977017164
 20
292.4014393579339
 11
254.59732643683822
 21
292.4014393579339
  0
LINE
  8
_0-b_細線3
  6
CONTINUOUS
 62
    7
 10
258.76399310350513
 20
291.56810602460041
 11
257.93065977017164
 21
292.4014393579339
  0
LINE
  8
_0-b_細線3
  6
CONTINUOUS
 62
    7
 10
258.76399310350513
 20
267.4014393579339
 11
258.76399310350513
 21
291.56810602460041
  0
LINE
  8
_0-b_細線3
  6
CONTINUOUS
 62
    7
 10
267.09732643683822
 20
267.40143935793344
 11
267.09732643683822
 21
292.40143935793321
  0
LINE
  8
_0-b_細線3
  6
CONTINUOUS
 62
    7
 10
267.09732643683822
 20
292.40143935793321
 11
262.09732643683822
 21
292.40143935793321
  0
LINE
  8
_0-b_細線3
  6
CONTINUOUS
 62
    7
 10
262.09732643683822
 20
292.40143935793321
 11
262.09732643683822
 21
267.40143935793344
  0
LINE
  8
_0-b_細線3
  6
CONTINUOUS
 62
    7
 10
262.09732643683822
 20
267.40143935793344
 11
267.09732643683822
 21
267.40143935793344
  0
CIRCLE
  8
_0-a_極細3
  6
CONTINUOUS
 62
    7
 10
759.09201034476314
 20
277.66688681163055
 40
0.5530864197530718
  0
CIRCLE
  8
_0-a_極細3
  6
CONTINUOUS
 62
    7
 10
707.09201034476359
 20
278.60022014496394
 40
0.5530864197530718
  0
LINE
  8
_0-a_極細3
  6
CONTINUOUS
 62
    7
 10
695.43065977017136
 20
292.4014393579339
 11
695.43065977017136
 21
280.73477269126693
  0
LINE
  8
_0-a_極細3
  6
CONTINUOUS
 62
    7
 10
695.43065977017136
 20
292.4014393579339
 11
784.60840691528597
 21
292.4014393579339
  0
LINE
  8
_0-a_極細3
  6
CONTINUOUS
 62
    7
 10
687.09732643683788
 20
280.73477269126693
 11
784.60840691528597
 21
280.73477269126693
  0
LINE
  8
_0-a_極細3
  6
CONTINUOUS
 62
    7
 10
687.09732643683788
 20
292.4014393579339
 11
695.43065977017136
 21
292.4014393579339
  0
LINE
  8
_0-a_極細3
  6
CONTINUOUS
 62
    7
 10
687.09732643683788
 20
291.56810602460041
 11
687.09732643683788
 21
292.4014393579339
  0
LINE
  8
_0-a_極細3
  6
CONTINUOUS
 62
    7
 10
695.43065977017136
 20
284.40385897199189
 11
691.76157348944639
 21
280.73477269126693
  0
LINE
  8
_0-a_極細3
  6
CONTINUOUS
 62
    7
 10
695.43065977017136
 20
288.64649965911099
 11
687.5189328023273
 21
280.73477269126693
  0
LINE
  8
_0-a_極細3
  6
CONTINUOUS
 62
    7
 10
687.09732643683788
 20
284.55580701289705
 11
694.94295878187472
 21
292.4014393579339
  0
LINE
  8
_0-a_極細3
  6
CONTINUOUS
 62
    7
 10
687.09732643683788
 20
288.79844770001637
 11
690.70031809475518
 21
292.40143935793367
  0
LINE
  8
_0-a_極細3
  6
CONTINUOUS
 62
    7
 10
695.43065977017136
 20
290.89211714842827
 11
693.92133756066573
 21
292.4014393579339
  0
LINE
  8
_0-a_極細3
  6
CONTINUOUS
 62
    7
 10
695.43065977017136
 20
286.64947646130895
 11
689.67869687354664
 21
292.4014393579339
  0
LINE
  8
_0-a_極細3
  6
CONTINUOUS
 62
    7
 10
695.43065977017136
 20
282.40683577418963
 11
687.09732643683788
 21
290.74016910752312
  0
LINE
  8
_0-a_極細3
  6
CONTINUOUS
 62
    7
 10
692.86008216597452
 20
280.73477269126693
 11
687.09732643683788
 21
286.4975284204038
  0
LINE
  8
_0-a_極細3
  6
CONTINUOUS
 62
    7
 10
688.61744147885543
 20
280.73477269126693
 11
687.09732643683788
 21
282.25488773328448
  0
LINE
  8
_0-a_極細3
  6
CONTINUOUS
 62
    7
 10
763.88646517047414
 20
280.73477269126693
 11
775.55313121035192
 21
292.40143873114471
  0
LINE
  8
_0-a_極細3
  6
CONTINUOUS
 62
    7
 10
742.67326173487777
 20
280.73477269126715
 11
754.33992794070423
 21
292.40143889709339
  0
LINE
  8
_0-a_極細3
  6
CONTINUOUS
 62
    7
 10
721.4600582992814
 20
280.73477269126693
 11
733.12672467105608
 21
292.40143906304161
  0
LINE
  8
_0-a_極細3
  6
CONTINUOUS
 62
    7
 10
700.24685486368514
 20
280.73477269126693
 11
711.91352140140839
 21
292.40143922899028
  0
LINE
  8
_0-a_極細3
  6
DASHED2
 62
    7
 10
774.49306688827278
 20
280.73477269126715
 11
784.60840691528597
 21
290.85011271828057
  0
LINE
  8
_0-a_極細3
  6
DASHED2
 62
    7
 10
753.27986345267607
 20
280.73477269126693
 11
764.94652957552785
 21
292.40143881411882
  0
LINE
  8
_0-a_極細3
  6
DASHED2
 62
    7
 10
732.06666001707958
 20
280.73477269126693
 11
743.73332630588027
 21
292.4014389800675
  0
LINE
  8
_0-a_極細3
  6
DASHED2
 62
    7
 10
710.85345658148321
 20
280.73477269126693
 11
722.52012303623201
 21
292.40143914601595
  0
LINE
  8
_0-a_極細3
  6
DASHED2
 62
    7
 10
695.43065977017136
 20
286.52517931555144
 11
701.30691976658443
 21
292.4014393119644
  0
LINE
  8
_0-a_極細3
  6
CONTINUOUS
 62
    7
 10
753.76399310350439
 20
255.73477269126715
 11
753.76399310350439
 21
187.4014393579339
  0
LINE
  8
_0-a_極細3
  6
CONTINUOUS
 62
    7
 10
670.43065977017136
 20
187.4014393579339
 11
753.76399310350439
 21
187.4014393579339
  0
LINE
  8
_0-a_極細3
  6
CONTINUOUS
 62
    7
 10
753.76399310350439
 20
255.73477269126715
 11
784.60840691528597
 21
255.73477269126715
  0
LINE
  8
_0-a_極細3
  6
CONTINUOUS
 62
    7
 10
670.43065977017136
 20
187.4014393579339
 11
670.43065977017136
 21
161.15983906315478
  0
LINE
  8
_0-a_極細3
  6
CONTINUOUS
 62
    7
 10
762.05399551809774
 20
161.15983906315478
 11
784.6084069568268
 21
183.71425050188378
  0
LINE
  8
_0-a_極細3
  6
CONTINUOUS
 62
    7
 10
691.34331739944287
 20
161.15983906315478
 11
717.58491769422176
 21
187.4014393579339
  0
LINE
  8
_0-a_極細3
  6
CONTINUOUS
 62
    7
 10
753.76399310350439
 20
223.58051476721656
 11
784.6084069160413
 21
254.42492857975344
  0
LINE
  8
_0-a_極細3
  6
CONTINUOUS
 62
    7
 10
754.98292770623198
 20
161.15983906315478
 11
784.60840695274806
 21
190.78531830967086
  0
LINE
  8
_0-a_極細3
  6
CONTINUOUS
 62
    7
 10
684.27224958757722
 20
161.15983906315478
 11
710.51384988235657
 21
187.4014393579339
  0
LINE
  8
_0-a_極細3
  6
CONTINUOUS
 62
    7
 10
753.76399310350439
 20
230.65158257908209
 11
778.84718303613931
 21
255.73477251171678
  0
LINE
  8
_0-a_極細3
  6
CONTINUOUS
 62
    7
 10
747.91185989436667
 20
161.15983906315478
 11
784.60840694866943
 21
197.85638611745782
  0
LINE
  8
_0-a_極細3
  6
CONTINUOUS
 62
    7
 10
677.2011817757118
 20
161.15983906315478
 11
703.44278207049115
 21
187.4014393579339
  0
LINE
  8
_0-a_極細3
  6
CONTINUOUS
 62
    7
 10
753.76399310350439
 20
237.72265039094762
 11
771.77611527489023
 21
255.73477256233289
  0
CIRCLE
  8
_0-a_極細3
  6
CONTINUOUS
 62
    7
 10
656.83645478920869
 20
246.25577570051999
 40
0.5530864197530718
  0
CIRCLE
  8
_0-a_極細3
  6
CONTINUOUS
 62
    7
 10
666.79201034476387
 20
251.05577570051992
 40
0.5530864197530718
  0
CIRCLE
  8
_0-a_極細3
  6
CONTINUOUS
 62
    7
 10
662.70312145587536
 20
226.0779979227425
 40
0.5530864197530718
  0
CIRCLE
  8
_0-a_極細3
  6
CONTINUOUS
 62
    7
 10
680.23645478920866
 20
209.05577570052037
 40
0.5530864197530718
  0
CIRCLE
  8
_0-a_極細3
  6
CONTINUOUS
 62
    7
 10
662.40312145587518
 20
185.75577570052062
 40
0.5530864197530718
  0
CIRCLE
  8
_0-a_極細3
  6
CONTINUOUS
 62
    7
 10
653.06978812254215
 20
167.88910903385414
 40
0.5530864197530718
  0
CIRCLE
  8
_0-a_極細3
  6
CONTINUOUS
 62
    7
 10
664.53645478920851
 20
197.75577570052042
 40
0.5530864197530718
  0
CIRCLE
  8
_0-a_極細3
  6
CONTINUOUS
 62
    7
 10
678.40312145587518
 20
192.95577570052046
 40
0.5530864197530718
  0
CIRCLE
  8
_0-a_極細3
  6
CONTINUOUS
 62
    7
 10
705.33645478920857
 20
193.22244236718717
 40
0.5530864197530718
  0
CIRCLE
  8
_0-a_極細3
  6
CONTINUOUS
 62
    7
 10
693.33645478920857
 20
202.28910903385369
 40
0.5530864197530718
  0
CIRCLE
  8
_0-a_極細3
  6
CONTINUOUS
 62
    7
 10
704.53645478920851
 20
207.88910903385363
 40
0.5530864197530718
  0
CIRCLE
  8
_0-a_極細3
  6
CONTINUOUS
 62
    7
 10
692.55867701143029
 20
262.17799792274195
 40
0.5530864197530718
  0
CIRCLE
  8
_0-a_極細3
  6
CONTINUOUS
 62
    7
 10
713.09201034476359
 20
261.46688681163096
 40
0.5530864197530718
  0
CIRCLE
  8
_0-a_極細3
  6
CONTINUOUS
 62
    7
 10
701.4920103447638
 20
247.46688681163096
 40
0.5530864197530718
  0
CIRCLE
  8
_0-a_極細3
  6
CONTINUOUS
 62
    7
 10
740.6920103447635
 20
194.26688681163157
 40
0.5530864197530718
  0
CIRCLE
  8
_0-a_極細3
  6
CONTINUOUS
 62
    7
 10
747.89201034476332
 20
208.26688681163162
 40
0.5530864197530718
  0
CIRCLE
  8
_0-a_極細3
  6
CONTINUOUS
 62
    7
 10
746.29201034476296
 20
229.06688681163132
 40
0.5530864197530718
  0
CIRCLE
  8
_0-a_極細3
  6
CONTINUOUS
 62
    7
 10
728.29201034476341
 20
250.26688681163114
 40
0.5530864197530718
  0
CIRCLE
  8
_0-a_極細3
  6
CONTINUOUS
 62
    7
 10
745.09201034476314
 20
269.86688681163082
 40
0.5530864197530718
  0
CIRCLE
  8
_0-a_極細3
  6
CONTINUOUS
 62
    7
 10
742.29201034476307
 20
243.06688681163109
 40
0.5530864197530718
  0
CIRCLE
  8
_0-a_極細3
  6
CONTINUOUS
 62
    7
 10
771.89201034476298
 20
264.26688681163091
 40
0.5530864197530718
  0
CIRCLE
  8
_0-a_極細3
  6
CONTINUOUS
 62
    7
 10
767.09201034476268
 20
278.03694854002583
 40
1.825531472681392
  0
CIRCLE
  8
_0-a_極細3
  6
CONTINUOUS
 62
    7
 10
751.44756590031864
 20
262.57028187335936
 40
1.825531472681392
  0
CIRCLE
  8
_0-a_極細3
  6
CONTINUOUS
 62
    7
 10
696.02534367809699
 20
269.14805965113715
 40
1.825531472681392
  0
CIRCLE
  8
_0-a_極細3
  6
CONTINUOUS
 62
    7
 10
728.02534367809653
 20
237.1480596511374
 40
1.825531472681392
  0
CIRCLE
  8
_0-a_極細3
  6
CONTINUOUS
 62
    7
 10
657.63089923365328
 20
192.59805965113785
 40
1.825531472681392
  0
CIRCLE
  8
_0-a_極細3
  6
CONTINUOUS
 62
    7
 10
667.853121455875
 20
222.46472631780446
 40
1.825531472681392
  0
CIRCLE
  8
_0-a_極細3
  6
CONTINUOUS
 62
    7
 10
703.05312145587482
 20
200.06472631780454
 40
1.825531472681392
  0
CIRCLE
  8
_0-a_極細3
  6
CONTINUOUS
 62
    7
 10
749.31831409115853
 20
189.87767392583507
 40
1.825531472681392
  0
CIRCLE
  8
_0-a_極細3
  6
CONTINUOUS
 62
    7
 10
698.65312145587484
 20
243.26472631780419
 40
1.825531472681392
  0
CIRCLE
  8
_0-a_極細3
  6
CONTINUOUS
 62
    7
 10
651.18707207315924
 20
237.84152091076774
 40
0.5530864197530718
  0
CIRCLE
  8
_0-a_極細3
  6
CONTINUOUS
 62
    7
 10
651.38707207315997
 20
213.88596535521245
 40
0.5530864197530718
  0
CIRCLE
  8
_0-a_極細3
  6
CONTINUOUS
 62
    7
 10
728.42534367809662
 20
274.61472631780384
 40
1.825531472681392
  0
LINE
  8
_0-a_極細3
  6
CONTINUOUS
 62
    7
 10
637.93065977017045
 20
262.4014393579339
 11
637.09732643683742
 21
262.4014393579339
  0
LINE
  8
_0-a_極細3
  6
CONTINUOUS
 62
    7
 10
637.09732643683742
 20
262.4014393579339
 11
637.09732643683742
 21
161.15983906315478
  0
CIRCLE
  8
_0-a_極細3
  6
CONTINUOUS
 62
    7
 10
643.08172227892089
 20
222.34466458940915
 40
0.5530864197530718
  0
CIRCLE
  8
_0-a_極細3
  6
CONTINUOUS
 62
    7
 10
644.38830664106058
 20
183.08910903385396
 40
0.5530864197530718
  0
CIRCLE
  8
_0-a_極細3
  6
CONTINUOUS
 62
    7
 10
643.74941775217098
 20
249.04250409558244
 40
1.825531472681392
  0
CIRCLE
  8
_0-a_極細3
  6
CONTINUOUS
 62
    7
 10
646.69756590031898
 20
176.42028187335995
 40
1.825531472681392
  0
LINE
  8
_0-a_極細3
  6
CONTINUOUS
 62
    7
 10
730.73739465732319
 20
212.28314052043743
 11
735.86769680720852
 21
226.37852983222592
  0
LINE
  8
_0-a_極細3
  6
CONTINUOUS
 62
    7
 10
680.74335198352696
 20
246.44215053147221
 11
675.61304983364221
 21
232.34676121968369
  0
LINE
  8
_0-a_極細3
  6
CONTINUOUS
 62
    7
 10
735.86769680720852
 20
226.37852983222592
 11
680.74335198352696
 21
246.44215053147221
  0
LINE
  8
_0-a_極細3
  6
CONTINUOUS
 62
    7
 10
730.73739465732319
 20
212.28314052043743
 11
675.61304983364221
 21
232.34676121968369
  0
LINE
  8
_0-a_極細3
  6
CENTER1
 62
    7
 10
738.25797912425855
 20
217.52720513630177
 11
674.22695864169316
 21
240.8325906213372
  0
LINE
  8
_0-a_極細3
  6
CONTINUOUS
 62
    7
 10
712.09732643683788
 20
187.4014393579339
 11
712.09732643683788
 21
231.48700070625
  0
LINE
  8
_0-a_極細3
  6
CONTINUOUS
 62
    7
 10
712.09732643683788
 20
231.48700070625
 11
727.09732643683788
 21
231.48700070625
  0
LINE
  8
_0-a_極細3
  6
CONTINUOUS
 62
    7
 10
727.09732643683788
 20
231.48700070625
 11
727.09732643683788
 21
187.4014393579339
  0
LINE
  8
_0-a_極細3
  6
CENTER1
 62
    7
 10
719.59732643683788
 20
179.12469907348097
 11
719.59732643683788
 21
235.76272087085954
  0
CIRCLE
  8
_0-a_極細3
  6
CONTINUOUS
 62
    7
 10
713.71423256698631
 20
244.56318310792744
 40
0.5530864197530718
  0
CIRCLE
  8
_0-a_極細3
  6
CONTINUOUS
 62
    7
 10
735.93041912391323
 20
231.21997323138456
 40
0.5530864197530718
  0
LINE
  8
_0-d_寸法3
  6
CONTINUOUS
 62
    7
 10
687.09732643683833
 20
214.06810602460067
 11
687.09732643683833
 21
196.9234141236953
  0
LINE
  8
_0-d_寸法3
  6
CONTINUOUS
 62
    7
 10
687.09732643683833
 20
201.9234141236953
 11
677.43806817394773
 21
199.33522367267003
  0
LINE
  8
_0-d_寸法3
  6
CONTINUOUS
 62
    7
 10
687.09732643683833
 20
201.9234141236953
 11
677.43806817394773
 21
204.51160457472042
  0
LINE
  8
_0-d_寸法3
  6
CONTINUOUS
 62
    7
 10
637.09732643683833
 20
252.4014393579339
 11
637.09732643683833
 21
196.9234141236953
  0
LINE
  8
_0-d_寸法3
  6
CONTINUOUS
 62
    7
 10
637.09732643683833
 20
201.9234141236953
 11
646.75658469972905
 21
204.51160457472048
  0
LINE
  8
_0-d_寸法3
  6
CONTINUOUS
 62
    7
 10
637.09732643683833
 20
201.9234141236953
 11
646.75658469972905
 21
199.33522367267003
  0
LINE
  8
_0-d_寸法3
  6
CONTINUOUS
 62
    7
 10
687.09732643683833
 20
201.9234141236953
 11
637.09732643683833
 21
201.9234141236953
  0
TEXT
  8
_0-d_寸法3
 62
    7
 10
654.59732643683833
 20
201.92341412369524
 40
15
 41
1
 50
0.0000000000002714
  1
30
  0
ARC
  8
_0-b_細線3
  6
CONTINUOUS
 62
    7
 10
682.09732643683788
 20
267.4014393579339
 40
5
 50
269.99999999999977
 51
359.99999999999966
  0
LINE
  8
_0-b_細線3
  6
CONTINUOUS
 62
    7
 10
687.09732643683788
 20
267.4014393579339
 11
687.09732643683788
 21
291.56810602460041
  0
LINE
  8
_0-b_細線3
  6
CONTINUOUS
 62
    7
 10
682.09732643683788
 20
262.4014393579339
 11
637.93065977017045
 21
262.4014393579339
  0
LINE
  8
_0-b_細線3
  6
CONTINUOUS
 62
    7
 10
637.09732643683742
 20
263.23477269126715
 11
637.93065977017045
 21
262.4014393579339
  0
LINE
  8
_0-b_細線3
  6
CONTINUOUS
 62
    7
 10
637.09732643683742
 20
266.56810602460064
 11
637.09732643683742
 21
263.23477269126715
  0
LINE
  8
_0-b_細線3
  6
CONTINUOUS
 62
    7
 10
637.93065977017045
 20
267.4014393579339
 11
637.09732643683742
 21
266.56810602460064
  0
LINE
  8
_0-b_細線3
  6
CONTINUOUS
 62
    7
 10
682.09732643683788
 20
267.4014393579339
 11
637.93065977017045
 21
267.4014393579339
  0
LINE
  8
_0-b_細線3
  6
CONTINUOUS
 62
    7
 10
686.26399310350496
 20
292.4014393579339
 11
687.09732643683788
 21
291.56810602460041
  0
LINE
  8
_0-b_細線3
  6
CONTINUOUS
 62
    7
 10
682.93065977017136
 20
292.4014393579339
 11
686.26399310350496
 21
292.4014393579339
  0
LINE
  8
_0-b_細線3
  6
CONTINUOUS
 62
    7
 10
682.09732643683788
 20
291.56810602460041
 11
682.93065977017136
 21
292.4014393579339
  0
LINE
  8
_0-b_細線3
  6
CONTINUOUS
 62
    7
 10
682.09732643683788
 20
267.4014393579339
 11
682.09732643683788
 21
291.56810602460041
  0
LINE
  8
_0-b_細線3
  6
CONTINUOUS
 62
    7
 10
673.76399310350496
 20
267.40143935793412
 11
673.76399310350496
 21
292.4014393579339
  0
LINE
  8
_0-b_細線3
  6
CONTINUOUS
 62
    7
 10
673.76399310350496
 20
292.4014393579339
 11
678.76399310350496
 21
292.4014393579339
  0
LINE
  8
_0-b_細線3
  6
CONTINUOUS
 62
    7
 10
678.76399310350496
 20
292.4014393579339
 11
678.76399310350496
 21
267.40143935793412
  0
LINE
  8
_0-b_細線3
  6
CONTINUOUS
 62
    7
 10
678.76399310350496
 20
267.40143935793412
 11
673.76399310350496
 21
267.40143935793412
  0
LINE
  8
_0-b_細線3
  6
CONTINUOUS
 62
    7
 10
673.76399310350496
 20
292.4014393579339
 11
267.09732643683822
 21
292.40143935793321
  0
LINE
  8
_0-d_寸法3
  6
CONTINUOUS
 62
    7
 10
303.76399310350513
 20
257.4014393579339
 11
303.76399310350513
 21
196.9234141236953
  0
LINE
  8
_0-d_寸法3
  6
CONTINUOUS
 62
    7
 10
303.76399310350513
 20
201.9234141236953
 11
313.42325136639579
 21
204.51160457472042
  0
LINE
  8
_0-d_寸法3
  6
CONTINUOUS
 62
    7
 10
303.76399310350513
 20
201.9234141236953
 11
313.42325136639579
 21
199.33522367267003
  0
LINE
  8
_0-d_寸法3
  6
CONTINUOUS
 62
    7
 10
637.09732643683742
 20
257.4014393579339
 11
637.09732643683742
 21
196.9234141236953
  0
LINE
  8
_0-d_寸法3
  6
CONTINUOUS
 62
    7
 10
637.09732643683742
 20
201.9234141236953
 11
627.4380681739467
 21
199.33522367267003
  0
LINE
  8
_0-d_寸法3
  6
CONTINUOUS
 62
    7
 10
637.09732643683742
 20
201.9234141236953
 11
627.4380681739467
 21
204.51160457472048
  0
LINE
  8
_0-d_寸法3
  6
CONTINUOUS
 62
    7
 10
303.76399310350513
 20
201.9234141236953
 11
637.09732643683742
 21
201.9234141236953
  0
TEXT
  8
_0-d_寸法3
 62
    7
 10
459.18065977017142
 20
201.9234141236953
 40
15
 41
1
 50
0
  1
200
  0
LINE
  8
_0-b_細線3
  6
CONTINUOUS
 62
    7
 10
673.76399310350496
 20
267.40143935793412
 11
267.09732643683822
 21
267.40143935793344
  0
LINE
  8
_0-a_極細3
  6
CENTER1
 62
    7
 10
689.76408150466
 20
279.9014393579339
 11
252.11000065896457
 21
279.9014393579339
  0
ARC
  8
_0-b_細線3
  6
CONTINUOUS
 62
    7
 10
303.76399310350513
 20
279.9014393579339
 40
8.75
 50
294.03943363457506
 51
65.960566365424228
  0
ARC
  8
_0-b_細線3
  6
CONTINUOUS
 62
    7
 10
303.76399310350513
 20
279.9014393579339
 40
8.75
 50
114.03943363457542
 51
245.96056636541877
  0
ARC
  8
_0-b_細線3
  6
CONTINUOUS
 62
    7
 10
303.7639931034978
 20
274.06810602454311
 40
2.4999999999928004
 50
179.99999999999983
 51
359.99999999999966
  0
LINE
  8
_0-b_細線3
  6
CONTINUOUS
 62
    7
 10
301.26399310350513
 20
285.73477269126738
 11
301.26399310350513
 21
274.06810602460064
  0
ARC
  8
_0-b_細線3
  6
CONTINUOUS
 62
    7
 10
303.7639931034978
 20
285.73477269133923
 40
2.5000000000072005
 50
0
 51
179.99999999999983
  0
LINE
  8
_0-b_細線3
  6
CONTINUOUS
 62
    7
 10
306.26399310350513
 20
274.06810602460064
 11
306.26399310350513
 21
285.73477269126738
  0
ARC
  8
_0-b_細線3
  6
CONTINUOUS
 62
    7
 10
303.76399310351064
 20
274.06810602458177
 40
4.1666666666723522
 50
179.99999999999983
 51
359.99999999999966
  0
LINE
  8
_0-b_細線3
  6
CONTINUOUS
 62
    7
 10
299.59732643683907
 20
285.73477269126738
 11
299.59732643683907
 21
274.06810602460064
  0
ARC
  8
_0-b_細線3
  6
CONTINUOUS
 62
    7
 10
303.76399310347239
 20
285.73477269136515
 40
4.1666666667000154
 50
0
 51
179.99999999999983
  0
LINE
  8
_0-b_細線3
  6
CONTINUOUS
 62
    7
 10
307.93065977017204
 20
274.06810602460064
 11
307.93065977017204
 21
285.73477269126738
  0
ARC
  8
_0-b_細線3
  6
CONTINUOUS
 62
    7
 10
637.09732643683833
 20
279.9014393579339
 40
8.75
 50
294.03943363457506
 51
65.960566365424228
  0
ARC
  8
_0-b_細線3
  6
CONTINUOUS
 62
    7
 10
637.09732643683833
 20
279.9014393579339
 40
8.75
 50
114.03943363457542
 51
245.96056636541877
  0
ARC
  8
_0-b_細線3
  6
CONTINUOUS
 62
    7
 10
637.09732643683105
 20
274.06810602454311
 40
2.4999999999928004
 50
179.99999999999983
 51
359.99999999999966
  0
LINE
  8
_0-b_細線3
  6
CONTINUOUS
 62
    7
 10
634.59732643683833
 20
285.73477269126738
 11
634.59732643683833
 21
274.06810602460064
  0
ARC
  8
_0-b_細線3
  6
CONTINUOUS
 62
    7
 10
637.09732643683105
 20
285.73477269133923
 40
2.5000000000072005
 50
0
 51
179.99999999999983
  0
LINE
  8
_0-b_細線3
  6
CONTINUOUS
 62
    7
 10
639.59732643683833
 20
274.06810602460064
 11
639.59732643683833
 21
285.73477269126738
  0
ARC
  8
_0-b_細線3
  6
CONTINUOUS
 62
    7
 10
637.09732643684379
 20
274.06810602458177
 40
4.1666666666723522
 50
179.99999999999983
 51
359.99999999999966
  0
LINE
  8
_0-b_細線3
  6
CONTINUOUS
 62
    7
 10
632.93065977017227
 20
285.73477269126738
 11
632.93065977017227
 21
274.06810602460064
  0
ARC
  8
_0-b_細線3
  6
CONTINUOUS
 62
    7
 10
637.09732643680559
 20
285.73477269136515
 40
4.1666666667000154
 50
0
 51
179.99999999999983
  0
LINE
  8
_0-b_細線3
  6
CONTINUOUS
 62
    7
 10
641.2639931035053
 20
274.06810602460064
 11
641.2639931035053
 21
285.73477269126738
  0
ARC
  8
_0-b_細線3
  6
CONTINUOUS
 62
    7
 10
470.43065977017193
 20
279.9014393579339
 40
8.75
 50
294.03943363457506
 51
65.960566365424228
  0
ARC
  8
_0-b_細線3
  6
CONTINUOUS
 62
    7
 10
470.43065977017193
 20
279.9014393579339
 40
8.75
 50
114.03943363457542
 51
245.96056636541877
  0
ARC
  8
_0-b_細線3
  6
CONTINUOUS
 62
    7
 10
470.4306597701646
 20
274.06810602454311
 40
2.4999999999928004
 50
179.99999999999983
 51
359.99999999999966
  0
LINE
  8
_0-b_細線3
  6
CONTINUOUS
 62
    7
 10
467.93065977017193
 20
285.73477269126738
 11
467.93065977017193
 21
274.06810602460064
  0
ARC
  8
_0-b_細線3
  6
CONTINUOUS
 62
    7
 10
470.4306597701646
 20
285.73477269133923
 40
2.5000000000072005
 50
0
 51
179.99999999999983
  0
LINE
  8
_0-b_細線3
  6
CONTINUOUS
 62
    7
 10
472.93065977017193
 20
274.06810602460064
 11
472.93065977017193
 21
285.73477269126738
  0
ARC
  8
_0-b_細線3
  6
CONTINUOUS
 62
    7
 10
470.43065977017733
 20
274.06810602458177
 40
4.1666666666723522
 50
179.99999999999983
 51
359.99999999999966
  0
LINE
  8
_0-b_細線3
  6
CONTINUOUS
 62
    7
 10
466.26399310350587
 20
285.73477269126738
 11
466.26399310350587
 21
274.06810602460064
  0
ARC
  8
_0-b_細線3
  6
CONTINUOUS
 62
    7
 10
470.43065977013919
 20
285.73477269136515
 40
4.1666666667000154
 50
0
 51
179.99999999999983
  0
LINE
  8
_0-b_細線3
  6
CONTINUOUS
 62
    7
 10
474.59732643683884
 20
274.06810602460064
 11
474.59732643683884
 21
285.73477269126738
  0
LINE
  8
_0-d_寸法3
  6
CONTINUOUS
 62
    7
 10
253.76399310350513
 20
297.4014393579339
 11
253.76399310350536
 21
417.4014393579339
  0
LINE
  8
_0-d_寸法3
  6
CONTINUOUS
 62
    7
 10
253.76399310350536
 20
412.4014393579339
 11
263.42325136639602
 21
414.98962980895908
  0
LINE
  8
_0-d_寸法3
  6
CONTINUOUS
 62
    7
 10
253.76399310350536
 20
412.4014393579339
 11
263.42325136639602
 21
409.81324890690871
  0
LINE
  8
_0-d_寸法3
  6
CONTINUOUS
 62
    7
 10
687.09732643683788
 20
297.4014393579339
 11
687.09732643683833
 21
417.4014393579339
  0
LINE
  8
_0-d_寸法3
  6
CONTINUOUS
 62
    7
 10
687.09732643683833
 20
412.4014393579339
 11
677.43806817394773
 21
409.81324890690871
  0
LINE
  8
_0-d_寸法3
  6
CONTINUOUS
 62
    7
 10
687.09732643683833
 20
412.4014393579339
 11
677.43806817394773
 21
414.98962980895919
  0
LINE
  8
_0-d_寸法3
  6
CONTINUOUS
 62
    7
 10
253.76399310350536
 20
412.4014393579339
 11
687.09732643683833
 21
412.4014393579339
  0
TEXT
  8
_0-d_寸法3
 62
    7
 10
459.18065977017142
 20
412.4014393579339
 40
15
 41
1
 50
0
  1
260
  0
LINE
  8
_0-d_寸法3
  6
CONTINUOUS
 62
    7
 10
262.09732643683822
 20
302.4014393579339
 11
262.09732643683833
 21
347.4014393579339
  0
LINE
  8
_0-d_寸法3
  6
CONTINUOUS
 62
    7
 10
262.09732643683833
 20
342.4014393579339
 11
271.75658469972905
 21
344.98962980895908
  0
LINE
  8
_0-d_寸法3
  6
CONTINUOUS
 62
    7
 10
262.09732643683833
 20
342.4014393579339
 11
271.75658469972905
 21
339.81324890690871
  0
LINE
  8
_0-d_寸法3
  6
CONTINUOUS
 62
    7
 10
303.76399310350496
 20
302.4014393579339
 11
303.76399310350496
 21
347.4014393579339
  0
LINE
  8
_0-d_寸法3
  6
CONTINUOUS
 62
    7
 10
303.76399310350496
 20
342.4014393579339
 11
294.10473484061419
 21
339.81324890690871
  0
LINE
  8
_0-d_寸法3
  6
CONTINUOUS
 62
    7
 10
303.76399310350496
 20
342.4014393579339
 11
294.10473484061424
 21
344.98962980895919
  0
LINE
  8
_0-d_寸法3
  6
CONTINUOUS
 62
    7
 10
262.09732643683833
 20
342.4014393579339
 11
303.76399310350496
 21
342.4014393579339
  0
TEXT
  8
_0-d_寸法3
 62
    7
 10
275.43065977017164
 20
342.4014393579339
 40
15
 41
1
 50
0
  1
25
  0
LINE
  8
_0-d_寸法3
  6
CONTINUOUS
 62
    7
 10
303.76399310350496
 20
342.4014393579339
 11
313.42325136639556
 21
344.98962980895902
  0
LINE
  8
_0-d_寸法3
  6
CONTINUOUS
 62
    7
 10
303.76399310350496
 20
342.4014393579339
 11
313.42325136639556
 21
339.81324890690865
  0
LINE
  8
_0-d_寸法3
  6
CONTINUOUS
 62
    7
 10
470.43065977017193
 20
302.40143935793344
 11
470.43065977017193
 21
347.4014393579339
  0
LINE
  8
_0-d_寸法3
  6
CONTINUOUS
 62
    7
 10
470.43065977017193
 20
342.4014393579339
 11
460.77140150728121
 21
339.81324890690871
  0
LINE
  8
_0-d_寸法3
  6
CONTINUOUS
 62
    7
 10
470.43065977017193
 20
342.4014393579339
 11
460.77140150728127
 21
344.98962980895919
  0
LINE
  8
_0-d_寸法3
  6
CONTINUOUS
 62
    7
 10
303.76399310350496
 20
342.4014393579339
 11
470.43065977017193
 21
342.4014393579339
  0
TEXT
  8
_0-d_寸法3
 62
    7
 10
375.84732643683844
 20
342.4014393579339
 40
15
 41
1
 50
0
  1
100
  0
LINE
  8
_0-d_寸法3
  6
CONTINUOUS
 62
    7
 10
470.43065977017193
 20
342.4014393579339
 11
480.08991803306259
 21
344.98962980895902
  0
LINE
  8
_0-d_寸法3
  6
CONTINUOUS
 62
    7
 10
470.43065977017193
 20
342.4014393579339
 11
480.08991803306259
 21
339.81324890690865
  0
LINE
  8
_0-d_寸法3
  6
CONTINUOUS
 62
    7
 10
637.09732643683742
 20
302.40143935793344
 11
637.09732643683742
 21
347.4014393579339
  0
LINE
  8
_0-d_寸法3
  6
CONTINUOUS
 62
    7
 10
637.09732643683742
 20
342.4014393579339
 11
627.4380681739467
 21
339.81324890690871
  0
LINE
  8
_0-d_寸法3
  6
CONTINUOUS
 62
    7
 10
637.09732643683742
 20
342.4014393579339
 11
627.4380681739467
 21
344.98962980895919
  0
LINE
  8
_0-d_寸法3
  6
CONTINUOUS
 62
    7
 10
470.43065977017193
 20
342.4014393579339
 11
637.09732643683742
 21
342.4014393579339
  0
TEXT
  8
_0-d_寸法3
 62
    7
 10
542.51399310350484
 20
342.4014393579339
 40
15
 41
1
 50
0
  1
100
  0
LINE
  8
_0-d_寸法3
  6
CONTINUOUS
 62
    7
 10
637.09732643683742
 20
342.4014393579339
 11
646.75658469972814
 21
344.98962980895902
  0
LINE
  8
_0-d_寸法3
  6
CONTINUOUS
 62
    7
 10
637.09732643683742
 20
342.4014393579339
 11
646.75658469972814
 21
339.81324890690865
  0
LINE
  8
_0-d_寸法3
  6
CONTINUOUS
 62
    7
 10
678.76399310350496
 20
302.4014393579339
 11
678.7639931035053
 21
347.4014393579339
  0
LINE
  8
_0-d_寸法3
  6
CONTINUOUS
 62
    7
 10
678.7639931035053
 20
342.4014393579339
 11
669.10473484061458
 21
339.81324890690871
  0
LINE
  8
_0-d_寸法3
  6
CONTINUOUS
 62
    7
 10
678.7639931035053
 20
342.4014393579339
 11
669.10473484061458
 21
344.98962980895919
  0
LINE
  8
_0-d_寸法3
  6
CONTINUOUS
 62
    7
 10
637.09732643683742
 20
342.4014393579339
 11
678.7639931035053
 21
342.4014393579339
  0
TEXT
  8
_0-d_寸法3
 62
    7
 10
650.43065977017136
 20
342.4014393579339
 40
15
 41
1
 50
0
  1
25
  0
LINE
  8
_0-7_枠細線
  6
CONTINUOUS
 62
    5
 10
1139.401817115018
 20
373.42884000293418
 11
1139.401817115018
 21
453.42884000293424
  0
LINE
  8
_0-7_枠細線
  6
CONTINUOUS
 62
    5
 10
1229.401817115018
 20
373.42884000293418
 11
1229.401817115018
 21
453.42884000293424
  0
TEXT
  8
_0-7_枠細線
 62
    5
 10
1251.901817115018
 20
430.92884000293424
 40
15
 41
1
 50
0
  1
蓋重量
  0
LINE
  8
_0-7_枠細線
  6
CONTINUOUS
 62
    5
 10
1319.4018171150183
 20
373.42884000293418
 11
1319.4018171150183
 21
453.42884000293424
  0
TEXT
  8
_0-7_枠細線
 62
    5
 10
1341.9018171150183
 20
430.92884000293424
 40
15
 41
1
 50
0
  1
枠重量
  0
LINE
  8
_0-7_枠細線
  6
CONTINUOUS
 62
    5
 10
1139.401817115018
 20
423.42884000293424
 11
1409.4018171150183
 21
423.42884000293424
  0
LINE
  8
_0-7_枠細線
  6
CONTINUOUS
 62
    5
 10
1139.401817115018
 20
453.42884000293424
 11
1409.4018171150183
 21
453.42884000293424
  0
LINE
  8
_0-7_枠細線
  6
CONTINUOUS
 62
    5
 10
1139.401817115018
 20
373.42884000293418
 11
1409.4018171150183
 21
373.42884000293418
  0
LINE
  8
_0-7_枠細線
  6
CONTINUOUS
 62
    5
 10
1409.4018171150183
 20
373.42884000293418
 11
1409.4018171150183
 21
453.42884000293424
  0
TEXT
  8
_0-7_枠細線
 62
    5
 10
1154.401817115018
 20
430.92884000293424
 40
15
 41
1
 50
0
  1
適用荷重
  0
TEXT
  8
_0-7_枠細線
 62
    5
 10
1334.4018171150183
 20
392.17884000293424
 40
15
 41
0.8000000000000001
 50
0
  1
2.2kg/ｍ組
  0
TEXT
  8
_0-7_枠細線
 62
    5
 10
1161.901817115018
 20
400.92884000293424
 40
15
 41
1
 50
0
  1
歩道用
  0
TEXT
  8
_0-7_枠細線
 62
    5
 10
1139.401817115018
 20
380.92884000293418
 40
15
 41
1
 50
0
  1
（5.0kN/㎡）
  0
TEXT
  8
_0-7_枠細線
 62
    5
 10
1250.4018171150183
 20
392.17884000293424
 40
15
 41
0.8000000000000001
 50
0
  1
4.6kg/枚
  0
LINE
  8
_0-0_計極細
  6
CONTINUOUS
 62
    2
 10
1210.933749903621
 20
684.43908616188526
 11
1204.933749903621
 21
684.43908616188526
  0
LINE
  8
_0-0_計極細
  6
CONTINUOUS
 62
    2
 10
1210.933749903621
 20
679.43908616188526
 11
1204.933749903621
 21
679.43908616188526
  0
LINE
  8
_0-0_計極細
  6
CONTINUOUS
 62
    2
 10
1196.933749903621
 20
684.43908616188526
 11
1190.933749903621
 21
684.43908616188526
  0
LINE
  8
_0-0_計極細
  6
CONTINUOUS
 62
    2
 10
1196.933749903621
 20
679.43908616188526
 11
1190.933749903621
 21
679.43908616188526
  0
LINE
  8
_0-0_計極細
  6
CONTINUOUS
 62
    2
 10
1182.933749903621
 20
684.43908616188526
 11
1176.933749903621
 21
684.43908616188526
  0
LINE
  8
_0-0_計極細
  6
CONTINUOUS
 62
    2
 10
1182.933749903621
 20
679.43908616188526
 11
1176.933749903621
 21
679.43908616188526
  0
LINE
  8
_0-0_計極細
  6
CONTINUOUS
 62
    2
 10
1168.933749903621
 20
684.43908616188526
 11
1162.933749903621
 21
684.43908616188526
  0
LINE
  8
_0-0_計極細
  6
CONTINUOUS
 62
    2
 10
1168.933749903621
 20
679.43908616188526
 11
1162.933749903621
 21
679.43908616188526
  0
LINE
  8
_0-0_計極細
  6
CONTINUOUS
 62
    2
 10
1154.933749903621
 20
684.43908616188526
 11
1148.933749903621
 21
684.43908616188526
  0
LINE
  8
_0-0_計極細
  6
CONTINUOUS
 62
    2
 10
1154.933749903621
 20
679.43908616188526
 11
1148.933749903621
 21
679.43908616188526
  0
LINE
  8
_0-0_計極細
  6
CONTINUOUS
 62
    2
 10
1140.933749903621
 20
684.43908616188526
 11
1134.933749903621
 21
684.43908616188526
  0
LINE
  8
_0-0_計極細
  6
CONTINUOUS
 62
    2
 10
1140.933749903621
 20
679.43908616188526
 11
1134.933749903621
 21
679.43908616188526
  0
LINE
  8
_0-0_計極細
  6
CONTINUOUS
 62
    2
 10
1126.933749903621
 20
684.43908616188526
 11
1120.9337499036214
 21
684.43908616188526
  0
LINE
  8
_0-0_計極細
  6
CONTINUOUS
 62
    2
 10
1126.933749903621
 20
679.43908616188526
 11
1120.9337499036214
 21
679.43908616188526
  0
LINE
  8
_0-0_計極細
  6
CONTINUOUS
 62
    2
 10
1112.9337499036214
 20
684.43908616188526
 11
1106.9337499036214
 21
684.43908616188526
  0
LINE
  8
_0-0_計極細
  6
CONTINUOUS
 62
    2
 10
1112.9337499036214
 20
679.43908616188526
 11
1106.9337499036214
 21
679.43908616188526
  0
LINE
  8
_0-0_計極細
  6
CONTINUOUS
 62
    2
 10
1098.9337499036214
 20
684.43908616188526
 11
1092.9337499036214
 21
684.43908616188526
  0
LINE
  8
_0-0_計極細
  6
CONTINUOUS
 62
    2
 10
1098.9337499036214
 20
679.43908616188526
 11
1092.9337499036214
 21
679.43908616188526
  0
LINE
  8
_0-0_計極細
  6
CONTINUOUS
 62
    2
 10
1084.9337499036214
 20
684.43908616188526
 11
1078.9337499036214
 21
684.43908616188526
  0
LINE
  8
_0-0_計極細
  6
CONTINUOUS
 62
    2
 10
1084.9337499036214
 20
679.43908616188526
 11
1078.9337499036214
 21
679.43908616188526
  0
LINE
  8
_0-0_計極細
  6
CONTINUOUS
 62
    2
 10
1070.9337499036214
 20
684.43908616188526
 11
1064.9337499036214
 21
684.43908616188526
  0
LINE
  8
_0-0_計極細
  6
CONTINUOUS
 62
    2
 10
1070.9337499036214
 20
679.43908616188526
 11
1064.9337499036214
 21
679.43908616188526
  0
LINE
  8
_0-0_計極細
  6
CONTINUOUS
 62
    2
 10
1056.9337499036214
 20
684.43908616188526
 11
1050.9337499036214
 21
684.43908616188526
  0
LINE
  8
_0-0_計極細
  6
CONTINUOUS
 62
    2
 10
1056.9337499036214
 20
679.43908616188526
 11
1050.9337499036214
 21
679.43908616188526
  0
LINE
  8
_0-0_計極細
  6
CONTINUOUS
 62
    2
 10
1042.9337499036214
 20
684.43908616188526
 11
1036.9337499036214
 21
684.43908616188526
  0
LINE
  8
_0-0_計極細
  6
CONTINUOUS
 62
    2
 10
1042.9337499036214
 20
679.43908616188526
 11
1036.9337499036214
 21
679.43908616188526
  0
LINE
  8
_0-0_計極細
  6
CONTINUOUS
 62
    2
 10
1028.9337499036214
 20
684.43908616188526
 11
1022.9337499036216
 21
684.43908616188526
  0
LINE
  8
_0-0_計極細
  6
CONTINUOUS
 62
    2
 10
1028.9337499036214
 20
679.43908616188526
 11
1022.9337499036216
 21
679.43908616188526
  0
LINE
  8
_0-0_計極細
  6
CONTINUOUS
 62
    2
 10
1014.9337499036216
 20
684.43908616188526
 11
1008.9337499036214
 21
684.43908616188526
  0
LINE
  8
_0-0_計極細
  6
CONTINUOUS
 62
    2
 10
1014.9337499036216
 20
679.43908616188526
 11
1008.9337499036214
 21
679.43908616188526
  0
LINE
  8
_0-0_計極細
  6
CONTINUOUS
 62
    2
 10
1000.9337499036214
 20
684.43908616188526
 11
994.93374990362156
 21
684.43908616188526
  0
LINE
  8
_0-0_計極細
  6
CONTINUOUS
 62
    2
 10
1000.9337499036214
 20
679.43908616188526
 11
994.93374990362156
 21
679.43908616188526
  0
LINE
  8
_0-0_計極細
  6
CONTINUOUS
 62
    2
 10
986.93374990362145
 20
684.43908616188526
 11
980.93374990362145
 21
684.43908616188526
  0
LINE
  8
_0-0_計極細
  6
CONTINUOUS
 62
    2
 10
986.93374990362145
 20
679.43908616188526
 11
980.93374990362145
 21
679.43908616188526
  0
LINE
  8
_0-0_計極細
  6
CONTINUOUS
 62
    2
 10
972.93374990362156
 20
684.43908616188526
 11
966.93374990362145
 21
684.43908616188526
  0
LINE
  8
_0-0_計極細
  6
CONTINUOUS
 62
    2
 10
972.93374990362156
 20
679.43908616188526
 11
966.93374990362145
 21
679.43908616188526
  0
LINE
  8
_0-0_計極細
  6
CONTINUOUS
 62
    2
 10
958.93374990362145
 20
684.43908616188526
 11
952.93374990362156
 21
684.43908616188526
  0
LINE
  8
_0-0_計極細
  6
CONTINUOUS
 62
    2
 10
958.93374990362145
 20
679.43908616188526
 11
952.93374990362156
 21
679.43908616188526
  0
LINE
  8
_0-0_計極細
  6
CONTINUOUS
 62
    2
 10
944.93374990362156
 20
684.43908616188526
 11
938.93374990362145
 21
684.43908616188526
  0
LINE
  8
_0-0_計極細
  6
CONTINUOUS
 62
    2
 10
944.93374990362156
 20
679.43908616188526
 11
938.93374990362145
 21
679.43908616188526
  0
LINE
  8
_0-0_計極細
  6
CONTINUOUS
 62
    2
 10
930.93374990362145
 20
684.43908616188526
 11
924.93374990362156
 21
684.43908616188526
  0
LINE
  8
_0-0_計極細
  6
CONTINUOUS
 62
    2
 10
930.93374990362145
 20
679.43908616188526
 11
924.93374990362156
 21
679.43908616188526
  0
LINE
  8
_0-0_計極細
  6
CONTINUOUS
 62
    2
 10
916.93374990362145
 20
684.43908616188526
 11
910.93374990362145
 21
684.43908616188526
  0
LINE
  8
_0-0_計極細
  6
CONTINUOUS
 62
    2
 10
916.93374990362145
 20
679.43908616188526
 11
910.93374990362145
 21
679.43908616188526
  0
LINE
  8
_0-0_計極細
  6
CONTINUOUS
 62
    2
 10
902.93374990362156
 20
684.43908616188526
 11
896.93374990362145
 21
684.43908616188526
  0
LINE
  8
_0-0_計極細
  6
CONTINUOUS
 62
    2
 10
902.93374990362156
 20
679.43908616188526
 11
896.93374990362145
 21
679.43908616188526
  0
LINE
  8
_0-0_計極細
  6
CONTINUOUS
 62
    2
 10
888.93374990362145
 20
684.43908616188526
 11
882.93374990362156
 21
684.43908616188526
  0
LINE
  8
_0-0_計極細
  6
CONTINUOUS
 62
    2
 10
888.93374990362145
 20
679.43908616188526
 11
882.93374990362156
 21
679.43908616188526
  0
LINE
  8
_0-0_計極細
  6
CONTINUOUS
 62
    2
 10
874.93374990362156
 20
684.43908616188526
 11
868.93374990362145
 21
684.43908616188526
  0
LINE
  8
_0-0_計極細
  6
CONTINUOUS
 62
    2
 10
874.93374990362156
 20
679.43908616188526
 11
868.93374990362145
 21
679.43908616188526
  0
LINE
  8
_0-0_計極細
  6
CONTINUOUS
 62
    2
 10
860.93374990362145
 20
684.43908616188526
 11
854.93374990362156
 21
684.43908616188526
  0
LINE
  8
_0-0_計極細
  6
CONTINUOUS
 62
    2
 10
860.93374990362145
 20
679.43908616188526
 11
854.93374990362156
 21
679.43908616188526
  0
LINE
  8
_0-0_計極細
  6
CONTINUOUS
 62
    2
 10
846.93374990362145
 20
684.43908616188526
 11
840.93374990362145
 21
684.43908616188526
  0
LINE
  8
_0-0_計極細
  6
CONTINUOUS
 62
    2
 10
846.93374990362145
 20
679.43908616188526
 11
840.93374990362145
 21
679.43908616188526
  0
LINE
  8
_0-0_計極細
  6
CONTINUOUS
 62
    2
 10
832.93374990362156
 20
684.43908616188526
 11
826.93374990362145
 21
684.43908616188526
  0
LINE
  8
_0-0_計極細
  6
CONTINUOUS
 62
    2
 10
832.93374990362156
 20
679.43908616188526
 11
826.93374990362145
 21
679.43908616188526
  0
LINE
  8
_0-0_計極細
  6
CONTINUOUS
 62
    2
 10
818.93374990362145
 20
684.43908616188526
 11
812.93374990362156
 21
684.43908616188526
  0
LINE
  8
_0-0_計極細
  6
CONTINUOUS
 62
    2
 10
818.93374990362145
 20
679.43908616188526
 11
812.93374990362156
 21
679.43908616188526
  0
LINE
  8
_0-0_計極細
  6
CONTINUOUS
 62
    2
 10
804.93374990362156
 20
684.43908616188526
 11
798.93374990362145
 21
684.43908616188526
  0
LINE
  8
_0-0_計極細
  6
CONTINUOUS
 62
    2
 10
804.93374990362156
 20
679.43908616188526
 11
798.93374990362145
 21
679.43908616188526
  0
LINE
  8
_0-0_計極細
  6
CONTINUOUS
 62
    2
 10
790.93374990362145
 20
684.43908616188526
 11
784.93374990362156
 21
684.43908616188526
  0
LINE
  8
_0-0_計極細
  6
CONTINUOUS
 62
    2
 10
790.93374990362145
 20
679.43908616188526
 11
784.93374990362156
 21
679.43908616188526
  0
LINE
  8
_0-0_計極細
  6
CONTINUOUS
 62
    2
 10
776.93374990362145
 20
684.43908616188526
 11
770.93374990362145
 21
684.43908616188526
  0
LINE
  8
_0-0_計極細
  6
CONTINUOUS
 62
    2
 10
776.93374990362145
 20
679.43908616188526
 11
770.93374990362145
 21
679.43908616188526
  0
LINE
  8
_0-0_計極細
  6
CONTINUOUS
 62
    2
 10
762.93374990362156
 20
684.43908616188526
 11
756.93374990362145
 21
684.43908616188526
  0
LINE
  8
_0-0_計極細
  6
CONTINUOUS
 62
    2
 10
762.93374990362156
 20
679.43908616188526
 11
756.93374990362145
 21
679.43908616188526
  0
LINE
  8
_0-0_計極細
  6
CONTINUOUS
 62
    2
 10
748.93374990362145
 20
684.43908616188526
 11
742.93374990362156
 21
684.43908616188526
  0
LINE
  8
_0-0_計極細
  6
CONTINUOUS
 62
    2
 10
748.93374990362145
 20
679.43908616188526
 11
742.93374990362156
 21
679.43908616188526
  0
LINE
  8
_0-0_計極細
  6
CONTINUOUS
 62
    2
 10
734.93374990362145
 20
684.43908616188526
 11
728.93374990362145
 21
684.43908616188526
  0
LINE
  8
_0-0_計極細
  6
CONTINUOUS
 62
    2
 10
734.93374990362145
 20
679.43908616188526
 11
728.93374990362145
 21
679.43908616188526
  0
LINE
  8
_0-0_計極細
  6
CONTINUOUS
 62
    2
 10
720.93374990362145
 20
684.43908616188526
 11
714.93374990362145
 21
684.43908616188526
  0
LINE
  8
_0-0_計極細
  6
CONTINUOUS
 62
    2
 10
720.93374990362145
 20
679.43908616188526
 11
714.93374990362145
 21
679.43908616188526
  0
LINE
  8
_0-0_計極細
  6
CONTINUOUS
 62
    2
 10
706.93374990362145
 20
684.43908616188526
 11
700.93374990362145
 21
684.43908616188526
  0
LINE
  8
_0-0_計極細
  6
CONTINUOUS
 62
    2
 10
706.93374990362145
 20
679.43908616188526
 11
700.93374990362145
 21
679.43908616188526
  0
LINE
  8
_0-0_計極細
  6
CONTINUOUS
 62
    2
 10
692.93374990362156
 20
684.43908616188526
 11
686.93374990362145
 21
684.43908616188526
  0
LINE
  8
_0-0_計極細
  6
CONTINUOUS
 62
    2
 10
692.93374990362156
 20
679.43908616188526
 11
686.93374990362145
 21
679.43908616188526
  0
LINE
  8
_0-0_計極細
  6
CONTINUOUS
 62
    2
 10
678.93374990362145
 20
684.43908616188526
 11
672.93374990362156
 21
684.43908616188526
  0
LINE
  8
_0-0_計極細
  6
CONTINUOUS
 62
    2
 10
678.93374990362145
 20
679.43908616188526
 11
672.93374990362156
 21
679.43908616188526
  0
LINE
  8
_0-0_計極細
  6
CONTINUOUS
 62
    2
 10
664.93374990362145
 20
684.43908616188526
 11
658.93374990362145
 21
684.43908616188526
  0
LINE
  8
_0-0_計極細
  6
CONTINUOUS
 62
    2
 10
664.93374990362145
 20
679.43908616188526
 11
658.93374990362145
 21
679.43908616188526
  0
LINE
  8
_0-0_計極細
  6
CONTINUOUS
 62
    2
 10
650.93374990362145
 20
684.43908616188526
 11
644.93374990362145
 21
684.43908616188526
  0
LINE
  8
_0-0_計極細
  6
CONTINUOUS
 62
    2
 10
650.93374990362145
 20
679.43908616188526
 11
644.93374990362145
 21
679.43908616188526
  0
LINE
  8
_0-0_計極細
  6
CONTINUOUS
 62
    2
 10
636.93374990362145
 20
684.43908616188526
 11
630.93374990362145
 21
684.43908616188526
  0
LINE
  8
_0-0_計極細
  6
CONTINUOUS
 62
    2
 10
636.93374990362145
 20
679.43908616188526
 11
630.93374990362145
 21
679.43908616188526
  0
LINE
  8
_0-0_計極細
  6
CONTINUOUS
 62
    2
 10
622.93374990362145
 20
684.43908616188526
 11
616.93374990362145
 21
684.43908616188526
  0
LINE
  8
_0-0_計極細
  6
CONTINUOUS
 62
    2
 10
622.93374990362145
 20
679.43908616188526
 11
616.93374990362145
 21
679.43908616188526
  0
LINE
  8
_0-0_計極細
  6
CONTINUOUS
 62
    2
 10
608.93374990362145
 20
684.43908616188526
 11
602.93374990362145
 21
684.43908616188526
  0
LINE
  8
_0-0_計極細
  6
CONTINUOUS
 62
    2
 10
608.93374990362145
 20
679.43908616188526
 11
602.93374990362145
 21
679.43908616188526
  0
LINE
  8
_0-0_計極細
  6
CONTINUOUS
 62
    2
 10
594.93374990362145
 20
684.43908616188526
 11
588.93374990362145
 21
684.43908616188526
  0
LINE
  8
_0-0_計極細
  6
CONTINUOUS
 62
    2
 10
594.93374990362145
 20
679.43908616188526
 11
588.93374990362145
 21
679.43908616188526
  0
LINE
  8
_0-0_計極細
  6
CONTINUOUS
 62
    2
 10
580.93374990362145
 20
684.43908616188526
 11
574.93374990362145
 21
684.43908616188526
  0
LINE
  8
_0-0_計極細
  6
CONTINUOUS
 62
    2
 10
580.93374990362145
 20
679.43908616188526
 11
574.93374990362145
 21
679.43908616188526
  0
LINE
  8
_0-0_計極細
  6
CONTINUOUS
 62
    2
 10
566.93374990362145
 20
684.43908616188526
 11
560.93374990362145
 21
684.43908616188526
  0
LINE
  8
_0-0_計極細
  6
CONTINUOUS
 62
    2
 10
566.93374990362145
 20
679.43908616188526
 11
560.93374990362145
 21
679.43908616188526
  0
LINE
  8
_0-0_計極細
  6
CONTINUOUS
 62
    2
 10
552.93374990362145
 20
684.43908616188526
 11
546.93374990362145
 21
684.43908616188526
  0
LINE
  8
_0-0_計極細
  6
CONTINUOUS
 62
    2
 10
552.93374990362145
 20
679.43908616188526
 11
546.93374990362145
 21
679.43908616188526
  0
LINE
  8
_0-0_計極細
  6
CONTINUOUS
 62
    2
 10
538.93374990362145
 20
684.43908616188526
 11
532.93374990362145
 21
684.43908616188526
  0
LINE
  8
_0-0_計極細
  6
CONTINUOUS
 62
    2
 10
538.93374990362145
 20
679.43908616188526
 11
532.93374990362145
 21
679.43908616188526
  0
LINE
  8
_0-0_計極細
  6
CONTINUOUS
 62
    2
 10
524.93374990362145
 20
684.43908616188526
 11
518.93374990362145
 21
684.43908616188526
  0
LINE
  8
_0-0_計極細
  6
CONTINUOUS
 62
    2
 10
524.93374990362145
 20
679.43908616188526
 11
518.93374990362145
 21
679.43908616188526
  0
LINE
  8
_0-0_計極細
  6
CONTINUOUS
 62
    2
 10
510.9337499036215
 20
684.43908616188526
 11
504.9337499036215
 21
684.43908616188526
  0
LINE
  8
_0-0_計極細
  6
CONTINUOUS
 62
    2
 10
510.9337499036215
 20
679.43908616188526
 11
504.9337499036215
 21
679.43908616188526
  0
LINE
  8
_0-0_計極細
  6
CONTINUOUS
 62
    2
 10
496.93374990362145
 20
684.43908616188526
 11
490.9337499036215
 21
684.43908616188526
  0
LINE
  8
_0-0_計極細
  6
CONTINUOUS
 62
    2
 10
496.93374990362145
 20
679.43908616188526
 11
490.9337499036215
 21
679.43908616188526
  0
LINE
  8
_0-0_計極細
  6
CONTINUOUS
 62
    2
 10
482.93374990362145
 20
684.43908616188526
 11
476.93374990362145
 21
684.43908616188526
  0
LINE
  8
_0-0_計極細
  6
CONTINUOUS
 62
    2
 10
482.93374990362145
 20
679.43908616188526
 11
476.93374990362145
 21
679.43908616188526
  0
LINE
  8
_0-0_計極細
  6
CONTINUOUS
 62
    2
 10
468.93374990362145
 20
684.43908616188526
 11
462.93374990362145
 21
684.43908616188526
  0
LINE
  8
_0-0_計極細
  6
CONTINUOUS
 62
    2
 10
468.93374990362145
 20
679.43908616188526
 11
462.93374990362145
 21
679.43908616188526
  0
LINE
  8
_0-0_計極細
  6
CONTINUOUS
 62
    2
 10
454.9337499036215
 20
684.43908616188526
 11
448.93374990362145
 21
684.43908616188526
  0
LINE
  8
_0-0_計極細
  6
CONTINUOUS
 62
    2
 10
454.9337499036215
 20
679.43908616188526
 11
448.93374990362145
 21
679.43908616188526
  0
LINE
  8
_0-0_計極細
  6
CONTINUOUS
 62
    2
 10
440.9337499036215
 20
684.43908616188526
 11
434.9337499036215
 21
684.43908616188526
  0
LINE
  8
_0-0_計極細
  6
CONTINUOUS
 62
    2
 10
440.9337499036215
 20
679.43908616188526
 11
434.9337499036215
 21
679.43908616188526
  0
LINE
  8
_0-0_計極細
  6
CONTINUOUS
 62
    2
 10
426.93374990362145
 20
684.43908616188526
 11
420.9337499036215
 21
684.43908616188526
  0
LINE
  8
_0-0_計極細
  6
CONTINUOUS
 62
    2
 10
426.93374990362145
 20
679.43908616188526
 11
420.9337499036215
 21
679.43908616188526
  0
LINE
  8
_0-0_計極細
  6
CONTINUOUS
 62
    2
 10
412.93374990362145
 20
684.43908616188526
 11
406.93374990362145
 21
684.43908616188526
  0
LINE
  8
_0-0_計極細
  6
CONTINUOUS
 62
    2
 10
412.93374990362145
 20
679.43908616188526
 11
406.93374990362145
 21
679.43908616188526
  0
LINE
  8
_0-0_計極細
  6
CONTINUOUS
 62
    2
 10
398.93374990362145
 20
684.43908616188526
 11
392.93374990362145
 21
684.43908616188526
  0
LINE
  8
_0-0_計極細
  6
CONTINUOUS
 62
    2
 10
398.93374990362145
 20
679.43908616188526
 11
392.93374990362145
 21
679.43908616188526
  0
LINE
  8
_0-0_計極細
  6
CONTINUOUS
 62
    2
 10
384.9337499036215
 20
684.43908616188526
 11
378.93374990362145
 21
684.43908616188526
  0
LINE
  8
_0-0_計極細
  6
CONTINUOUS
 62
    2
 10
384.9337499036215
 20
679.43908616188526
 11
378.93374990362145
 21
679.43908616188526
  0
LINE
  8
_0-0_計極細
  6
CONTINUOUS
 62
    2
 10
370.93374990362145
 20
684.43908616188526
 11
364.9337499036215
 21
684.43908616188526
  0
LINE
  8
_0-0_計極細
  6
CONTINUOUS
 62
    2
 10
370.93374990362145
 20
679.43908616188526
 11
364.9337499036215
 21
679.43908616188526
  0
LINE
  8
_0-0_計極細
  6
CONTINUOUS
 62
    2
 10
356.93374990362145
 20
684.43908616188526
 11
350.93374990362145
 21
684.43908616188526
  0
LINE
  8
_0-0_計極細
  6
CONTINUOUS
 62
    2
 10
356.93374990362145
 20
679.43908616188526
 11
350.93374990362145
 21
679.43908616188526
  0
LINE
  8
_0-0_計極細
  6
CONTINUOUS
 62
    2
 10
342.93374990362145
 20
684.43908616188526
 11
336.93374990362145
 21
684.43908616188526
  0
LINE
  8
_0-0_計極細
  6
CONTINUOUS
 62
    2
 10
342.93374990362145
 20
679.43908616188526
 11
336.93374990362145
 21
679.43908616188526
  0
LINE
  8
_0-0_計極細
  6
CONTINUOUS
 62
    2
 10
328.93374990362145
 20
684.43908616188526
 11
322.93374990362145
 21
684.43908616188526
  0
LINE
  8
_0-0_計極細
  6
CONTINUOUS
 62
    2
 10
328.93374990362145
 20
679.43908616188526
 11
322.93374990362145
 21
679.43908616188526
  0
LINE
  8
_0-0_計極細
  6
CONTINUOUS
 62
    2
 10
314.93374990362145
 20
684.43908616188526
 11
308.93374990362145
 21
684.43908616188526
  0
LINE
  8
_0-0_計極細
  6
CONTINUOUS
 62
    2
 10
314.93374990362145
 20
679.43908616188526
 11
308.93374990362145
 21
679.43908616188526
  0
LINE
  8
_0-0_計極細
  6
CONTINUOUS
 62
    2
 10
300.9337499036215
 20
684.43908616188526
 11
294.93374990362145
 21
684.43908616188526
  0
LINE
  8
_0-0_計極細
  6
CONTINUOUS
 62
    2
 10
300.9337499036215
 20
679.43908616188526
 11
294.93374990362145
 21
679.43908616188526
  0
LINE
  8
_0-0_計極細
  6
CONTINUOUS
 62
    2
 10
286.93374990362145
 20
684.43908616188526
 11
280.9337499036215
 21
684.43908616188526
  0
LINE
  8
_0-0_計極細
  6
CONTINUOUS
 62
    2
 10
286.93374990362145
 20
679.43908616188526
 11
280.9337499036215
 21
679.43908616188526
  0
LINE
  8
_0-0_計極細
  6
CONTINUOUS
 62
    2
 10
272.93374990362145
 20
684.43908616188526
 11
266.93374990362145
 21
684.43908616188526
  0
LINE
  8
_0-0_計極細
  6
CONTINUOUS
 62
    2
 10
272.93374990362145
 20
679.43908616188526
 11
266.93374990362145
 21
679.43908616188526
  0
LINE
  8
_0-0_計極細
  6
CONTINUOUS
 62
    2
 10
258.93374990362145
 20
684.43908616188526
 11
252.93374990362145
 21
684.43908616188526
  0
LINE
  8
_0-0_計極細
  6
CONTINUOUS
 62
    2
 10
258.93374990362145
 20
679.43908616188526
 11
252.93374990362145
 21
679.43908616188526
  0
LINE
  8
_0-0_計極細
  6
CONTINUOUS
 62
    2
 10
244.93374990362142
 20
684.43908616188526
 11
238.93374990362148
 21
684.43908616188526
  0
LINE
  8
_0-0_計極細
  6
CONTINUOUS
 62
    2
 10
244.93374990362142
 20
679.43908616188526
 11
238.93374990362148
 21
679.43908616188526
  0
LINE
  8
_0-1_計細線
  6
CONTINUOUS
 62
    3
 10
230.9337499036215
 20
781.93908616188435
 11
200.9337499036215
 21
781.93908616188435
  0
LINE
  8
_0-1_計細線
  6
CONTINUOUS
 62
    3
 10
1248.933749903621
 20
781.93908616188355
 11
1218.933749903621
 21
781.93908616188355
  0
LINE
  8
_0-1_計細線
  6
CONTINUOUS
 62
    3
 10
199.54663277986356
 20
808.93908616188673
 11
1247.5466327798626
 21
808.93908616188583
  0
LINE
  8
_0-1_計細線
  6
CONTINUOUS
 62
    3
 10
200.9337499036215
 20
811.93908616188662
 11
1248.933749903621
 21
811.93908616188583
  0
ARC
  8
_0-1_計細線
  6
CONTINUOUS
 62
    3
 10
188.65075465349241
 20
789.4390861618848
 40
14.391732776656191
 50
328.59175045525751
 51
31.408249544743832
  0
ARC
  8
_0-1_計細線
  6
CONTINUOUS
 62
    3
 10
213.21674515374866
 20
804.43908616188537
 40
14.391732776655743
 50
148.59175045525689
 51
211.40824954473919
  0
ARC
  8
_0-1_計細線
  6
CONTINUOUS
 62
    3
 10
1236.6507546534926
 20
789.4390861618848
 40
14.391732776656227
 50
328.59175045525899
 51
31.408249544743374
  0
ARC
  8
_0-1_計細線
  6
CONTINUOUS
 62
    3
 10
1261.2167451537489
 20
804.43908616188583
 40
14.391732776655658
 50
148.59175045525842
 51
211.40824954474121
  0
LINE
  8
_0-1_計細線
  6
CONTINUOUS
 62
    3
 10
230.9337499036215
 20
803.93908616188583
 11
238.93374990362148
 21
803.93908616188583
  0
LINE
  8
_0-1_計細線
  6
CONTINUOUS
 62
    3
 10
244.93374990362142
 20
803.93908616188583
 11
252.93374990362145
 21
803.93908616188583
  0
LINE
  8
_0-1_計細線
  6
CONTINUOUS
 62
    3
 10
258.93374990362145
 20
803.93908616188583
 11
266.93374990362145
 21
803.93908616188583
  0
LINE
  8
_0-1_計細線
  6
CONTINUOUS
 62
    3
 10
272.93374990362145
 20
803.93908616188583
 11
280.9337499036215
 21
803.93908616188583
  0
LINE
  8
_0-1_計細線
  6
CONTINUOUS
 62
    3
 10
286.93374990362145
 20
803.93908616188583
 11
294.93374990362145
 21
803.93908616188583
  0
LINE
  8
_0-1_計細線
  6
CONTINUOUS
 62
    3
 10
300.9337499036215
 20
803.93908616188583
 11
308.93374990362145
 21
803.93908616188583
  0
LINE
  8
_0-1_計細線
  6
CONTINUOUS
 62
    3
 10
314.93374990362145
 20
803.93908616188583
 11
322.93374990362145
 21
803.93908616188583
  0
LINE
  8
_0-1_計細線
  6
CONTINUOUS
 62
    3
 10
328.93374990362145
 20
803.93908616188583
 11
336.93374990362145
 21
803.93908616188583
  0
LINE
  8
_0-1_計細線
  6
CONTINUOUS
 62
    3
 10
342.93374990362145
 20
803.93908616188583
 11
350.93374990362145
 21
803.93908616188583
  0
LINE
  8
_0-1_計細線
  6
CONTINUOUS
 62
    3
 10
356.93374990362145
 20
803.93908616188583
 11
364.9337499036215
 21
803.93908616188583
  0
LINE
  8
_0-1_計細線
  6
CONTINUOUS
 62
    3
 10
370.93374990362145
 20
803.93908616188583
 11
378.93374990362145
 21
803.93908616188583
  0
LINE
  8
_0-1_計細線
  6
CONTINUOUS
 62
    3
 10
384.9337499036215
 20
803.93908616188583
 11
392.93374990362145
 21
803.93908616188583
  0
LINE
  8
_0-1_計細線
  6
CONTINUOUS
 62
    3
 10
398.93374990362145
 20
803.93908616188583
 11
406.93374990362145
 21
803.93908616188583
  0
LINE
  8
_0-1_計細線
  6
CONTINUOUS
 62
    3
 10
412.93374990362145
 20
803.93908616188583
 11
420.9337499036215
 21
803.93908616188583
  0
LINE
  8
_0-1_計細線
  6
CONTINUOUS
 62
    3
 10
426.93374990362145
 20
803.93908616188583
 11
434.9337499036215
 21
803.93908616188583
  0
LINE
  8
_0-1_計細線
  6
CONTINUOUS
 62
    3
 10
440.9337499036215
 20
803.93908616188583
 11
448.93374990362145
 21
803.93908616188583
  0
LINE
  8
_0-1_計細線
  6
CONTINUOUS
 62
    3
 10
454.9337499036215
 20
803.93908616188583
 11
462.93374990362145
 21
803.93908616188583
  0
LINE
  8
_0-1_計細線
  6
CONTINUOUS
 62
    3
 10
468.93374990362145
 20
803.93908616188583
 11
476.93374990362145
 21
803.93908616188583
  0
LINE
  8
_0-1_計細線
  6
CONTINUOUS
 62
    3
 10
482.93374990362145
 20
803.93908616188583
 11
490.9337499036215
 21
803.93908616188583
  0
LINE
  8
_0-1_計細線
  6
CONTINUOUS
 62
    3
 10
496.93374990362145
 20
803.93908616188583
 11
504.9337499036215
 21
803.93908616188583
  0
LINE
  8
_0-1_計細線
  6
CONTINUOUS
 62
    3
 10
510.9337499036215
 20
803.93908616188583
 11
518.93374990362145
 21
803.93908616188583
  0
LINE
  8
_0-1_計細線
  6
CONTINUOUS
 62
    3
 10
524.93374990362145
 20
803.93908616188583
 11
532.93374990362145
 21
803.93908616188583
  0
LINE
  8
_0-1_計細線
  6
CONTINUOUS
 62
    3
 10
538.93374990362145
 20
803.93908616188583
 11
546.93374990362145
 21
803.93908616188583
  0
LINE
  8
_0-1_計細線
  6
CONTINUOUS
 62
    3
 10
552.93374990362145
 20
803.93908616188583
 11
560.93374990362145
 21
803.93908616188583
  0
LINE
  8
_0-1_計細線
  6
CONTINUOUS
 62
    3
 10
566.93374990362145
 20
803.93908616188583
 11
574.93374990362145
 21
803.93908616188583
  0
LINE
  8
_0-1_計細線
  6
CONTINUOUS
 62
    3
 10
580.93374990362145
 20
803.93908616188583
 11
588.93374990362145
 21
803.93908616188583
  0
LINE
  8
_0-1_計細線
  6
CONTINUOUS
 62
    3
 10
594.93374990362145
 20
803.93908616188583
 11
602.93374990362145
 21
803.93908616188583
  0
LINE
  8
_0-1_計細線
  6
CONTINUOUS
 62
    3
 10
608.93374990362145
 20
803.93908616188583
 11
616.93374990362145
 21
803.93908616188583
  0
LINE
  8
_0-1_計細線
  6
CONTINUOUS
 62
    3
 10
622.93374990362145
 20
803.93908616188583
 11
630.93374990362145
 21
803.93908616188583
  0
LINE
  8
_0-1_計細線
  6
CONTINUOUS
 62
    3
 10
636.93374990362145
 20
803.93908616188583
 11
644.93374990362145
 21
803.93908616188583
  0
LINE
  8
_0-1_計細線
  6
CONTINUOUS
 62
    3
 10
650.93374990362145
 20
803.93908616188583
 11
658.93374990362145
 21
803.93908616188583
  0
LINE
  8
_0-1_計細線
  6
CONTINUOUS
 62
    3
 10
664.93374990362145
 20
803.93908616188583
 11
672.93374990362156
 21
803.93908616188583
  0
LINE
  8
_0-1_計細線
  6
CONTINUOUS
 62
    3
 10
678.93374990362145
 20
803.93908616188583
 11
686.93374990362145
 21
803.93908616188583
  0
LINE
  8
_0-1_計細線
  6
CONTINUOUS
 62
    3
 10
692.93374990362156
 20
803.93908616188583
 11
700.93374990362145
 21
803.93908616188583
  0
LINE
  8
_0-1_計細線
  6
CONTINUOUS
 62
    3
 10
706.93374990362145
 20
803.93908616188583
 11
714.93374990362145
 21
803.93908616188583
  0
LINE
  8
_0-1_計細線
  6
CONTINUOUS
 62
    3
 10
720.93374990362145
 20
803.93908616188583
 11
728.93374990362145
 21
803.93908616188583
  0
LINE
  8
_0-1_計細線
  6
CONTINUOUS
 62
    3
 10
734.93374990362145
 20
803.93908616188583
 11
742.93374990362156
 21
803.93908616188583
  0
LINE
  8
_0-1_計細線
  6
CONTINUOUS
 62
    3
 10
748.93374990362145
 20
803.93908616188583
 11
756.93374990362145
 21
803.93908616188583
  0
LINE
  8
_0-1_計細線
  6
CONTINUOUS
 62
    3
 10
762.93374990362156
 20
803.93908616188583
 11
770.93374990362145
 21
803.93908616188583
  0
LINE
  8
_0-1_計細線
  6
CONTINUOUS
 62
    3
 10
776.93374990362145
 20
803.93908616188583
 11
784.93374990362156
 21
803.93908616188583
  0
LINE
  8
_0-1_計細線
  6
CONTINUOUS
 62
    3
 10
790.93374990362145
 20
803.93908616188583
 11
798.93374990362145
 21
803.93908616188583
  0
LINE
  8
_0-1_計細線
  6
CONTINUOUS
 62
    3
 10
804.93374990362156
 20
803.93908616188583
 11
812.93374990362156
 21
803.93908616188583
  0
LINE
  8
_0-1_計細線
  6
CONTINUOUS
 62
    3
 10
818.93374990362145
 20
803.93908616188583
 11
826.93374990362145
 21
803.93908616188583
  0
LINE
  8
_0-1_計細線
  6
CONTINUOUS
 62
    3
 10
832.93374990362156
 20
803.93908616188583
 11
840.93374990362145
 21
803.93908616188583
  0
LINE
  8
_0-1_計細線
  6
CONTINUOUS
 62
    3
 10
846.93374990362145
 20
803.93908616188583
 11
854.93374990362156
 21
803.93908616188583
  0
LINE
  8
_0-1_計細線
  6
CONTINUOUS
 62
    3
 10
860.93374990362145
 20
803.93908616188583
 11
868.93374990362145
 21
803.93908616188583
  0
LINE
  8
_0-1_計細線
  6
CONTINUOUS
 62
    3
 10
874.93374990362156
 20
803.93908616188583
 11
882.93374990362156
 21
803.93908616188583
  0
LINE
  8
_0-1_計細線
  6
CONTINUOUS
 62
    3
 10
888.93374990362145
 20
803.93908616188583
 11
896.93374990362145
 21
803.93908616188583
  0
LINE
  8
_0-1_計細線
  6
CONTINUOUS
 62
    3
 10
902.93374990362156
 20
803.93908616188583
 11
910.93374990362145
 21
803.93908616188583
  0
LINE
  8
_0-1_計細線
  6
CONTINUOUS
 62
    3
 10
916.93374990362145
 20
803.93908616188583
 11
924.93374990362156
 21
803.93908616188583
  0
LINE
  8
_0-1_計細線
  6
CONTINUOUS
 62
    3
 10
930.93374990362145
 20
803.93908616188583
 11
938.93374990362145
 21
803.93908616188583
  0
LINE
  8
_0-1_計細線
  6
CONTINUOUS
 62
    3
 10
944.93374990362156
 20
803.93908616188583
 11
952.93374990362156
 21
803.93908616188583
  0
LINE
  8
_0-1_計細線
  6
CONTINUOUS
 62
    3
 10
958.93374990362145
 20
803.93908616188583
 11
966.93374990362145
 21
803.93908616188583
  0
LINE
  8
_0-1_計細線
  6
CONTINUOUS
 62
    3
 10
972.93374990362156
 20
803.93908616188583
 11
980.93374990362145
 21
803.93908616188583
  0
LINE
  8
_0-1_計細線
  6
CONTINUOUS
 62
    3
 10
986.93374990362145
 20
803.93908616188583
 11
994.93374990362156
 21
803.93908616188583
  0
LINE
  8
_0-1_計細線
  6
CONTINUOUS
 62
    3
 10
1000.9337499036214
 20
803.93908616188583
 11
1008.9337499036214
 21
803.93908616188583
  0
LINE
  8
_0-1_計細線
  6
CONTINUOUS
 62
    3
 10
1014.9337499036216
 20
803.93908616188583
 11
1022.9337499036216
 21
803.93908616188583
  0
LINE
  8
_0-1_計細線
  6
CONTINUOUS
 62
    3
 10
1028.9337499036214
 20
803.93908616188583
 11
1036.9337499036214
 21
803.93908616188583
  0
LINE
  8
_0-1_計細線
  6
CONTINUOUS
 62
    3
 10
1042.9337499036214
 20
803.93908616188583
 11
1050.9337499036214
 21
803.93908616188583
  0
LINE
  8
_0-1_計細線
  6
CONTINUOUS
 62
    3
 10
1056.9337499036214
 20
803.93908616188583
 11
1064.9337499036214
 21
803.93908616188583
  0
LINE
  8
_0-1_計細線
  6
CONTINUOUS
 62
    3
 10
1070.9337499036214
 20
803.93908616188583
 11
1078.9337499036214
 21
803.93908616188583
  0
LINE
  8
_0-1_計細線
  6
CONTINUOUS
 62
    3
 10
1084.9337499036214
 20
803.93908616188583
 11
1092.9337499036214
 21
803.93908616188583
  0
LINE
  8
_0-1_計細線
  6
CONTINUOUS
 62
    3
 10
1098.9337499036214
 20
803.93908616188583
 11
1106.9337499036214
 21
803.93908616188583
  0
LINE
  8
_0-1_計細線
  6
CONTINUOUS
 62
    3
 10
1112.9337499036214
 20
803.93908616188583
 11
1120.9337499036214
 21
803.93908616188583
  0
LINE
  8
_0-1_計細線
  6
CONTINUOUS
 62
    3
 10
1126.933749903621
 20
803.93908616188583
 11
1134.933749903621
 21
803.93908616188583
  0
LINE
  8
_0-1_計細線
  6
CONTINUOUS
 62
    3
 10
1140.933749903621
 20
803.93908616188583
 11
1148.933749903621
 21
803.93908616188583
  0
LINE
  8
_0-1_計細線
  6
CONTINUOUS
 62
    3
 10
1154.933749903621
 20
803.93908616188583
 11
1162.933749903621
 21
803.93908616188583
  0
LINE
  8
_0-1_計細線
  6
CONTINUOUS
 62
    3
 10
1168.933749903621
 20
803.93908616188583
 11
1176.933749903621
 21
803.93908616188583
  0
LINE
  8
_0-1_計細線
  6
CONTINUOUS
 62
    3
 10
1182.933749903621
 20
803.93908616188583
 11
1190.933749903621
 21
803.93908616188583
  0
LINE
  8
_0-1_計細線
  6
CONTINUOUS
 62
    3
 10
1196.933749903621
 20
803.93908616188583
 11
1204.933749903621
 21
803.93908616188583
  0
LINE
  8
_0-1_計細線
  6
CONTINUOUS
 62
    3
 10
1210.933749903621
 20
803.93908616188583
 11
1218.933749903621
 21
803.93908616188583
  0
LINE
  8
_0-1_計細線
  6
CONTINUOUS
 62
    3
 10
1218.933749903621
 20
803.93908616188583
 11
1218.933749903621
 21
806.93908616188583
  0
LINE
  8
_0-1_計細線
  6
CONTINUOUS
 62
    3
 10
230.9337499036215
 20
803.93908616188583
 11
1218.933749903621
 21
803.93908616188583
  0
LINE
  8
_0-1_計細線
  6
CONTINUOUS
 62
    3
 10
230.9337499036215
 20
806.93908616188583
 11
230.9337499036215
 21
803.93908616188583
  0
LINE
  8
_0-1_計細線
  6
CONTINUOUS
 62
    3
 10
1218.933749903621
 20
806.93908616188583
 11
230.9337499036215
 21
806.93908616188583
  0
LINE
  8
_0-0_計極細
  6
CONTINUOUS
 62
    2
 10
1210.933749903621
 20
784.43908616188583
 11
1204.933749903621
 21
784.43908616188583
  0
LINE
  8
_0-0_計極細
  6
CONTINUOUS
 62
    2
 10
1210.933749903621
 20
779.43908616188435
 11
1204.933749903621
 21
779.43908616188435
  0
LINE
  8
_0-0_計極細
  6
CONTINUOUS
 62
    2
 10
1196.933749903621
 20
784.43908616188583
 11
1190.933749903621
 21
784.43908616188583
  0
LINE
  8
_0-0_計極細
  6
CONTINUOUS
 62
    2
 10
1196.933749903621
 20
779.43908616188435
 11
1190.933749903621
 21
779.43908616188435
  0
LINE
  8
_0-0_計極細
  6
CONTINUOUS
 62
    2
 10
1182.933749903621
 20
784.43908616188583
 11
1176.933749903621
 21
784.43908616188583
  0
LINE
  8
_0-0_計極細
  6
CONTINUOUS
 62
    2
 10
1182.933749903621
 20
779.43908616188435
 11
1176.933749903621
 21
779.43908616188435
  0
LINE
  8
_0-0_計極細
  6
CONTINUOUS
 62
    2
 10
1168.933749903621
 20
784.43908616188583
 11
1162.933749903621
 21
784.43908616188583
  0
LINE
  8
_0-0_計極細
  6
CONTINUOUS
 62
    2
 10
1168.933749903621
 20
779.43908616188435
 11
1162.933749903621
 21
779.43908616188435
  0
LINE
  8
_0-0_計極細
  6
CONTINUOUS
 62
    2
 10
1154.933749903621
 20
784.43908616188583
 11
1148.933749903621
 21
784.43908616188583
  0
LINE
  8
_0-0_計極細
  6
CONTINUOUS
 62
    2
 10
1154.933749903621
 20
779.43908616188435
 11
1148.933749903621
 21
779.43908616188435
  0
LINE
  8
_0-0_計極細
  6
CONTINUOUS
 62
    2
 10
1140.933749903621
 20
784.43908616188583
 11
1134.933749903621
 21
784.43908616188583
  0
LINE
  8
_0-0_計極細
  6
CONTINUOUS
 62
    2
 10
1140.933749903621
 20
779.43908616188435
 11
1134.933749903621
 21
779.43908616188435
  0
LINE
  8
_0-0_計極細
  6
CONTINUOUS
 62
    2
 10
1126.933749903621
 20
784.43908616188583
 11
1120.9337499036214
 21
784.43908616188583
  0
LINE
  8
_0-0_計極細
  6
CONTINUOUS
 62
    2
 10
1126.933749903621
 20
779.43908616188435
 11
1120.9337499036214
 21
779.43908616188435
  0
LINE
  8
_0-0_計極細
  6
CONTINUOUS
 62
    2
 10
1112.9337499036214
 20
784.43908616188583
 11
1106.9337499036214
 21
784.43908616188583
  0
LINE
  8
_0-0_計極細
  6
CONTINUOUS
 62
    2
 10
1112.9337499036214
 20
779.43908616188435
 11
1106.9337499036214
 21
779.43908616188435
  0
LINE
  8
_0-0_計極細
  6
CONTINUOUS
 62
    2
 10
1098.9337499036214
 20
784.43908616188583
 11
1092.9337499036214
 21
784.43908616188583
  0
LINE
  8
_0-0_計極細
  6
CONTINUOUS
 62
    2
 10
1098.9337499036214
 20
779.43908616188435
 11
1092.9337499036214
 21
779.43908616188435
  0
LINE
  8
_0-0_計極細
  6
CONTINUOUS
 62
    2
 10
1084.9337499036214
 20
784.43908616188583
 11
1078.9337499036214
 21
784.43908616188583
  0
LINE
  8
_0-0_計極細
  6
CONTINUOUS
 62
    2
 10
1084.9337499036214
 20
779.43908616188435
 11
1078.9337499036214
 21
779.43908616188435
  0
LINE
  8
_0-0_計極細
  6
CONTINUOUS
 62
    2
 10
1070.9337499036214
 20
784.43908616188583
 11
1064.9337499036214
 21
784.43908616188583
  0
LINE
  8
_0-0_計極細
  6
CONTINUOUS
 62
    2
 10
1070.9337499036214
 20
779.43908616188435
 11
1064.9337499036214
 21
779.43908616188435
  0
LINE
  8
_0-0_計極細
  6
CONTINUOUS
 62
    2
 10
1056.9337499036214
 20
784.43908616188583
 11
1050.9337499036214
 21
784.43908616188583
  0
LINE
  8
_0-0_計極細
  6
CONTINUOUS
 62
    2
 10
1056.9337499036214
 20
779.43908616188435
 11
1050.9337499036214
 21
779.43908616188435
  0
LINE
  8
_0-0_計極細
  6
CONTINUOUS
 62
    2
 10
1042.9337499036214
 20
784.43908616188583
 11
1036.9337499036214
 21
784.43908616188583
  0
LINE
  8
_0-0_計極細
  6
CONTINUOUS
 62
    2
 10
1042.9337499036214
 20
779.43908616188435
 11
1036.9337499036214
 21
779.43908616188435
  0
LINE
  8
_0-0_計極細
  6
CONTINUOUS
 62
    2
 10
1028.9337499036214
 20
784.43908616188583
 11
1022.9337499036216
 21
784.43908616188583
  0
LINE
  8
_0-0_計極細
  6
CONTINUOUS
 62
    2
 10
1028.9337499036214
 20
779.43908616188435
 11
1022.9337499036216
 21
779.43908616188435
  0
LINE
  8
_0-0_計極細
  6
CONTINUOUS
 62
    2
 10
1014.9337499036216
 20
784.43908616188583
 11
1008.9337499036214
 21
784.43908616188583
  0
LINE
  8
_0-0_計極細
  6
CONTINUOUS
 62
    2
 10
1014.9337499036216
 20
779.43908616188435
 11
1008.9337499036214
 21
779.43908616188435
  0
LINE
  8
_0-0_計極細
  6
CONTINUOUS
 62
    2
 10
1000.9337499036214
 20
784.43908616188583
 11
994.93374990362156
 21
784.43908616188583
  0
LINE
  8
_0-0_計極細
  6
CONTINUOUS
 62
    2
 10
1000.9337499036214
 20
779.43908616188435
 11
994.93374990362156
 21
779.43908616188435
  0
LINE
  8
_0-0_計極細
  6
CONTINUOUS
 62
    2
 10
986.93374990362145
 20
784.43908616188583
 11
980.93374990362145
 21
784.43908616188583
  0
LINE
  8
_0-0_計極細
  6
CONTINUOUS
 62
    2
 10
986.93374990362145
 20
779.43908616188435
 11
980.93374990362145
 21
779.43908616188435
  0
LINE
  8
_0-0_計極細
  6
CONTINUOUS
 62
    2
 10
972.93374990362156
 20
784.43908616188583
 11
966.93374990362145
 21
784.43908616188583
  0
LINE
  8
_0-0_計極細
  6
CONTINUOUS
 62
    2
 10
972.93374990362156
 20
779.43908616188435
 11
966.93374990362145
 21
779.43908616188435
  0
LINE
  8
_0-0_計極細
  6
CONTINUOUS
 62
    2
 10
958.93374990362145
 20
784.43908616188583
 11
952.93374990362156
 21
784.43908616188583
  0
LINE
  8
_0-0_計極細
  6
CONTINUOUS
 62
    2
 10
958.93374990362145
 20
779.43908616188435
 11
952.93374990362156
 21
779.43908616188435
  0
LINE
  8
_0-0_計極細
  6
CONTINUOUS
 62
    2
 10
944.93374990362156
 20
784.43908616188583
 11
938.93374990362145
 21
784.43908616188583
  0
LINE
  8
_0-0_計極細
  6
CONTINUOUS
 62
    2
 10
944.93374990362156
 20
779.43908616188435
 11
938.93374990362145
 21
779.43908616188435
  0
LINE
  8
_0-0_計極細
  6
CONTINUOUS
 62
    2
 10
930.93374990362145
 20
784.43908616188583
 11
924.93374990362156
 21
784.43908616188583
  0
LINE
  8
_0-0_計極細
  6
CONTINUOUS
 62
    2
 10
930.93374990362145
 20
779.43908616188435
 11
924.93374990362156
 21
779.43908616188435
  0
LINE
  8
_0-0_計極細
  6
CONTINUOUS
 62
    2
 10
916.93374990362145
 20
784.43908616188583
 11
910.93374990362145
 21
784.43908616188583
  0
LINE
  8
_0-0_計極細
  6
CONTINUOUS
 62
    2
 10
916.93374990362145
 20
779.43908616188435
 11
910.93374990362145
 21
779.43908616188435
  0
LINE
  8
_0-0_計極細
  6
CONTINUOUS
 62
    2
 10
902.93374990362156
 20
784.43908616188583
 11
896.93374990362145
 21
784.43908616188583
  0
LINE
  8
_0-0_計極細
  6
CONTINUOUS
 62
    2
 10
902.93374990362156
 20
779.43908616188435
 11
896.93374990362145
 21
779.43908616188435
  0
LINE
  8
_0-0_計極細
  6
CONTINUOUS
 62
    2
 10
888.93374990362145
 20
784.43908616188583
 11
882.93374990362156
 21
784.43908616188583
  0
LINE
  8
_0-0_計極細
  6
CONTINUOUS
 62
    2
 10
888.93374990362145
 20
779.43908616188435
 11
882.93374990362156
 21
779.43908616188435
  0
LINE
  8
_0-0_計極細
  6
CONTINUOUS
 62
    2
 10
874.93374990362156
 20
784.43908616188583
 11
868.93374990362145
 21
784.43908616188583
  0
LINE
  8
_0-0_計極細
  6
CONTINUOUS
 62
    2
 10
874.93374990362156
 20
779.43908616188435
 11
868.93374990362145
 21
779.43908616188435
  0
LINE
  8
_0-0_計極細
  6
CONTINUOUS
 62
    2
 10
860.93374990362145
 20
784.43908616188583
 11
854.93374990362156
 21
784.43908616188583
  0
LINE
  8
_0-0_計極細
  6
CONTINUOUS
 62
    2
 10
860.93374990362145
 20
779.43908616188435
 11
854.93374990362156
 21
779.43908616188435
  0
LINE
  8
_0-0_計極細
  6
CONTINUOUS
 62
    2
 10
846.93374990362145
 20
784.43908616188583
 11
840.93374990362145
 21
784.43908616188583
  0
LINE
  8
_0-0_計極細
  6
CONTINUOUS
 62
    2
 10
846.93374990362145
 20
779.43908616188435
 11
840.93374990362145
 21
779.43908616188435
  0
LINE
  8
_0-0_計極細
  6
CONTINUOUS
 62
    2
 10
832.93374990362156
 20
784.43908616188583
 11
826.93374990362145
 21
784.43908616188583
  0
LINE
  8
_0-0_計極細
  6
CONTINUOUS
 62
    2
 10
832.93374990362156
 20
779.43908616188435
 11
826.93374990362145
 21
779.43908616188435
  0
LINE
  8
_0-0_計極細
  6
CONTINUOUS
 62
    2
 10
818.93374990362145
 20
784.43908616188583
 11
812.93374990362156
 21
784.43908616188583
  0
LINE
  8
_0-0_計極細
  6
CONTINUOUS
 62
    2
 10
818.93374990362145
 20
779.43908616188435
 11
812.93374990362156
 21
779.43908616188435
  0
LINE
  8
_0-0_計極細
  6
CONTINUOUS
 62
    2
 10
804.93374990362156
 20
784.43908616188583
 11
798.93374990362145
 21
784.43908616188583
  0
LINE
  8
_0-0_計極細
  6
CONTINUOUS
 62
    2
 10
804.93374990362156
 20
779.43908616188435
 11
798.93374990362145
 21
779.43908616188435
  0
LINE
  8
_0-0_計極細
  6
CONTINUOUS
 62
    2
 10
790.93374990362145
 20
784.43908616188583
 11
784.93374990362156
 21
784.43908616188583
  0
LINE
  8
_0-0_計極細
  6
CONTINUOUS
 62
    2
 10
790.93374990362145
 20
779.43908616188435
 11
784.93374990362156
 21
779.43908616188435
  0
LINE
  8
_0-0_計極細
  6
CONTINUOUS
 62
    2
 10
776.93374990362145
 20
784.43908616188583
 11
770.93374990362145
 21
784.43908616188583
  0
LINE
  8
_0-0_計極細
  6
CONTINUOUS
 62
    2
 10
776.93374990362145
 20
779.43908616188435
 11
770.93374990362145
 21
779.43908616188435
  0
LINE
  8
_0-0_計極細
  6
CONTINUOUS
 62
    2
 10
762.93374990362156
 20
784.43908616188583
 11
756.93374990362145
 21
784.43908616188583
  0
LINE
  8
_0-0_計極細
  6
CONTINUOUS
 62
    2
 10
762.93374990362156
 20
779.43908616188435
 11
756.93374990362145
 21
779.43908616188435
  0
LINE
  8
_0-0_計極細
  6
CONTINUOUS
 62
    2
 10
748.93374990362145
 20
784.43908616188583
 11
742.93374990362156
 21
784.43908616188583
  0
LINE
  8
_0-0_計極細
  6
CONTINUOUS
 62
    2
 10
748.93374990362145
 20
779.43908616188435
 11
742.93374990362156
 21
779.43908616188435
  0
LINE
  8
_0-0_計極細
  6
CONTINUOUS
 62
    2
 10
734.93374990362145
 20
784.43908616188583
 11
728.93374990362145
 21
784.43908616188583
  0
LINE
  8
_0-0_計極細
  6
CONTINUOUS
 62
    2
 10
734.93374990362145
 20
779.43908616188435
 11
728.93374990362145
 21
779.43908616188435
  0
LINE
  8
_0-0_計極細
  6
CONTINUOUS
 62
    2
 10
720.93374990362145
 20
784.43908616188583
 11
714.93374990362145
 21
784.43908616188583
  0
LINE
  8
_0-0_計極細
  6
CONTINUOUS
 62
    2
 10
720.93374990362145
 20
779.43908616188435
 11
714.93374990362145
 21
779.43908616188435
  0
LINE
  8
_0-0_計極細
  6
CONTINUOUS
 62
    2
 10
706.93374990362145
 20
784.43908616188583
 11
700.93374990362145
 21
784.43908616188583
  0
LINE
  8
_0-0_計極細
  6
CONTINUOUS
 62
    2
 10
706.93374990362145
 20
779.43908616188435
 11
700.93374990362145
 21
779.43908616188435
  0
LINE
  8
_0-0_計極細
  6
CONTINUOUS
 62
    2
 10
692.93374990362156
 20
784.43908616188583
 11
686.93374990362145
 21
784.43908616188583
  0
LINE
  8
_0-0_計極細
  6
CONTINUOUS
 62
    2
 10
692.93374990362156
 20
779.43908616188435
 11
686.93374990362145
 21
779.43908616188435
  0
LINE
  8
_0-0_計極細
  6
CONTINUOUS
 62
    2
 10
678.93374990362145
 20
784.43908616188583
 11
672.93374990362156
 21
784.43908616188583
  0
LINE
  8
_0-0_計極細
  6
CONTINUOUS
 62
    2
 10
678.93374990362145
 20
779.43908616188435
 11
672.93374990362156
 21
779.43908616188435
  0
LINE
  8
_0-0_計極細
  6
CONTINUOUS
 62
    2
 10
664.93374990362145
 20
784.43908616188583
 11
658.93374990362145
 21
784.43908616188583
  0
LINE
  8
_0-0_計極細
  6
CONTINUOUS
 62
    2
 10
664.93374990362145
 20
779.43908616188435
 11
658.93374990362145
 21
779.43908616188435
  0
LINE
  8
_0-0_計極細
  6
CONTINUOUS
 62
    2
 10
650.93374990362145
 20
784.43908616188583
 11
644.93374990362145
 21
784.43908616188583
  0
LINE
  8
_0-0_計極細
  6
CONTINUOUS
 62
    2
 10
650.93374990362145
 20
779.43908616188435
 11
644.93374990362145
 21
779.43908616188435
  0
LINE
  8
_0-0_計極細
  6
CONTINUOUS
 62
    2
 10
636.93374990362145
 20
784.43908616188583
 11
630.93374990362145
 21
784.43908616188583
  0
LINE
  8
_0-0_計極細
  6
CONTINUOUS
 62
    2
 10
636.93374990362145
 20
779.43908616188435
 11
630.93374990362145
 21
779.43908616188435
  0
LINE
  8
_0-0_計極細
  6
CONTINUOUS
 62
    2
 10
622.93374990362145
 20
784.43908616188583
 11
616.93374990362145
 21
784.43908616188583
  0
LINE
  8
_0-0_計極細
  6
CONTINUOUS
 62
    2
 10
622.93374990362145
 20
779.43908616188435
 11
616.93374990362145
 21
779.43908616188435
  0
LINE
  8
_0-0_計極細
  6
CONTINUOUS
 62
    2
 10
608.93374990362145
 20
784.43908616188583
 11
602.93374990362145
 21
784.43908616188583
  0
LINE
  8
_0-0_計極細
  6
CONTINUOUS
 62
    2
 10
608.93374990362145
 20
779.43908616188435
 11
602.93374990362145
 21
779.43908616188435
  0
LINE
  8
_0-0_計極細
  6
CONTINUOUS
 62
    2
 10
594.93374990362145
 20
784.43908616188583
 11
588.93374990362145
 21
784.43908616188583
  0
LINE
  8
_0-0_計極細
  6
CONTINUOUS
 62
    2
 10
594.93374990362145
 20
779.43908616188435
 11
588.93374990362145
 21
779.43908616188435
  0
LINE
  8
_0-0_計極細
  6
CONTINUOUS
 62
    2
 10
580.93374990362145
 20
784.43908616188583
 11
574.93374990362145
 21
784.43908616188583
  0
LINE
  8
_0-0_計極細
  6
CONTINUOUS
 62
    2
 10
580.93374990362145
 20
779.43908616188435
 11
574.93374990362145
 21
779.43908616188435
  0
LINE
  8
_0-0_計極細
  6
CONTINUOUS
 62
    2
 10
566.93374990362145
 20
784.43908616188583
 11
560.93374990362145
 21
784.43908616188583
  0
LINE
  8
_0-0_計極細
  6
CONTINUOUS
 62
    2
 10
566.93374990362145
 20
779.43908616188435
 11
560.93374990362145
 21
779.43908616188435
  0
LINE
  8
_0-0_計極細
  6
CONTINUOUS
 62
    2
 10
552.93374990362145
 20
784.43908616188583
 11
546.93374990362145
 21
784.43908616188583
  0
LINE
  8
_0-0_計極細
  6
CONTINUOUS
 62
    2
 10
552.93374990362145
 20
779.43908616188435
 11
546.93374990362145
 21
779.43908616188435
  0
LINE
  8
_0-0_計極細
  6
CONTINUOUS
 62
    2
 10
538.93374990362145
 20
784.43908616188583
 11
532.93374990362145
 21
784.43908616188583
  0
LINE
  8
_0-0_計極細
  6
CONTINUOUS
 62
    2
 10
538.93374990362145
 20
779.43908616188435
 11
532.93374990362145
 21
779.43908616188435
  0
LINE
  8
_0-0_計極細
  6
CONTINUOUS
 62
    2
 10
524.93374990362145
 20
784.43908616188583
 11
518.93374990362145
 21
784.43908616188583
  0
LINE
  8
_0-0_計極細
  6
CONTINUOUS
 62
    2
 10
524.93374990362145
 20
779.43908616188435
 11
518.93374990362145
 21
779.43908616188435
  0
LINE
  8
_0-0_計極細
  6
CONTINUOUS
 62
    2
 10
510.9337499036215
 20
784.43908616188583
 11
504.9337499036215
 21
784.43908616188583
  0
LINE
  8
_0-0_計極細
  6
CONTINUOUS
 62
    2
 10
510.9337499036215
 20
779.43908616188435
 11
504.9337499036215
 21
779.43908616188435
  0
LINE
  8
_0-0_計極細
  6
CONTINUOUS
 62
    2
 10
496.93374990362145
 20
784.43908616188583
 11
490.9337499036215
 21
784.43908616188583
  0
LINE
  8
_0-0_計極細
  6
CONTINUOUS
 62
    2
 10
496.93374990362145
 20
779.43908616188435
 11
490.9337499036215
 21
779.43908616188435
  0
LINE
  8
_0-0_計極細
  6
CONTINUOUS
 62
    2
 10
482.93374990362145
 20
784.43908616188583
 11
476.93374990362145
 21
784.43908616188583
  0
LINE
  8
_0-0_計極細
  6
CONTINUOUS
 62
    2
 10
482.93374990362145
 20
779.43908616188435
 11
476.93374990362145
 21
779.43908616188435
  0
LINE
  8
_0-0_計極細
  6
CONTINUOUS
 62
    2
 10
468.93374990362145
 20
784.43908616188583
 11
462.93374990362145
 21
784.43908616188583
  0
LINE
  8
_0-0_計極細
  6
CONTINUOUS
 62
    2
 10
468.93374990362145
 20
779.43908616188435
 11
462.93374990362145
 21
779.43908616188435
  0
LINE
  8
_0-0_計極細
  6
CONTINUOUS
 62
    2
 10
454.9337499036215
 20
784.43908616188583
 11
448.93374990362145
 21
784.43908616188583
  0
LINE
  8
_0-0_計極細
  6
CONTINUOUS
 62
    2
 10
454.9337499036215
 20
779.43908616188435
 11
448.93374990362145
 21
779.43908616188435
  0
LINE
  8
_0-0_計極細
  6
CONTINUOUS
 62
    2
 10
440.9337499036215
 20
784.43908616188583
 11
434.9337499036215
 21
784.43908616188583
  0
LINE
  8
_0-0_計極細
  6
CONTINUOUS
 62
    2
 10
440.9337499036215
 20
779.43908616188435
 11
434.9337499036215
 21
779.43908616188435
  0
LINE
  8
_0-0_計極細
  6
CONTINUOUS
 62
    2
 10
426.93374990362145
 20
784.43908616188583
 11
420.9337499036215
 21
784.43908616188583
  0
LINE
  8
_0-0_計極細
  6
CONTINUOUS
 62
    2
 10
426.93374990362145
 20
779.43908616188435
 11
420.9337499036215
 21
779.43908616188435
  0
LINE
  8
_0-0_計極細
  6
CONTINUOUS
 62
    2
 10
412.93374990362145
 20
784.43908616188583
 11
406.93374990362145
 21
784.43908616188583
  0
LINE
  8
_0-0_計極細
  6
CONTINUOUS
 62
    2
 10
412.93374990362145
 20
779.43908616188435
 11
406.93374990362145
 21
779.43908616188435
  0
LINE
  8
_0-0_計極細
  6
CONTINUOUS
 62
    2
 10
398.93374990362145
 20
784.43908616188583
 11
392.93374990362145
 21
784.43908616188583
  0
LINE
  8
_0-0_計極細
  6
CONTINUOUS
 62
    2
 10
398.93374990362145
 20
779.43908616188435
 11
392.93374990362145
 21
779.43908616188435
  0
LINE
  8
_0-0_計極細
  6
CONTINUOUS
 62
    2
 10
384.9337499036215
 20
784.43908616188583
 11
378.93374990362145
 21
784.43908616188583
  0
LINE
  8
_0-0_計極細
  6
CONTINUOUS
 62
    2
 10
384.9337499036215
 20
779.43908616188435
 11
378.93374990362145
 21
779.43908616188435
  0
LINE
  8
_0-0_計極細
  6
CONTINUOUS
 62
    2
 10
370.93374990362145
 20
784.43908616188583
 11
364.9337499036215
 21
784.43908616188583
  0
LINE
  8
_0-0_計極細
  6
CONTINUOUS
 62
    2
 10
370.93374990362145
 20
779.43908616188435
 11
364.9337499036215
 21
779.43908616188435
  0
LINE
  8
_0-0_計極細
  6
CONTINUOUS
 62
    2
 10
356.93374990362145
 20
784.43908616188583
 11
350.93374990362145
 21
784.43908616188583
  0
LINE
  8
_0-0_計極細
  6
CONTINUOUS
 62
    2
 10
356.93374990362145
 20
779.43908616188435
 11
350.93374990362145
 21
779.43908616188435
  0
LINE
  8
_0-0_計極細
  6
CONTINUOUS
 62
    2
 10
342.93374990362145
 20
784.43908616188583
 11
336.93374990362145
 21
784.43908616188583
  0
LINE
  8
_0-0_計極細
  6
CONTINUOUS
 62
    2
 10
342.93374990362145
 20
779.43908616188435
 11
336.93374990362145
 21
779.43908616188435
  0
LINE
  8
_0-0_計極細
  6
CONTINUOUS
 62
    2
 10
328.93374990362145
 20
784.43908616188583
 11
322.93374990362145
 21
784.43908616188583
  0
LINE
  8
_0-0_計極細
  6
CONTINUOUS
 62
    2
 10
328.93374990362145
 20
779.43908616188435
 11
322.93374990362145
 21
779.43908616188435
  0
LINE
  8
_0-0_計極細
  6
CONTINUOUS
 62
    2
 10
314.93374990362145
 20
784.43908616188583
 11
308.93374990362145
 21
784.43908616188583
  0
LINE
  8
_0-0_計極細
  6
CONTINUOUS
 62
    2
 10
314.93374990362145
 20
779.43908616188435
 11
308.93374990362145
 21
779.43908616188435
  0
LINE
  8
_0-0_計極細
  6
CONTINUOUS
 62
    2
 10
300.9337499036215
 20
784.43908616188583
 11
294.93374990362145
 21
784.43908616188583
  0
LINE
  8
_0-0_計極細
  6
CONTINUOUS
 62
    2
 10
300.9337499036215
 20
779.43908616188435
 11
294.93374990362145
 21
779.43908616188435
  0
LINE
  8
_0-0_計極細
  6
CONTINUOUS
 62
    2
 10
286.93374990362145
 20
784.43908616188583
 11
280.9337499036215
 21
784.43908616188583
  0
LINE
  8
_0-0_計極細
  6
CONTINUOUS
 62
    2
 10
286.93374990362145
 20
779.43908616188435
 11
280.9337499036215
 21
779.43908616188435
  0
LINE
  8
_0-0_計極細
  6
CONTINUOUS
 62
    2
 10
272.93374990362145
 20
784.43908616188583
 11
266.93374990362145
 21
784.43908616188583
  0
LINE
  8
_0-0_計極細
  6
CONTINUOUS
 62
    2
 10
272.93374990362145
 20
779.43908616188435
 11
266.93374990362145
 21
779.43908616188435
  0
LINE
  8
_0-0_計極細
  6
CONTINUOUS
 62
    2
 10
258.93374990362145
 20
784.43908616188583
 11
252.93374990362145
 21
784.43908616188583
  0
LINE
  8
_0-0_計極細
  6
CONTINUOUS
 62
    2
 10
258.93374990362145
 20
779.43908616188435
 11
252.93374990362145
 21
779.43908616188435
  0
LINE
  8
_0-0_計極細
  6
CONTINUOUS
 62
    2
 10
244.93374990362142
 20
784.43908616188583
 11
238.93374990362148
 21
784.43908616188583
  0
LINE
  8
_0-0_計極細
  6
CONTINUOUS
 62
    2
 10
244.93374990362142
 20
779.43908616188435
 11
238.93374990362148
 21
779.43908616188435
  0
LINE
  8
_0-5_寸法線
  6
CONTINUOUS
 62
    7
 10
230.9337499036215
 20
821.93908616188583
 11
230.9337499036215
 21
866.93908616188583
  0
LINE
  8
_0-5_寸法線
  6
CONTINUOUS
 62
    7
 10
230.9337499036215
 20
861.93908616188583
 11
240.59300816651216
 21
864.5272766129109
  0
LINE
  8
_0-5_寸法線
  6
CONTINUOUS
 62
    7
 10
230.9337499036215
 20
861.93908616188583
 11
240.59300816651216
 21
859.35089571086053
  0
LINE
  8
_0-5_寸法線
  6
CONTINUOUS
 62
    7
 10
1218.9337499036214
 20
821.93908616188583
 11
1218.9337499036214
 21
866.93908616188583
  0
LINE
  8
_0-5_寸法線
  6
CONTINUOUS
 62
    7
 10
1218.9337499036214
 20
861.93908616188583
 11
1209.2744916407307
 21
859.35089571086053
  0
LINE
  8
_0-5_寸法線
  6
CONTINUOUS
 62
    7
 10
1218.9337499036214
 20
861.93908616188583
 11
1209.2744916407307
 21
864.5272766129109
  0
LINE
  8
_0-5_寸法線
  6
CONTINUOUS
 62
    7
 10
230.9337499036215
 20
861.93908616188583
 11
1218.9337499036214
 21
861.93908616188583
  0
TEXT
  8
_0-5_寸法線
 62
    7
 10
713.68374990362145
 20
861.93908616188583
 40
15
 41
1
 50
0
  1
988
  0
LINE
  8
_0-5_寸法線
  6
CONTINUOUS
 62
    7
 10
563.86406616638305
 20
553.31706851131855
 11
568.86406617750742
 21
544.65681447989687
  0
LINE
  8
_0-5_寸法線
  6
CONTINUOUS
 62
    7
 10
563.86406616638305
 20
553.31706851131855
 11
563.86406617922842
 21
543.31706851131855
  0
LINE
  8
_0-5_寸法線
  6
CONTINUOUS
 62
    7
 10
563.86406616638305
 20
553.31706851131855
 11
575.7054357238485
 21
509.12447591872603
  0
LINE
  8
_0-5_寸法線
  6
CONTINUOUS
 62
    7
 10
575.7054357238485
 20
509.12447591872603
 11
683.70543572384861
 21
509.12447591872603
  0
TEXT
  8
_0-5_寸法線
 62
    7
 10
575.7054357238485
 20
509.72447591872594
 40
15
 41
0.8000000000000001
 50
0
  1
ＳＵＳアングル受枠
  0
LINE
  8
_0-1_計細線
  6
CONTINUOUS
 62
    3
 10
230.9337499036215
 20
581.93908616188571
 11
200.9337499036215
 21
581.93908616188571
  0
LINE
  8
_0-1_計細線
  6
CONTINUOUS
 62
    3
 10
1248.933749903621
 20
581.93908616188571
 11
1218.933749903621
 21
581.93908616188571
  0
LINE
  8
_0-1_計細線
  6
CONTINUOUS
 62
    3
 10
202.32086702737979
 20
554.93908616188708
 11
1250.3208670273802
 21
554.93908616188583
  0
LINE
  8
_0-1_計細線
  6
CONTINUOUS
 62
    3
 10
200.9337499036215
 20
551.93908616188708
 11
1248.933749903621
 21
551.93908616188571
  0
ARC
  8
_0-1_計細線
  6
CONTINUOUS
 62
    3
 10
188.65075465349292
 20
559.43908616188571
 40
14.391732776655759
 50
328.59175045525654
 51
31.408249544743221
  0
ARC
  8
_0-1_計細線
  6
CONTINUOUS
 62
    3
 10
213.21674515374866
 20
574.43908616188571
 40
14.391732776655743
 50
148.59175045525842
 51
211.40824954474076
  0
ARC
  8
_0-1_計細線
  6
CONTINUOUS
 62
    3
 10
1236.6507546534931
 20
559.43908616188571
 40
14.391732776655772
 50
328.59175045525654
 51
31.408249544741235
  0
ARC
  8
_0-1_計細線
  6
CONTINUOUS
 62
    3
 10
1261.2167451537489
 20
574.43908616188571
 40
14.391732776655658
 50
148.59175045525842
 51
211.40824954474121
  0
LINE
  8
_0-1_計細線
  6
CONTINUOUS
 62
    3
 10
238.93374990362148
 20
559.93908616188583
 11
230.9337499036215
 21
559.93908616188583
  0
LINE
  8
_0-1_計細線
  6
CONTINUOUS
 62
    3
 10
252.93374990362145
 20
559.93908616188583
 11
244.93374990362142
 21
559.93908616188583
  0
LINE
  8
_0-1_計細線
  6
CONTINUOUS
 62
    3
 10
266.93374990362145
 20
559.93908616188583
 11
258.93374990362145
 21
559.93908616188583
  0
LINE
  8
_0-1_計細線
  6
CONTINUOUS
 62
    3
 10
280.9337499036215
 20
559.93908616188583
 11
272.93374990362145
 21
559.93908616188583
  0
LINE
  8
_0-1_計細線
  6
CONTINUOUS
 62
    3
 10
294.93374990362145
 20
559.93908616188583
 11
286.93374990362145
 21
559.93908616188583
  0
LINE
  8
_0-1_計細線
  6
CONTINUOUS
 62
    3
 10
308.93374990362145
 20
559.93908616188583
 11
300.9337499036215
 21
559.93908616188583
  0
LINE
  8
_0-1_計細線
  6
CONTINUOUS
 62
    3
 10
322.93374990362145
 20
559.93908616188583
 11
314.93374990362145
 21
559.93908616188583
  0
LINE
  8
_0-1_計細線
  6
CONTINUOUS
 62
    3
 10
336.93374990362145
 20
559.93908616188583
 11
328.93374990362145
 21
559.93908616188583
  0
LINE
  8
_0-1_計細線
  6
CONTINUOUS
 62
    3
 10
350.93374990362145
 20
559.93908616188583
 11
342.93374990362145
 21
559.93908616188583
  0
LINE
  8
_0-1_計細線
  6
CONTINUOUS
 62
    3
 10
364.9337499036215
 20
559.93908616188583
 11
356.93374990362145
 21
559.93908616188583
  0
LINE
  8
_0-1_計細線
  6
CONTINUOUS
 62
    3
 10
378.93374990362145
 20
559.93908616188583
 11
370.93374990362145
 21
559.93908616188583
  0
LINE
  8
_0-1_計細線
  6
CONTINUOUS
 62
    3
 10
392.93374990362145
 20
559.93908616188583
 11
384.9337499036215
 21
559.93908616188583
  0
LINE
  8
_0-1_計細線
  6
CONTINUOUS
 62
    3
 10
406.93374990362145
 20
559.93908616188583
 11
398.93374990362145
 21
559.93908616188583
  0
LINE
  8
_0-1_計細線
  6
CONTINUOUS
 62
    3
 10
420.9337499036215
 20
559.93908616188583
 11
412.93374990362145
 21
559.93908616188583
  0
LINE
  8
_0-1_計細線
  6
CONTINUOUS
 62
    3
 10
434.9337499036215
 20
559.93908616188583
 11
426.93374990362145
 21
559.93908616188583
  0
LINE
  8
_0-1_計細線
  6
CONTINUOUS
 62
    3
 10
448.93374990362145
 20
559.93908616188583
 11
440.9337499036215
 21
559.93908616188583
  0
LINE
  8
_0-1_計細線
  6
CONTINUOUS
 62
    3
 10
462.93374990362145
 20
559.93908616188583
 11
454.9337499036215
 21
559.93908616188583
  0
LINE
  8
_0-1_計細線
  6
CONTINUOUS
 62
    3
 10
476.93374990362145
 20
559.93908616188583
 11
468.93374990362145
 21
559.93908616188583
  0
LINE
  8
_0-1_計細線
  6
CONTINUOUS
 62
    3
 10
490.9337499036215
 20
559.93908616188583
 11
482.93374990362145
 21
559.93908616188583
  0
LINE
  8
_0-1_計細線
  6
CONTINUOUS
 62
    3
 10
504.9337499036215
 20
559.93908616188583
 11
496.93374990362145
 21
559.93908616188583
  0
LINE
  8
_0-1_計細線
  6
CONTINUOUS
 62
    3
 10
518.93374990362145
 20
559.93908616188583
 11
510.9337499036215
 21
559.93908616188583
  0
LINE
  8
_0-1_計細線
  6
CONTINUOUS
 62
    3
 10
532.93374990362145
 20
559.93908616188583
 11
524.93374990362145
 21
559.93908616188583
  0
LINE
  8
_0-1_計細線
  6
CONTINUOUS
 62
    3
 10
546.93374990362145
 20
559.93908616188583
 11
538.93374990362145
 21
559.93908616188583
  0
LINE
  8
_0-1_計細線
  6
CONTINUOUS
 62
    3
 10
560.93374990362145
 20
559.93908616188583
 11
552.93374990362145
 21
559.93908616188583
  0
LINE
  8
_0-1_計細線
  6
CONTINUOUS
 62
    3
 10
574.93374990362145
 20
559.93908616188583
 11
566.93374990362145
 21
559.93908616188583
  0
LINE
  8
_0-1_計細線
  6
CONTINUOUS
 62
    3
 10
588.93374990362145
 20
559.93908616188583
 11
580.93374990362145
 21
559.93908616188583
  0
LINE
  8
_0-1_計細線
  6
CONTINUOUS
 62
    3
 10
602.93374990362145
 20
559.93908616188583
 11
594.93374990362145
 21
559.93908616188583
  0
LINE
  8
_0-1_計細線
  6
CONTINUOUS
 62
    3
 10
616.93374990362145
 20
559.93908616188583
 11
608.93374990362145
 21
559.93908616188583
  0
LINE
  8
_0-1_計細線
  6
CONTINUOUS
 62
    3
 10
630.93374990362145
 20
559.93908616188583
 11
622.93374990362145
 21
559.93908616188583
  0
LINE
  8
_0-1_計細線
  6
CONTINUOUS
 62
    3
 10
644.93374990362145
 20
559.93908616188583
 11
636.93374990362145
 21
559.93908616188583
  0
LINE
  8
_0-1_計細線
  6
CONTINUOUS
 62
    3
 10
658.93374990362145
 20
559.93908616188583
 11
650.93374990362145
 21
559.93908616188583
  0
LINE
  8
_0-1_計細線
  6
CONTINUOUS
 62
    3
 10
672.93374990362156
 20
559.93908616188583
 11
664.93374990362145
 21
559.93908616188583
  0
LINE
  8
_0-1_計細線
  6
CONTINUOUS
 62
    3
 10
686.93374990362145
 20
559.93908616188583
 11
678.93374990362145
 21
559.93908616188583
  0
LINE
  8
_0-1_計細線
  6
CONTINUOUS
 62
    3
 10
700.93374990362145
 20
559.93908616188583
 11
692.93374990362156
 21
559.93908616188583
  0
LINE
  8
_0-1_計細線
  6
CONTINUOUS
 62
    3
 10
714.93374990362145
 20
559.93908616188583
 11
706.93374990362145
 21
559.93908616188583
  0
LINE
  8
_0-1_計細線
  6
CONTINUOUS
 62
    3
 10
728.93374990362145
 20
559.93908616188583
 11
720.93374990362145
 21
559.93908616188583
  0
LINE
  8
_0-1_計細線
  6
CONTINUOUS
 62
    3
 10
742.93374990362156
 20
559.93908616188583
 11
734.93374990362145
 21
559.93908616188583
  0
LINE
  8
_0-1_計細線
  6
CONTINUOUS
 62
    3
 10
756.93374990362145
 20
559.93908616188583
 11
748.93374990362145
 21
559.93908616188583
  0
LINE
  8
_0-1_計細線
  6
CONTINUOUS
 62
    3
 10
770.93374990362145
 20
559.93908616188583
 11
762.93374990362156
 21
559.93908616188583
  0
LINE
  8
_0-1_計細線
  6
CONTINUOUS
 62
    3
 10
784.93374990362156
 20
559.93908616188583
 11
776.93374990362145
 21
559.93908616188583
  0
LINE
  8
_0-1_計細線
  6
CONTINUOUS
 62
    3
 10
798.93374990362145
 20
559.93908616188583
 11
790.93374990362145
 21
559.93908616188583
  0
LINE
  8
_0-1_計細線
  6
CONTINUOUS
 62
    3
 10
812.93374990362156
 20
559.93908616188583
 11
804.93374990362156
 21
559.93908616188583
  0
LINE
  8
_0-1_計細線
  6
CONTINUOUS
 62
    3
 10
826.93374990362145
 20
559.93908616188583
 11
818.93374990362145
 21
559.93908616188583
  0
LINE
  8
_0-1_計細線
  6
CONTINUOUS
 62
    3
 10
840.93374990362145
 20
559.93908616188583
 11
832.93374990362156
 21
559.93908616188583
  0
LINE
  8
_0-1_計細線
  6
CONTINUOUS
 62
    3
 10
854.93374990362156
 20
559.93908616188583
 11
846.93374990362145
 21
559.93908616188583
  0
LINE
  8
_0-1_計細線
  6
CONTINUOUS
 62
    3
 10
868.93374990362145
 20
559.93908616188583
 11
860.93374990362145
 21
559.93908616188583
  0
LINE
  8
_0-1_計細線
  6
CONTINUOUS
 62
    3
 10
882.93374990362156
 20
559.93908616188583
 11
874.93374990362156
 21
559.93908616188583
  0
LINE
  8
_0-1_計細線
  6
CONTINUOUS
 62
    3
 10
896.93374990362145
 20
559.93908616188583
 11
888.93374990362145
 21
559.93908616188583
  0
LINE
  8
_0-1_計細線
  6
CONTINUOUS
 62
    3
 10
910.93374990362145
 20
559.93908616188583
 11
902.93374990362156
 21
559.93908616188583
  0
LINE
  8
_0-1_計細線
  6
CONTINUOUS
 62
    3
 10
924.93374990362156
 20
559.93908616188583
 11
916.93374990362145
 21
559.93908616188583
  0
LINE
  8
_0-1_計細線
  6
CONTINUOUS
 62
    3
 10
938.93374990362145
 20
559.93908616188583
 11
930.93374990362145
 21
559.93908616188583
  0
LINE
  8
_0-1_計細線
  6
CONTINUOUS
 62
    3
 10
952.93374990362156
 20
559.93908616188583
 11
944.93374990362156
 21
559.93908616188583
  0
LINE
  8
_0-1_計細線
  6
CONTINUOUS
 62
    3
 10
966.93374990362145
 20
559.93908616188583
 11
958.93374990362145
 21
559.93908616188583
  0
LINE
  8
_0-1_計細線
  6
CONTINUOUS
 62
    3
 10
980.93374990362145
 20
559.93908616188583
 11
972.93374990362156
 21
559.93908616188583
  0
LINE
  8
_0-1_計細線
  6
CONTINUOUS
 62
    3
 10
994.93374990362156
 20
559.93908616188583
 11
986.93374990362145
 21
559.93908616188583
  0
LINE
  8
_0-1_計細線
  6
CONTINUOUS
 62
    3
 10
1008.9337499036214
 20
559.93908616188583
 11
1000.9337499036214
 21
559.93908616188583
  0
LINE
  8
_0-1_計細線
  6
CONTINUOUS
 62
    3
 10
1022.9337499036216
 20
559.93908616188583
 11
1014.9337499036216
 21
559.93908616188583
  0
LINE
  8
_0-1_計細線
  6
CONTINUOUS
 62
    3
 10
1036.9337499036214
 20
559.93908616188583
 11
1028.9337499036214
 21
559.93908616188583
  0
LINE
  8
_0-1_計細線
  6
CONTINUOUS
 62
    3
 10
1050.9337499036214
 20
559.93908616188583
 11
1042.9337499036214
 21
559.93908616188583
  0
LINE
  8
_0-1_計細線
  6
CONTINUOUS
 62
    3
 10
1064.9337499036214
 20
559.93908616188583
 11
1056.9337499036214
 21
559.93908616188583
  0
LINE
  8
_0-1_計細線
  6
CONTINUOUS
 62
    3
 10
1078.9337499036214
 20
559.93908616188583
 11
1070.9337499036214
 21
559.93908616188583
  0
LINE
  8
_0-1_計細線
  6
CONTINUOUS
 62
    3
 10
1092.9337499036214
 20
559.93908616188583
 11
1084.9337499036214
 21
559.93908616188583
  0
LINE
  8
_0-1_計細線
  6
CONTINUOUS
 62
    3
 10
1106.9337499036214
 20
559.93908616188583
 11
1098.9337499036214
 21
559.93908616188583
  0
LINE
  8
_0-1_計細線
  6
CONTINUOUS
 62
    3
 10
1120.9337499036214
 20
559.93908616188583
 11
1112.9337499036214
 21
559.93908616188583
  0
LINE
  8
_0-1_計細線
  6
CONTINUOUS
 62
    3
 10
1134.933749903621
 20
559.93908616188583
 11
1126.933749903621
 21
559.93908616188583
  0
LINE
  8
_0-1_計細線
  6
CONTINUOUS
 62
    3
 10
1148.933749903621
 20
559.93908616188583
 11
1140.933749903621
 21
559.93908616188583
  0
LINE
  8
_0-1_計細線
  6
CONTINUOUS
 62
    3
 10
1162.933749903621
 20
559.93908616188583
 11
1154.933749903621
 21
559.93908616188583
  0
LINE
  8
_0-1_計細線
  6
CONTINUOUS
 62
    3
 10
1176.933749903621
 20
559.93908616188583
 11
1168.933749903621
 21
559.93908616188583
  0
LINE
  8
_0-1_計細線
  6
CONTINUOUS
 62
    3
 10
1190.933749903621
 20
559.93908616188583
 11
1182.933749903621
 21
559.93908616188583
  0
LINE
  8
_0-1_計細線
  6
CONTINUOUS
 62
    3
 10
1204.933749903621
 20
559.93908616188583
 11
1196.933749903621
 21
559.93908616188583
  0
LINE
  8
_0-1_計細線
  6
CONTINUOUS
 62
    3
 10
1218.933749903621
 20
559.93908616188583
 11
1210.933749903621
 21
559.93908616188583
  0
LINE
  8
_0-1_計細線
  6
CONTINUOUS
 62
    3
 10
1218.933749903621
 20
556.93908616188571
 11
1218.933749903621
 21
559.93908616188583
  0
LINE
  8
_0-1_計細線
  6
CONTINUOUS
 62
    3
 10
230.9337499036215
 20
556.93908616188571
 11
1218.933749903621
 21
556.93908616188571
  0
LINE
  8
_0-1_計細線
  6
CONTINUOUS
 62
    3
 10
230.9337499036215
 20
559.93908616188583
 11
230.9337499036215
 21
556.93908616188571
  0
LINE
  8
_0-1_計細線
  6
CONTINUOUS
 62
    3
 10
1218.933749903621
 20
559.93908616188583
 11
230.9337499036215
 21
559.93908616188583
  0
LINE
  8
_0-0_計極細
  6
CONTINUOUS
 62
    2
 10
1210.933749903621
 20
584.43908616188571
 11
1204.933749903621
 21
584.43908616188571
  0
LINE
  8
_0-0_計極細
  6
CONTINUOUS
 62
    2
 10
1210.933749903621
 20
579.43908616188571
 11
1204.933749903621
 21
579.43908616188571
  0
LINE
  8
_0-0_計極細
  6
CONTINUOUS
 62
    2
 10
1196.933749903621
 20
584.43908616188571
 11
1190.933749903621
 21
584.43908616188571
  0
LINE
  8
_0-0_計極細
  6
CONTINUOUS
 62
    2
 10
1196.933749903621
 20
579.43908616188571
 11
1190.933749903621
 21
579.43908616188571
  0
LINE
  8
_0-0_計極細
  6
CONTINUOUS
 62
    2
 10
1182.933749903621
 20
584.43908616188571
 11
1176.933749903621
 21
584.43908616188571
  0
LINE
  8
_0-0_計極細
  6
CONTINUOUS
 62
    2
 10
1182.933749903621
 20
579.43908616188571
 11
1176.933749903621
 21
579.43908616188571
  0
LINE
  8
_0-0_計極細
  6
CONTINUOUS
 62
    2
 10
1168.933749903621
 20
584.43908616188571
 11
1162.933749903621
 21
584.43908616188571
  0
LINE
  8
_0-0_計極細
  6
CONTINUOUS
 62
    2
 10
1168.933749903621
 20
579.43908616188571
 11
1162.933749903621
 21
579.43908616188571
  0
LINE
  8
_0-0_計極細
  6
CONTINUOUS
 62
    2
 10
1154.933749903621
 20
584.43908616188571
 11
1148.933749903621
 21
584.43908616188571
  0
LINE
  8
_0-0_計極細
  6
CONTINUOUS
 62
    2
 10
1154.933749903621
 20
579.43908616188571
 11
1148.933749903621
 21
579.43908616188571
  0
LINE
  8
_0-0_計極細
  6
CONTINUOUS
 62
    2
 10
1140.933749903621
 20
584.43908616188571
 11
1134.933749903621
 21
584.43908616188571
  0
LINE
  8
_0-0_計極細
  6
CONTINUOUS
 62
    2
 10
1140.933749903621
 20
579.43908616188571
 11
1134.933749903621
 21
579.43908616188571
  0
LINE
  8
_0-0_計極細
  6
CONTINUOUS
 62
    2
 10
1126.933749903621
 20
584.43908616188571
 11
1120.9337499036214
 21
584.43908616188571
  0
LINE
  8
_0-0_計極細
  6
CONTINUOUS
 62
    2
 10
1126.933749903621
 20
579.43908616188571
 11
1120.9337499036214
 21
579.43908616188571
  0
LINE
  8
_0-0_計極細
  6
CONTINUOUS
 62
    2
 10
1112.9337499036214
 20
584.43908616188571
 11
1106.9337499036214
 21
584.43908616188571
  0
LINE
  8
_0-0_計極細
  6
CONTINUOUS
 62
    2
 10
1112.9337499036214
 20
579.43908616188571
 11
1106.9337499036214
 21
579.43908616188571
  0
LINE
  8
_0-0_計極細
  6
CONTINUOUS
 62
    2
 10
1098.9337499036214
 20
584.43908616188571
 11
1092.9337499036214
 21
584.43908616188571
  0
LINE
  8
_0-0_計極細
  6
CONTINUOUS
 62
    2
 10
1098.9337499036214
 20
579.43908616188571
 11
1092.9337499036214
 21
579.43908616188571
  0
LINE
  8
_0-0_計極細
  6
CONTINUOUS
 62
    2
 10
1084.9337499036214
 20
584.43908616188571
 11
1078.9337499036214
 21
584.43908616188571
  0
LINE
  8
_0-0_計極細
  6
CONTINUOUS
 62
    2
 10
1084.9337499036214
 20
579.43908616188571
 11
1078.9337499036214
 21
579.43908616188571
  0
LINE
  8
_0-0_計極細
  6
CONTINUOUS
 62
    2
 10
1070.9337499036214
 20
584.43908616188571
 11
1064.9337499036214
 21
584.43908616188571
  0
LINE
  8
_0-0_計極細
  6
CONTINUOUS
 62
    2
 10
1070.9337499036214
 20
579.43908616188571
 11
1064.9337499036214
 21
579.43908616188571
  0
LINE
  8
_0-0_計極細
  6
CONTINUOUS
 62
    2
 10
1056.9337499036214
 20
584.43908616188571
 11
1050.9337499036214
 21
584.43908616188571
  0
LINE
  8
_0-0_計極細
  6
CONTINUOUS
 62
    2
 10
1056.9337499036214
 20
579.43908616188571
 11
1050.9337499036214
 21
579.43908616188571
  0
LINE
  8
_0-0_計極細
  6
CONTINUOUS
 62
    2
 10
1042.9337499036214
 20
584.43908616188571
 11
1036.9337499036214
 21
584.43908616188571
  0
LINE
  8
_0-0_計極細
  6
CONTINUOUS
 62
    2
 10
1042.9337499036214
 20
579.43908616188571
 11
1036.9337499036214
 21
579.43908616188571
  0
LINE
  8
_0-0_計極細
  6
CONTINUOUS
 62
    2
 10
1028.9337499036214
 20
584.43908616188571
 11
1022.9337499036216
 21
584.43908616188571
  0
LINE
  8
_0-0_計極細
  6
CONTINUOUS
 62
    2
 10
1028.9337499036214
 20
579.43908616188571
 11
1022.9337499036216
 21
579.43908616188571
  0
LINE
  8
_0-0_計極細
  6
CONTINUOUS
 62
    2
 10
1014.9337499036216
 20
584.43908616188571
 11
1008.9337499036214
 21
584.43908616188571
  0
LINE
  8
_0-0_計極細
  6
CONTINUOUS
 62
    2
 10
1014.9337499036216
 20
579.43908616188571
 11
1008.9337499036214
 21
579.43908616188571
  0
LINE
  8
_0-0_計極細
  6
CONTINUOUS
 62
    2
 10
1000.9337499036214
 20
584.43908616188571
 11
994.93374990362156
 21
584.43908616188571
  0
LINE
  8
_0-0_計極細
  6
CONTINUOUS
 62
    2
 10
1000.9337499036214
 20
579.43908616188571
 11
994.93374990362156
 21
579.43908616188571
  0
LINE
  8
_0-0_計極細
  6
CONTINUOUS
 62
    2
 10
986.93374990362145
 20
584.43908616188571
 11
980.93374990362145
 21
584.43908616188571
  0
LINE
  8
_0-0_計極細
  6
CONTINUOUS
 62
    2
 10
986.93374990362145
 20
579.43908616188571
 11
980.93374990362145
 21
579.43908616188571
  0
LINE
  8
_0-0_計極細
  6
CONTINUOUS
 62
    2
 10
972.93374990362156
 20
584.43908616188571
 11
966.93374990362145
 21
584.43908616188571
  0
LINE
  8
_0-0_計極細
  6
CONTINUOUS
 62
    2
 10
972.93374990362156
 20
579.43908616188571
 11
966.93374990362145
 21
579.43908616188571
  0
LINE
  8
_0-0_計極細
  6
CONTINUOUS
 62
    2
 10
958.93374990362145
 20
584.43908616188571
 11
952.93374990362156
 21
584.43908616188571
  0
LINE
  8
_0-0_計極細
  6
CONTINUOUS
 62
    2
 10
958.93374990362145
 20
579.43908616188571
 11
952.93374990362156
 21
579.43908616188571
  0
LINE
  8
_0-0_計極細
  6
CONTINUOUS
 62
    2
 10
944.93374990362156
 20
584.43908616188571
 11
938.93374990362145
 21
584.43908616188571
  0
LINE
  8
_0-0_計極細
  6
CONTINUOUS
 62
    2
 10
944.93374990362156
 20
579.43908616188571
 11
938.93374990362145
 21
579.43908616188571
  0
LINE
  8
_0-0_計極細
  6
CONTINUOUS
 62
    2
 10
930.93374990362145
 20
584.43908616188571
 11
924.93374990362156
 21
584.43908616188571
  0
LINE
  8
_0-0_計極細
  6
CONTINUOUS
 62
    2
 10
930.93374990362145
 20
579.43908616188571
 11
924.93374990362156
 21
579.43908616188571
  0
LINE
  8
_0-0_計極細
  6
CONTINUOUS
 62
    2
 10
916.93374990362145
 20
584.43908616188571
 11
910.93374990362145
 21
584.43908616188571
  0
LINE
  8
_0-0_計極細
  6
CONTINUOUS
 62
    2
 10
916.93374990362145
 20
579.43908616188571
 11
910.93374990362145
 21
579.43908616188571
  0
LINE
  8
_0-0_計極細
  6
CONTINUOUS
 62
    2
 10
902.93374990362156
 20
584.43908616188571
 11
896.93374990362145
 21
584.43908616188571
  0
LINE
  8
_0-0_計極細
  6
CONTINUOUS
 62
    2
 10
902.93374990362156
 20
579.43908616188571
 11
896.93374990362145
 21
579.43908616188571
  0
LINE
  8
_0-0_計極細
  6
CONTINUOUS
 62
    2
 10
888.93374990362145
 20
584.43908616188571
 11
882.93374990362156
 21
584.43908616188571
  0
LINE
  8
_0-0_計極細
  6
CONTINUOUS
 62
    2
 10
888.93374990362145
 20
579.43908616188571
 11
882.93374990362156
 21
579.43908616188571
  0
LINE
  8
_0-0_計極細
  6
CONTINUOUS
 62
    2
 10
874.93374990362156
 20
584.43908616188571
 11
868.93374990362145
 21
584.43908616188571
  0
LINE
  8
_0-0_計極細
  6
CONTINUOUS
 62
    2
 10
874.93374990362156
 20
579.43908616188571
 11
868.93374990362145
 21
579.43908616188571
  0
LINE
  8
_0-0_計極細
  6
CONTINUOUS
 62
    2
 10
860.93374990362145
 20
584.43908616188571
 11
854.93374990362156
 21
584.43908616188571
  0
LINE
  8
_0-0_計極細
  6
CONTINUOUS
 62
    2
 10
860.93374990362145
 20
579.43908616188571
 11
854.93374990362156
 21
579.43908616188571
  0
LINE
  8
_0-0_計極細
  6
CONTINUOUS
 62
    2
 10
846.93374990362145
 20
584.43908616188571
 11
840.93374990362145
 21
584.43908616188571
  0
LINE
  8
_0-0_計極細
  6
CONTINUOUS
 62
    2
 10
846.93374990362145
 20
579.43908616188571
 11
840.93374990362145
 21
579.43908616188571
  0
LINE
  8
_0-0_計極細
  6
CONTINUOUS
 62
    2
 10
832.93374990362156
 20
584.43908616188571
 11
826.93374990362145
 21
584.43908616188571
  0
LINE
  8
_0-0_計極細
  6
CONTINUOUS
 62
    2
 10
832.93374990362156
 20
579.43908616188571
 11
826.93374990362145
 21
579.43908616188571
  0
LINE
  8
_0-0_計極細
  6
CONTINUOUS
 62
    2
 10
818.93374990362145
 20
584.43908616188571
 11
812.93374990362156
 21
584.43908616188571
  0
LINE
  8
_0-0_計極細
  6
CONTINUOUS
 62
    2
 10
818.93374990362145
 20
579.43908616188571
 11
812.93374990362156
 21
579.43908616188571
  0
LINE
  8
_0-0_計極細
  6
CONTINUOUS
 62
    2
 10
804.93374990362156
 20
584.43908616188571
 11
798.93374990362145
 21
584.43908616188571
  0
LINE
  8
_0-0_計極細
  6
CONTINUOUS
 62
    2
 10
804.93374990362156
 20
579.43908616188571
 11
798.93374990362145
 21
579.43908616188571
  0
LINE
  8
_0-0_計極細
  6
CONTINUOUS
 62
    2
 10
790.93374990362145
 20
584.43908616188571
 11
784.93374990362156
 21
584.43908616188571
  0
LINE
  8
_0-0_計極細
  6
CONTINUOUS
 62
    2
 10
790.93374990362145
 20
579.43908616188571
 11
784.93374990362156
 21
579.43908616188571
  0
LINE
  8
_0-0_計極細
  6
CONTINUOUS
 62
    2
 10
776.93374990362145
 20
584.43908616188571
 11
770.93374990362145
 21
584.43908616188571
  0
LINE
  8
_0-0_計極細
  6
CONTINUOUS
 62
    2
 10
776.93374990362145
 20
579.43908616188571
 11
770.93374990362145
 21
579.43908616188571
  0
LINE
  8
_0-0_計極細
  6
CONTINUOUS
 62
    2
 10
762.93374990362156
 20
584.43908616188571
 11
756.93374990362145
 21
584.43908616188571
  0
LINE
  8
_0-0_計極細
  6
CONTINUOUS
 62
    2
 10
762.93374990362156
 20
579.43908616188571
 11
756.93374990362145
 21
579.43908616188571
  0
LINE
  8
_0-0_計極細
  6
CONTINUOUS
 62
    2
 10
748.93374990362145
 20
584.43908616188571
 11
742.93374990362156
 21
584.43908616188571
  0
LINE
  8
_0-0_計極細
  6
CONTINUOUS
 62
    2
 10
748.93374990362145
 20
579.43908616188571
 11
742.93374990362156
 21
579.43908616188571
  0
LINE
  8
_0-0_計極細
  6
CONTINUOUS
 62
    2
 10
734.93374990362145
 20
584.43908616188571
 11
728.93374990362145
 21
584.43908616188571
  0
LINE
  8
_0-0_計極細
  6
CONTINUOUS
 62
    2
 10
734.93374990362145
 20
579.43908616188571
 11
728.93374990362145
 21
579.43908616188571
  0
LINE
  8
_0-0_計極細
  6
CONTINUOUS
 62
    2
 10
720.93374990362145
 20
584.43908616188571
 11
714.93374990362145
 21
584.43908616188571
  0
LINE
  8
_0-0_計極細
  6
CONTINUOUS
 62
    2
 10
720.93374990362145
 20
579.43908616188571
 11
714.93374990362145
 21
579.43908616188571
  0
LINE
  8
_0-0_計極細
  6
CONTINUOUS
 62
    2
 10
706.93374990362145
 20
584.43908616188571
 11
700.93374990362145
 21
584.43908616188571
  0
LINE
  8
_0-0_計極細
  6
CONTINUOUS
 62
    2
 10
706.93374990362145
 20
579.43908616188571
 11
700.93374990362145
 21
579.43908616188571
  0
LINE
  8
_0-0_計極細
  6
CONTINUOUS
 62
    2
 10
692.93374990362156
 20
584.43908616188571
 11
686.93374990362145
 21
584.43908616188571
  0
LINE
  8
_0-0_計極細
  6
CONTINUOUS
 62
    2
 10
692.93374990362156
 20
579.43908616188571
 11
686.93374990362145
 21
579.43908616188571
  0
LINE
  8
_0-0_計極細
  6
CONTINUOUS
 62
    2
 10
678.93374990362145
 20
584.43908616188571
 11
672.93374990362156
 21
584.43908616188571
  0
LINE
  8
_0-0_計極細
  6
CONTINUOUS
 62
    2
 10
678.93374990362145
 20
579.43908616188571
 11
672.93374990362156
 21
579.43908616188571
  0
LINE
  8
_0-0_計極細
  6
CONTINUOUS
 62
    2
 10
664.93374990362145
 20
584.43908616188571
 11
658.93374990362145
 21
584.43908616188571
  0
LINE
  8
_0-0_計極細
  6
CONTINUOUS
 62
    2
 10
664.93374990362145
 20
579.43908616188571
 11
658.93374990362145
 21
579.43908616188571
  0
LINE
  8
_0-0_計極細
  6
CONTINUOUS
 62
    2
 10
650.93374990362145
 20
584.43908616188571
 11
644.93374990362145
 21
584.43908616188571
  0
LINE
  8
_0-0_計極細
  6
CONTINUOUS
 62
    2
 10
650.93374990362145
 20
579.43908616188571
 11
644.93374990362145
 21
579.43908616188571
  0
LINE
  8
_0-0_計極細
  6
CONTINUOUS
 62
    2
 10
636.93374990362145
 20
584.43908616188571
 11
630.93374990362145
 21
584.43908616188571
  0
LINE
  8
_0-0_計極細
  6
CONTINUOUS
 62
    2
 10
636.93374990362145
 20
579.43908616188571
 11
630.93374990362145
 21
579.43908616188571
  0
LINE
  8
_0-0_計極細
  6
CONTINUOUS
 62
    2
 10
622.93374990362145
 20
584.43908616188571
 11
616.93374990362145
 21
584.43908616188571
  0
LINE
  8
_0-0_計極細
  6
CONTINUOUS
 62
    2
 10
622.93374990362145
 20
579.43908616188571
 11
616.93374990362145
 21
579.43908616188571
  0
LINE
  8
_0-0_計極細
  6
CONTINUOUS
 62
    2
 10
608.93374990362145
 20
584.43908616188571
 11
602.93374990362145
 21
584.43908616188571
  0
LINE
  8
_0-0_計極細
  6
CONTINUOUS
 62
    2
 10
608.93374990362145
 20
579.43908616188571
 11
602.93374990362145
 21
579.43908616188571
  0
LINE
  8
_0-0_計極細
  6
CONTINUOUS
 62
    2
 10
594.93374990362145
 20
584.43908616188571
 11
588.93374990362145
 21
584.43908616188571
  0
LINE
  8
_0-0_計極細
  6
CONTINUOUS
 62
    2
 10
594.93374990362145
 20
579.43908616188571
 11
588.93374990362145
 21
579.43908616188571
  0
LINE
  8
_0-0_計極細
  6
CONTINUOUS
 62
    2
 10
580.93374990362145
 20
584.43908616188571
 11
574.93374990362145
 21
584.43908616188571
  0
LINE
  8
_0-0_計極細
  6
CONTINUOUS
 62
    2
 10
580.93374990362145
 20
579.43908616188571
 11
574.93374990362145
 21
579.43908616188571
  0
LINE
  8
_0-0_計極細
  6
CONTINUOUS
 62
    2
 10
566.93374990362145
 20
584.43908616188571
 11
560.93374990362145
 21
584.43908616188571
  0
LINE
  8
_0-0_計極細
  6
CONTINUOUS
 62
    2
 10
566.93374990362145
 20
579.43908616188571
 11
560.93374990362145
 21
579.43908616188571
  0
LINE
  8
_0-0_計極細
  6
CONTINUOUS
 62
    2
 10
552.93374990362145
 20
584.43908616188571
 11
546.93374990362145
 21
584.43908616188571
  0
LINE
  8
_0-0_計極細
  6
CONTINUOUS
 62
    2
 10
552.93374990362145
 20
579.43908616188571
 11
546.93374990362145
 21
579.43908616188571
  0
LINE
  8
_0-0_計極細
  6
CONTINUOUS
 62
    2
 10
538.93374990362145
 20
584.43908616188571
 11
532.93374990362145
 21
584.43908616188571
  0
LINE
  8
_0-0_計極細
  6
CONTINUOUS
 62
    2
 10
538.93374990362145
 20
579.43908616188571
 11
532.93374990362145
 21
579.43908616188571
  0
LINE
  8
_0-0_計極細
  6
CONTINUOUS
 62
    2
 10
524.93374990362145
 20
584.43908616188571
 11
518.93374990362145
 21
584.43908616188571
  0
LINE
  8
_0-0_計極細
  6
CONTINUOUS
 62
    2
 10
524.93374990362145
 20
579.43908616188571
 11
518.93374990362145
 21
579.43908616188571
  0
LINE
  8
_0-0_計極細
  6
CONTINUOUS
 62
    2
 10
510.9337499036215
 20
584.43908616188571
 11
504.9337499036215
 21
584.43908616188571
  0
LINE
  8
_0-0_計極細
  6
CONTINUOUS
 62
    2
 10
510.9337499036215
 20
579.43908616188571
 11
504.9337499036215
 21
579.43908616188571
  0
LINE
  8
_0-0_計極細
  6
CONTINUOUS
 62
    2
 10
496.93374990362145
 20
584.43908616188571
 11
490.9337499036215
 21
584.43908616188571
  0
LINE
  8
_0-0_計極細
  6
CONTINUOUS
 62
    2
 10
496.93374990362145
 20
579.43908616188571
 11
490.9337499036215
 21
579.43908616188571
  0
LINE
  8
_0-0_計極細
  6
CONTINUOUS
 62
    2
 10
482.93374990362145
 20
584.43908616188571
 11
476.93374990362145
 21
584.43908616188571
  0
LINE
  8
_0-0_計極細
  6
CONTINUOUS
 62
    2
 10
482.93374990362145
 20
579.43908616188571
 11
476.93374990362145
 21
579.43908616188571
  0
LINE
  8
_0-0_計極細
  6
CONTINUOUS
 62
    2
 10
468.93374990362145
 20
584.43908616188571
 11
462.93374990362145
 21
584.43908616188571
  0
LINE
  8
_0-0_計極細
  6
CONTINUOUS
 62
    2
 10
468.93374990362145
 20
579.43908616188571
 11
462.93374990362145
 21
579.43908616188571
  0
LINE
  8
_0-0_計極細
  6
CONTINUOUS
 62
    2
 10
454.9337499036215
 20
584.43908616188571
 11
448.93374990362145
 21
584.43908616188571
  0
LINE
  8
_0-0_計極細
  6
CONTINUOUS
 62
    2
 10
454.9337499036215
 20
579.43908616188571
 11
448.93374990362145
 21
579.43908616188571
  0
LINE
  8
_0-0_計極細
  6
CONTINUOUS
 62
    2
 10
440.9337499036215
 20
584.43908616188571
 11
434.9337499036215
 21
584.43908616188571
  0
LINE
  8
_0-0_計極細
  6
CONTINUOUS
 62
    2
 10
440.9337499036215
 20
579.43908616188571
 11
434.9337499036215
 21
579.43908616188571
  0
LINE
  8
_0-0_計極細
  6
CONTINUOUS
 62
    2
 10
426.93374990362145
 20
584.43908616188571
 11
420.9337499036215
 21
584.43908616188571
  0
LINE
  8
_0-0_計極細
  6
CONTINUOUS
 62
    2
 10
426.93374990362145
 20
579.43908616188571
 11
420.9337499036215
 21
579.43908616188571
  0
LINE
  8
_0-0_計極細
  6
CONTINUOUS
 62
    2
 10
412.93374990362145
 20
584.43908616188571
 11
406.93374990362145
 21
584.43908616188571
  0
LINE
  8
_0-0_計極細
  6
CONTINUOUS
 62
    2
 10
412.93374990362145
 20
579.43908616188571
 11
406.93374990362145
 21
579.43908616188571
  0
LINE
  8
_0-0_計極細
  6
CONTINUOUS
 62
    2
 10
398.93374990362145
 20
584.43908616188571
 11
392.93374990362145
 21
584.43908616188571
  0
LINE
  8
_0-0_計極細
  6
CONTINUOUS
 62
    2
 10
398.93374990362145
 20
579.43908616188571
 11
392.93374990362145
 21
579.43908616188571
  0
LINE
  8
_0-0_計極細
  6
CONTINUOUS
 62
    2
 10
384.9337499036215
 20
584.43908616188571
 11
378.93374990362145
 21
584.43908616188571
  0
LINE
  8
_0-0_計極細
  6
CONTINUOUS
 62
    2
 10
384.9337499036215
 20
579.43908616188571
 11
378.93374990362145
 21
579.43908616188571
  0
LINE
  8
_0-0_計極細
  6
CONTINUOUS
 62
    2
 10
370.93374990362145
 20
584.43908616188571
 11
364.9337499036215
 21
584.43908616188571
  0
LINE
  8
_0-0_計極細
  6
CONTINUOUS
 62
    2
 10
370.93374990362145
 20
579.43908616188571
 11
364.9337499036215
 21
579.43908616188571
  0
LINE
  8
_0-0_計極細
  6
CONTINUOUS
 62
    2
 10
356.93374990362145
 20
584.43908616188571
 11
350.93374990362145
 21
584.43908616188571
  0
LINE
  8
_0-0_計極細
  6
CONTINUOUS
 62
    2
 10
356.93374990362145
 20
579.43908616188571
 11
350.93374990362145
 21
579.43908616188571
  0
LINE
  8
_0-0_計極細
  6
CONTINUOUS
 62
    2
 10
342.93374990362145
 20
584.43908616188571
 11
336.93374990362145
 21
584.43908616188571
  0
LINE
  8
_0-0_計極細
  6
CONTINUOUS
 62
    2
 10
342.93374990362145
 20
579.43908616188571
 11
336.93374990362145
 21
579.43908616188571
  0
LINE
  8
_0-0_計極細
  6
CONTINUOUS
 62
    2
 10
328.93374990362145
 20
584.43908616188571
 11
322.93374990362145
 21
584.43908616188571
  0
LINE
  8
_0-0_計極細
  6
CONTINUOUS
 62
    2
 10
328.93374990362145
 20
579.43908616188571
 11
322.93374990362145
 21
579.43908616188571
  0
LINE
  8
_0-0_計極細
  6
CONTINUOUS
 62
    2
 10
314.93374990362145
 20
584.43908616188571
 11
308.93374990362145
 21
584.43908616188571
  0
LINE
  8
_0-0_計極細
  6
CONTINUOUS
 62
    2
 10
314.93374990362145
 20
579.43908616188571
 11
308.93374990362145
 21
579.43908616188571
  0
LINE
  8
_0-0_計極細
  6
CONTINUOUS
 62
    2
 10
300.9337499036215
 20
584.43908616188571
 11
294.93374990362145
 21
584.43908616188571
  0
LINE
  8
_0-0_計極細
  6
CONTINUOUS
 62
    2
 10
300.9337499036215
 20
579.43908616188571
 11
294.93374990362145
 21
579.43908616188571
  0
LINE
  8
_0-0_計極細
  6
CONTINUOUS
 62
    2
 10
286.93374990362145
 20
584.43908616188571
 11
280.9337499036215
 21
584.43908616188571
  0
LINE
  8
_0-0_計極細
  6
CONTINUOUS
 62
    2
 10
286.93374990362145
 20
579.43908616188571
 11
280.9337499036215
 21
579.43908616188571
  0
LINE
  8
_0-0_計極細
  6
CONTINUOUS
 62
    2
 10
272.93374990362145
 20
584.43908616188571
 11
266.93374990362145
 21
584.43908616188571
  0
LINE
  8
_0-0_計極細
  6
CONTINUOUS
 62
    2
 10
272.93374990362145
 20
579.43908616188571
 11
266.93374990362145
 21
579.43908616188571
  0
LINE
  8
_0-0_計極細
  6
CONTINUOUS
 62
    2
 10
258.93374990362145
 20
584.43908616188571
 11
252.93374990362145
 21
584.43908616188571
  0
LINE
  8
_0-0_計極細
  6
CONTINUOUS
 62
    2
 10
258.93374990362145
 20
579.43908616188571
 11
252.93374990362145
 21
579.43908616188571
  0
LINE
  8
_0-0_計極細
  6
CONTINUOUS
 62
    2
 10
244.93374990362142
 20
584.43908616188571
 11
238.93374990362148
 21
584.43908616188571
  0
LINE
  8
_0-0_計極細
  6
CONTINUOUS
 62
    2
 10
244.93374990362142
 20
579.43908616188571
 11
238.93374990362148
 21
579.43908616188571
  0
LINE
  8
_0-5_寸法線
  6
CONTINUOUS
 62
    7
 10
779.66677916744584
 20
596.29578965970074
 11
784.66677916744584
 21
587.63553562185632
  0
LINE
  8
_0-5_寸法線
  6
CONTINUOUS
 62
    7
 10
779.66677916744584
 20
596.29578965970074
 11
779.66677916744584
 21
586.29578965970074
  0
LINE
  8
_0-5_寸法線
  6
CONTINUOUS
 62
    7
 10
779.66677916744584
 20
596.29578965970074
 11
803.02426228749994
 21
509.12447591872603
  0
LINE
  8
_0-5_寸法線
  6
CONTINUOUS
 62
    7
 10
803.02426228749994
 20
509.12447591872603
 11
937.46327450261992
 21
509.12447591872603
  0
TEXT
  8
_0-5_寸法線
 62
    7
 10
805.4632745026197
 20
509.12447591872603
 40
15
 41
0.8000000000000001
 50
0
  1
ステンレスグレーチング
  0
LINE
  8
_0-1_計細線
  6
CONTINUOUS
 62
    3
 10
238.93374990362148
 20
803.93908616188583
 11
238.93374990362148
 21
559.93908616188583
  0
LINE
  8
_0-1_計細線
  6
CONTINUOUS
 62
    3
 10
230.9337499036215
 20
559.93908616188583
 11
230.9337499036215
 21
803.93908616188583
  0
LINE
  8
_0-1_計細線
  6
CONTINUOUS
 62
    3
 10
252.93374990362145
 20
803.93908616188583
 11
252.93374990362145
 21
559.93908616188583
  0
LINE
  8
_0-1_計細線
  6
CONTINUOUS
 62
    3
 10
244.93374990362142
 20
559.93908616188583
 11
244.93374990362142
 21
803.93908616188583
  0
LINE
  8
_0-1_計細線
  6
CONTINUOUS
 62
    3
 10
266.93374990362145
 20
803.93908616188583
 11
266.93374990362145
 21
559.93908616188583
  0
LINE
  8
_0-1_計細線
  6
CONTINUOUS
 62
    3
 10
258.93374990362145
 20
559.93908616188583
 11
258.93374990362145
 21
803.93908616188583
  0
LINE
  8
_0-1_計細線
  6
CONTINUOUS
 62
    3
 10
280.9337499036215
 20
803.93908616188583
 11
280.9337499036215
 21
559.93908616188583
  0
LINE
  8
_0-1_計細線
  6
CONTINUOUS
 62
    3
 10
272.93374990362145
 20
559.93908616188583
 11
272.93374990362145
 21
803.93908616188583
  0
LINE
  8
_0-1_計細線
  6
CONTINUOUS
 62
    3
 10
294.93374990362145
 20
803.93908616188583
 11
294.93374990362145
 21
559.93908616188583
  0
LINE
  8
_0-1_計細線
  6
CONTINUOUS
 62
    3
 10
286.93374990362145
 20
559.93908616188583
 11
286.93374990362145
 21
803.93908616188583
  0
LINE
  8
_0-1_計細線
  6
CONTINUOUS
 62
    3
 10
308.93374990362145
 20
803.93908616188583
 11
308.93374990362145
 21
559.93908616188583
  0
LINE
  8
_0-1_計細線
  6
CONTINUOUS
 62
    3
 10
300.9337499036215
 20
559.93908616188583
 11
300.9337499036215
 21
803.93908616188583
  0
LINE
  8
_0-1_計細線
  6
CONTINUOUS
 62
    3
 10
322.93374990362145
 20
803.93908616188583
 11
322.93374990362145
 21
559.93908616188583
  0
LINE
  8
_0-1_計細線
  6
CONTINUOUS
 62
    3
 10
314.93374990362145
 20
559.93908616188583
 11
314.93374990362145
 21
803.93908616188583
  0
LINE
  8
_0-1_計細線
  6
CONTINUOUS
 62
    3
 10
336.93374990362145
 20
803.93908616188583
 11
336.93374990362145
 21
559.93908616188583
  0
LINE
  8
_0-1_計細線
  6
CONTINUOUS
 62
    3
 10
328.93374990362145
 20
559.93908616188583
 11
328.93374990362145
 21
803.93908616188583
  0
LINE
  8
_0-1_計細線
  6
CONTINUOUS
 62
    3
 10
350.93374990362145
 20
803.93908616188583
 11
350.93374990362145
 21
559.93908616188583
  0
LINE
  8
_0-1_計細線
  6
CONTINUOUS
 62
    3
 10
342.93374990362145
 20
559.93908616188583
 11
342.93374990362145
 21
803.93908616188583
  0
LINE
  8
_0-1_計細線
  6
CONTINUOUS
 62
    3
 10
364.9337499036215
 20
803.93908616188583
 11
364.9337499036215
 21
559.93908616188583
  0
LINE
  8
_0-1_計細線
  6
CONTINUOUS
 62
    3
 10
356.93374990362145
 20
559.93908616188583
 11
356.93374990362145
 21
803.93908616188583
  0
LINE
  8
_0-1_計細線
  6
CONTINUOUS
 62
    3
 10
378.93374990362145
 20
803.93908616188583
 11
378.93374990362145
 21
559.93908616188583
  0
LINE
  8
_0-1_計細線
  6
CONTINUOUS
 62
    3
 10
370.93374990362145
 20
559.93908616188583
 11
370.93374990362145
 21
803.93908616188583
  0
LINE
  8
_0-1_計細線
  6
CONTINUOUS
 62
    3
 10
392.93374990362145
 20
803.93908616188583
 11
392.93374990362145
 21
559.93908616188583
  0
LINE
  8
_0-1_計細線
  6
CONTINUOUS
 62
    3
 10
384.9337499036215
 20
559.93908616188583
 11
384.9337499036215
 21
803.93908616188583
  0
LINE
  8
_0-1_計細線
  6
CONTINUOUS
 62
    3
 10
406.93374990362145
 20
803.93908616188583
 11
406.93374990362145
 21
559.93908616188583
  0
LINE
  8
_0-1_計細線
  6
CONTINUOUS
 62
    3
 10
398.93374990362145
 20
559.93908616188583
 11
398.93374990362145
 21
803.93908616188583
  0
LINE
  8
_0-1_計細線
  6
CONTINUOUS
 62
    3
 10
420.9337499036215
 20
803.93908616188583
 11
420.9337499036215
 21
559.93908616188583
  0
LINE
  8
_0-1_計細線
  6
CONTINUOUS
 62
    3
 10
412.93374990362145
 20
559.93908616188583
 11
412.93374990362145
 21
803.93908616188583
  0
LINE
  8
_0-1_計細線
  6
CONTINUOUS
 62
    3
 10
434.9337499036215
 20
803.93908616188583
 11
434.9337499036215
 21
559.93908616188583
  0
LINE
  8
_0-1_計細線
  6
CONTINUOUS
 62
    3
 10
426.93374990362145
 20
559.93908616188583
 11
426.93374990362145
 21
803.93908616188583
  0
LINE
  8
_0-1_計細線
  6
CONTINUOUS
 62
    3
 10
448.93374990362145
 20
803.93908616188583
 11
448.93374990362145
 21
559.93908616188583
  0
LINE
  8
_0-1_計細線
  6
CONTINUOUS
 62
    3
 10
440.9337499036215
 20
559.93908616188583
 11
440.9337499036215
 21
803.93908616188583
  0
LINE
  8
_0-1_計細線
  6
CONTINUOUS
 62
    3
 10
462.93374990362145
 20
803.93908616188583
 11
462.93374990362145
 21
559.93908616188583
  0
LINE
  8
_0-1_計細線
  6
CONTINUOUS
 62
    3
 10
454.9337499036215
 20
559.93908616188583
 11
454.9337499036215
 21
803.93908616188583
  0
LINE
  8
_0-1_計細線
  6
CONTINUOUS
 62
    3
 10
476.93374990362145
 20
803.93908616188583
 11
476.93374990362145
 21
559.93908616188583
  0
LINE
  8
_0-1_計細線
  6
CONTINUOUS
 62
    3
 10
468.93374990362145
 20
559.93908616188583
 11
468.93374990362145
 21
803.93908616188583
  0
LINE
  8
_0-1_計細線
  6
CONTINUOUS
 62
    3
 10
490.9337499036215
 20
803.93908616188583
 11
490.9337499036215
 21
559.93908616188583
  0
LINE
  8
_0-1_計細線
  6
CONTINUOUS
 62
    3
 10
482.93374990362145
 20
559.93908616188583
 11
482.93374990362145
 21
803.93908616188583
  0
LINE
  8
_0-1_計細線
  6
CONTINUOUS
 62
    3
 10
504.9337499036215
 20
803.93908616188583
 11
504.9337499036215
 21
559.93908616188583
  0
LINE
  8
_0-1_計細線
  6
CONTINUOUS
 62
    3
 10
496.93374990362145
 20
559.93908616188583
 11
496.93374990362145
 21
803.93908616188583
  0
LINE
  8
_0-1_計細線
  6
CONTINUOUS
 62
    3
 10
518.93374990362145
 20
803.93908616188583
 11
518.93374990362145
 21
559.93908616188583
  0
LINE
  8
_0-1_計細線
  6
CONTINUOUS
 62
    3
 10
510.9337499036215
 20
559.93908616188583
 11
510.9337499036215
 21
803.93908616188583
  0
LINE
  8
_0-1_計細線
  6
CONTINUOUS
 62
    3
 10
532.93374990362145
 20
803.93908616188583
 11
532.93374990362145
 21
559.93908616188583
  0
LINE
  8
_0-1_計細線
  6
CONTINUOUS
 62
    3
 10
524.93374990362145
 20
559.93908616188583
 11
524.93374990362145
 21
803.93908616188583
  0
LINE
  8
_0-1_計細線
  6
CONTINUOUS
 62
    3
 10
546.93374990362145
 20
803.93908616188583
 11
546.93374990362145
 21
559.93908616188583
  0
LINE
  8
_0-1_計細線
  6
CONTINUOUS
 62
    3
 10
538.93374990362145
 20
559.93908616188583
 11
538.93374990362145
 21
803.93908616188583
  0
LINE
  8
_0-1_計細線
  6
CONTINUOUS
 62
    3
 10
560.93374990362145
 20
803.93908616188583
 11
560.93374990362145
 21
559.93908616188583
  0
LINE
  8
_0-1_計細線
  6
CONTINUOUS
 62
    3
 10
552.93374990362145
 20
559.93908616188583
 11
552.93374990362145
 21
803.93908616188583
  0
LINE
  8
_0-1_計細線
  6
CONTINUOUS
 62
    3
 10
574.93374990362145
 20
803.93908616188583
 11
574.93374990362145
 21
559.93908616188583
  0
LINE
  8
_0-1_計細線
  6
CONTINUOUS
 62
    3
 10
566.93374990362145
 20
559.93908616188583
 11
566.93374990362145
 21
803.93908616188583
  0
LINE
  8
_0-1_計細線
  6
CONTINUOUS
 62
    3
 10
588.93374990362145
 20
803.93908616188583
 11
588.93374990362145
 21
559.93908616188583
  0
LINE
  8
_0-1_計細線
  6
CONTINUOUS
 62
    3
 10
580.93374990362145
 20
559.93908616188583
 11
580.93374990362145
 21
803.93908616188583
  0
LINE
  8
_0-1_計細線
  6
CONTINUOUS
 62
    3
 10
602.93374990362145
 20
803.93908616188583
 11
602.93374990362145
 21
559.93908616188583
  0
LINE
  8
_0-1_計細線
  6
CONTINUOUS
 62
    3
 10
594.93374990362145
 20
559.93908616188583
 11
594.93374990362145
 21
803.93908616188583
  0
LINE
  8
_0-1_計細線
  6
CONTINUOUS
 62
    3
 10
616.93374990362145
 20
803.93908616188583
 11
616.93374990362145
 21
559.93908616188583
  0
LINE
  8
_0-1_計細線
  6
CONTINUOUS
 62
    3
 10
608.93374990362145
 20
559.93908616188583
 11
608.93374990362145
 21
803.93908616188583
  0
LINE
  8
_0-1_計細線
  6
CONTINUOUS
 62
    3
 10
630.93374990362145
 20
803.93908616188583
 11
630.93374990362145
 21
559.93908616188583
  0
LINE
  8
_0-1_計細線
  6
CONTINUOUS
 62
    3
 10
622.93374990362145
 20
559.93908616188583
 11
622.93374990362145
 21
803.93908616188583
  0
LINE
  8
_0-1_計細線
  6
CONTINUOUS
 62
    3
 10
644.93374990362145
 20
803.93908616188583
 11
644.93374990362145
 21
559.93908616188583
  0
LINE
  8
_0-1_計細線
  6
CONTINUOUS
 62
    3
 10
636.93374990362145
 20
559.93908616188583
 11
636.93374990362145
 21
803.93908616188583
  0
LINE
  8
_0-1_計細線
  6
CONTINUOUS
 62
    3
 10
658.93374990362145
 20
803.93908616188583
 11
658.93374990362145
 21
559.93908616188583
  0
LINE
  8
_0-1_計細線
  6
CONTINUOUS
 62
    3
 10
650.93374990362145
 20
559.93908616188583
 11
650.93374990362145
 21
803.93908616188583
  0
LINE
  8
_0-1_計細線
  6
CONTINUOUS
 62
    3
 10
672.93374990362156
 20
803.93908616188583
 11
672.93374990362156
 21
559.93908616188583
  0
LINE
  8
_0-1_計細線
  6
CONTINUOUS
 62
    3
 10
664.93374990362145
 20
559.93908616188583
 11
664.93374990362145
 21
803.93908616188583
  0
LINE
  8
_0-1_計細線
  6
CONTINUOUS
 62
    3
 10
686.93374990362145
 20
803.93908616188583
 11
686.93374990362145
 21
559.93908616188583
  0
LINE
  8
_0-1_計細線
  6
CONTINUOUS
 62
    3
 10
678.93374990362145
 20
559.93908616188583
 11
678.93374990362145
 21
803.93908616188583
  0
LINE
  8
_0-1_計細線
  6
CONTINUOUS
 62
    3
 10
700.93374990362145
 20
803.93908616188583
 11
700.93374990362145
 21
559.93908616188583
  0
LINE
  8
_0-1_計細線
  6
CONTINUOUS
 62
    3
 10
692.93374990362156
 20
559.93908616188583
 11
692.93374990362156
 21
803.93908616188583
  0
LINE
  8
_0-1_計細線
  6
CONTINUOUS
 62
    3
 10
714.93374990362145
 20
803.93908616188583
 11
714.93374990362145
 21
559.93908616188583
  0
LINE
  8
_0-1_計細線
  6
CONTINUOUS
 62
    3
 10
706.93374990362145
 20
559.93908616188583
 11
706.93374990362145
 21
803.93908616188583
  0
LINE
  8
_0-1_計細線
  6
CONTINUOUS
 62
    3
 10
728.93374990362145
 20
803.93908616188583
 11
728.93374990362145
 21
559.93908616188583
  0
LINE
  8
_0-1_計細線
  6
CONTINUOUS
 62
    3
 10
720.93374990362145
 20
559.93908616188583
 11
720.93374990362145
 21
803.93908616188583
  0
LINE
  8
_0-1_計細線
  6
CONTINUOUS
 62
    3
 10
742.93374990362156
 20
803.93908616188583
 11
742.93374990362156
 21
559.93908616188583
  0
LINE
  8
_0-1_計細線
  6
CONTINUOUS
 62
    3
 10
734.93374990362145
 20
559.93908616188583
 11
734.93374990362145
 21
803.93908616188583
  0
LINE
  8
_0-1_計細線
  6
CONTINUOUS
 62
    3
 10
756.93374990362145
 20
803.93908616188583
 11
756.93374990362145
 21
559.93908616188583
  0
LINE
  8
_0-1_計細線
  6
CONTINUOUS
 62
    3
 10
748.93374990362145
 20
559.93908616188583
 11
748.93374990362145
 21
803.93908616188583
  0
LINE
  8
_0-1_計細線
  6
CONTINUOUS
 62
    3
 10
770.93374990362145
 20
803.93908616188583
 11
770.93374990362145
 21
559.93908616188583
  0
LINE
  8
_0-1_計細線
  6
CONTINUOUS
 62
    3
 10
762.93374990362156
 20
559.93908616188583
 11
762.93374990362156
 21
803.93908616188583
  0
LINE
  8
_0-1_計細線
  6
CONTINUOUS
 62
    3
 10
784.93374990362156
 20
803.93908616188583
 11
784.93374990362156
 21
559.93908616188583
  0
LINE
  8
_0-1_計細線
  6
CONTINUOUS
 62
    3
 10
776.93374990362145
 20
559.93908616188583
 11
776.93374990362145
 21
803.93908616188583
  0
LINE
  8
_0-1_計細線
  6
CONTINUOUS
 62
    3
 10
798.93374990362145
 20
803.93908616188583
 11
798.93374990362145
 21
559.93908616188583
  0
LINE
  8
_0-1_計細線
  6
CONTINUOUS
 62
    3
 10
790.93374990362145
 20
559.93908616188583
 11
790.93374990362145
 21
803.93908616188583
  0
LINE
  8
_0-1_計細線
  6
CONTINUOUS
 62
    3
 10
812.93374990362156
 20
803.93908616188583
 11
812.93374990362156
 21
559.93908616188583
  0
LINE
  8
_0-1_計細線
  6
CONTINUOUS
 62
    3
 10
804.93374990362156
 20
559.93908616188583
 11
804.93374990362156
 21
803.93908616188583
  0
LINE
  8
_0-1_計細線
  6
CONTINUOUS
 62
    3
 10
826.93374990362145
 20
803.93908616188583
 11
826.93374990362145
 21
559.93908616188583
  0
LINE
  8
_0-1_計細線
  6
CONTINUOUS
 62
    3
 10
818.93374990362145
 20
559.93908616188583
 11
818.93374990362145
 21
803.93908616188583
  0
LINE
  8
_0-1_計細線
  6
CONTINUOUS
 62
    3
 10
840.93374990362145
 20
803.93908616188583
 11
840.93374990362145
 21
559.93908616188583
  0
LINE
  8
_0-1_計細線
  6
CONTINUOUS
 62
    3
 10
832.93374990362156
 20
559.93908616188583
 11
832.93374990362156
 21
803.93908616188583
  0
LINE
  8
_0-1_計細線
  6
CONTINUOUS
 62
    3
 10
854.93374990362156
 20
803.93908616188583
 11
854.93374990362156
 21
559.93908616188583
  0
LINE
  8
_0-1_計細線
  6
CONTINUOUS
 62
    3
 10
846.93374990362145
 20
559.93908616188583
 11
846.93374990362145
 21
803.93908616188583
  0
LINE
  8
_0-1_計細線
  6
CONTINUOUS
 62
    3
 10
868.93374990362145
 20
803.93908616188583
 11
868.93374990362145
 21
559.93908616188583
  0
LINE
  8
_0-1_計細線
  6
CONTINUOUS
 62
    3
 10
860.93374990362145
 20
559.93908616188583
 11
860.93374990362145
 21
803.93908616188583
  0
LINE
  8
_0-1_計細線
  6
CONTINUOUS
 62
    3
 10
882.93374990362156
 20
803.93908616188583
 11
882.93374990362156
 21
559.93908616188583
  0
LINE
  8
_0-1_計細線
  6
CONTINUOUS
 62
    3
 10
874.93374990362156
 20
559.93908616188583
 11
874.93374990362156
 21
803.93908616188583
  0
LINE
  8
_0-1_計細線
  6
CONTINUOUS
 62
    3
 10
896.93374990362145
 20
803.93908616188583
 11
896.93374990362145
 21
559.93908616188583
  0
LINE
  8
_0-1_計細線
  6
CONTINUOUS
 62
    3
 10
888.93374990362145
 20
559.93908616188583
 11
888.93374990362145
 21
803.93908616188583
  0
LINE
  8
_0-1_計細線
  6
CONTINUOUS
 62
    3
 10
910.93374990362145
 20
803.93908616188583
 11
910.93374990362145
 21
559.93908616188583
  0
LINE
  8
_0-1_計細線
  6
CONTINUOUS
 62
    3
 10
902.93374990362156
 20
559.93908616188583
 11
902.93374990362156
 21
803.93908616188583
  0
LINE
  8
_0-1_計細線
  6
CONTINUOUS
 62
    3
 10
924.93374990362156
 20
803.93908616188583
 11
924.93374990362156
 21
559.93908616188583
  0
LINE
  8
_0-1_計細線
  6
CONTINUOUS
 62
    3
 10
916.93374990362145
 20
559.93908616188583
 11
916.93374990362145
 21
803.93908616188583
  0
LINE
  8
_0-1_計細線
  6
CONTINUOUS
 62
    3
 10
938.93374990362145
 20
803.93908616188583
 11
938.93374990362145
 21
559.93908616188583
  0
LINE
  8
_0-1_計細線
  6
CONTINUOUS
 62
    3
 10
930.93374990362145
 20
559.93908616188583
 11
930.93374990362145
 21
803.93908616188583
  0
LINE
  8
_0-1_計細線
  6
CONTINUOUS
 62
    3
 10
952.93374990362156
 20
803.93908616188583
 11
952.93374990362156
 21
559.93908616188583
  0
LINE
  8
_0-1_計細線
  6
CONTINUOUS
 62
    3
 10
944.93374990362156
 20
559.93908616188583
 11
944.93374990362156
 21
803.93908616188583
  0
LINE
  8
_0-1_計細線
  6
CONTINUOUS
 62
    3
 10
966.93374990362145
 20
803.93908616188583
 11
966.93374990362145
 21
559.93908616188583
  0
LINE
  8
_0-1_計細線
  6
CONTINUOUS
 62
    3
 10
958.93374990362145
 20
559.93908616188583
 11
958.93374990362145
 21
803.93908616188583
  0
LINE
  8
_0-1_計細線
  6
CONTINUOUS
 62
    3
 10
980.93374990362145
 20
803.93908616188583
 11
980.93374990362145
 21
559.93908616188583
  0
LINE
  8
_0-1_計細線
  6
CONTINUOUS
 62
    3
 10
972.93374990362156
 20
559.93908616188583
 11
972.93374990362156
 21
803.93908616188583
  0
LINE
  8
_0-1_計細線
  6
CONTINUOUS
 62
    3
 10
994.93374990362156
 20
803.93908616188583
 11
994.93374990362156
 21
559.93908616188583
  0
LINE
  8
_0-1_計細線
  6
CONTINUOUS
 62
    3
 10
986.93374990362145
 20
559.93908616188583
 11
986.93374990362145
 21
803.93908616188583
  0
LINE
  8
_0-1_計細線
  6
CONTINUOUS
 62
    3
 10
1008.9337499036214
 20
803.93908616188583
 11
1008.9337499036214
 21
559.93908616188583
  0
LINE
  8
_0-1_計細線
  6
CONTINUOUS
 62
    3
 10
1000.9337499036214
 20
559.93908616188583
 11
1000.9337499036214
 21
803.93908616188583
  0
LINE
  8
_0-1_計細線
  6
CONTINUOUS
 62
    3
 10
1022.9337499036216
 20
803.93908616188583
 11
1022.9337499036216
 21
559.93908616188583
  0
LINE
  8
_0-1_計細線
  6
CONTINUOUS
 62
    3
 10
1014.9337499036216
 20
559.93908616188583
 11
1014.9337499036216
 21
803.93908616188583
  0
LINE
  8
_0-1_計細線
  6
CONTINUOUS
 62
    3
 10
1036.9337499036214
 20
803.93908616188583
 11
1036.9337499036214
 21
559.93908616188583
  0
LINE
  8
_0-1_計細線
  6
CONTINUOUS
 62
    3
 10
1028.9337499036214
 20
559.93908616188583
 11
1028.9337499036214
 21
803.93908616188583
  0
LINE
  8
_0-1_計細線
  6
CONTINUOUS
 62
    3
 10
1050.9337499036214
 20
803.93908616188583
 11
1050.9337499036214
 21
559.93908616188583
  0
LINE
  8
_0-1_計細線
  6
CONTINUOUS
 62
    3
 10
1042.9337499036214
 20
559.93908616188583
 11
1042.9337499036214
 21
803.93908616188583
  0
LINE
  8
_0-1_計細線
  6
CONTINUOUS
 62
    3
 10
1064.9337499036214
 20
803.93908616188583
 11
1064.9337499036214
 21
559.93908616188583
  0
LINE
  8
_0-1_計細線
  6
CONTINUOUS
 62
    3
 10
1056.9337499036214
 20
559.93908616188583
 11
1056.9337499036214
 21
803.93908616188583
  0
LINE
  8
_0-1_計細線
  6
CONTINUOUS
 62
    3
 10
1078.9337499036214
 20
803.93908616188583
 11
1078.9337499036214
 21
559.93908616188583
  0
LINE
  8
_0-1_計細線
  6
CONTINUOUS
 62
    3
 10
1070.9337499036214
 20
559.93908616188583
 11
1070.9337499036214
 21
803.93908616188583
  0
LINE
  8
_0-1_計細線
  6
CONTINUOUS
 62
    3
 10
1092.9337499036214
 20
803.93908616188583
 11
1092.9337499036214
 21
559.93908616188583
  0
LINE
  8
_0-1_計細線
  6
CONTINUOUS
 62
    3
 10
1084.9337499036214
 20
559.93908616188583
 11
1084.9337499036214
 21
803.93908616188583
  0
LINE
  8
_0-1_計細線
  6
CONTINUOUS
 62
    3
 10
1106.9337499036214
 20
803.93908616188583
 11
1106.9337499036214
 21
559.93908616188583
  0
LINE
  8
_0-1_計細線
  6
CONTINUOUS
 62
    3
 10
1098.9337499036214
 20
559.93908616188583
 11
1098.9337499036214
 21
803.93908616188583
  0
LINE
  8
_0-1_計細線
  6
CONTINUOUS
 62
    3
 10
1120.9337499036214
 20
803.93908616188583
 11
1120.9337499036214
 21
559.93908616188583
  0
LINE
  8
_0-1_計細線
  6
CONTINUOUS
 62
    3
 10
1112.9337499036214
 20
559.93908616188583
 11
1112.9337499036214
 21
803.93908616188583
  0
LINE
  8
_0-1_計細線
  6
CONTINUOUS
 62
    3
 10
1134.933749903621
 20
803.93908616188583
 11
1134.933749903621
 21
559.93908616188583
  0
LINE
  8
_0-1_計細線
  6
CONTINUOUS
 62
    3
 10
1126.933749903621
 20
559.93908616188583
 11
1126.933749903621
 21
803.93908616188583
  0
LINE
  8
_0-1_計細線
  6
CONTINUOUS
 62
    3
 10
1148.933749903621
 20
803.93908616188583
 11
1148.933749903621
 21
559.93908616188583
  0
LINE
  8
_0-1_計細線
  6
CONTINUOUS
 62
    3
 10
1140.933749903621
 20
559.93908616188583
 11
1140.933749903621
 21
803.93908616188583
  0
LINE
  8
_0-1_計細線
  6
CONTINUOUS
 62
    3
 10
1162.933749903621
 20
803.93908616188583
 11
1162.933749903621
 21
559.93908616188583
  0
LINE
  8
_0-1_計細線
  6
CONTINUOUS
 62
    3
 10
1154.933749903621
 20
559.93908616188583
 11
1154.933749903621
 21
803.93908616188583
  0
LINE
  8
_0-1_計細線
  6
CONTINUOUS
 62
    3
 10
1176.933749903621
 20
803.93908616188583
 11
1176.933749903621
 21
559.93908616188583
  0
LINE
  8
_0-1_計細線
  6
CONTINUOUS
 62
    3
 10
1168.933749903621
 20
559.93908616188583
 11
1168.933749903621
 21
803.93908616188583
  0
LINE
  8
_0-1_計細線
  6
CONTINUOUS
 62
    3
 10
1190.933749903621
 20
803.93908616188583
 11
1190.933749903621
 21
559.93908616188583
  0
LINE
  8
_0-1_計細線
  6
CONTINUOUS
 62
    3
 10
1182.933749903621
 20
559.93908616188583
 11
1182.933749903621
 21
803.93908616188583
  0
LINE
  8
_0-1_計細線
  6
CONTINUOUS
 62
    3
 10
1204.933749903621
 20
803.93908616188583
 11
1204.933749903621
 21
559.93908616188583
  0
LINE
  8
_0-1_計細線
  6
CONTINUOUS
 62
    3
 10
1196.933749903621
 20
559.93908616188583
 11
1196.933749903621
 21
803.93908616188583
  0
LINE
  8
_0-1_計細線
  6
CONTINUOUS
 62
    3
 10
1218.933749903621
 20
803.93908616188583
 11
1218.933749903621
 21
559.93908616188583
  0
LINE
  8
_0-1_計細線
  6
CONTINUOUS
 62
    3
 10
1210.933749903621
 20
559.93908616188583
 11
1210.933749903621
 21
803.93908616188583
  0
TEXT
  8
_0-5_寸法線
 62
    7
 10
575.7054357238485
 20
494.12447591872603
 40
15
 41
0.8000000000000001
 50
0
  1
ＧＳＬ－１５
  0
TEXT
  8
_0-5_寸法線
 62
    7
 10
803.02426228749994
 20
494.12447591872603
 40
15
 41
0.8000000000000001
 50
0
  1
ＧＳＴＪ－１５Ｗ２５０
  0
TEXT
  8
_0-7_枠細線
 62
    5
 10
965.49999999999977
 20
110
 40
20
 41
0.6
 50
0
  1
ＧＳＴＪ－１５Ｗ２５０
  0
TEXT
  8
_0-7_枠細線
 62
    5
 10
965.49999999999955
 20
69.999999999999361
 40
20.000000000000004
 41
0.5999999999999997
 50
0
  1
表面形状については記号表参照のこと
  0
LINE
  8
_0-7_枠細線
  6
CONTINUOUS
 62
    5
 10
1409.4018171150183
 20
328.47321710336212
 11
1409.4018171150183
 21
223.4732171033626
  0
TEXT
  8
_0-7_枠細線
 62
    5
 10
1318.4018171150192
 20
308.47321710336212
 40
15.000000000000002
 41
0.8
 50
0
  1
ノンスリップ
  0
TEXT
  8
_0-7_枠細線
 62
    5
 10
1330.4018171150185
 20
283.47321710336217
 40
15.000000000000002
 41
0.8
 50
0
  1
品番－Ｄ
  0
LINE
  8
_0-7_枠細線
  6
CONTINUOUS
 62
    5
 10
1299.4018171150176
 20
328.47321710336212
 11
1299.4018171150176
 21
223.4732171033626
  0
TEXT
  8
_0-7_枠細線
 62
    5
 10
1220.4018171150176
 20
308.47321710336223
 40
15.000000000000002
 41
0.8
 50
0
  1
プレーン
  0
TEXT
  8
_0-7_枠細線
 62
    5
 10
1220.4018171150183
 20
283.47321710336217
 40
15.000000000000002
 41
0.8
 50
0
  1
品番－Ｆ
  0
TEXT
  8
_0-7_枠細線
 62
    5
 10
1140.4018171150178
 20
308.47321710336212
 40
15.000000000000002
 41
0.8
 50
0
  1
タ イ プ
  0
LINE
  8
_0-7_枠細線
  6
CONTINUOUS
 62
    5
 10
1139.4018171150171
 20
278.47321710336217
 11
1409.4018171150183
 21
278.47321710336217
  0
LINE
  8
_0-7_枠細線
  6
CONTINUOUS
 62
    5
 10
1139.4018171150171
 20
303.47321710336212
 11
1409.4018171150183
 21
303.47321710336212
  0
LINE
  8
_0-7_枠細線
  6
CONTINUOUS
 62
    5
 10
1139.4018171150171
 20
328.47321710336212
 11
1409.4018171150183
 21
328.47321710336212
  0
LINE
  8
_0-7_枠細線
  6
CONTINUOUS
 62
    5
 10
1139.4018171150171
 20
223.4732171033626
 11
1409.4018171150183
 21
223.4732171033626
  0
LINE
  8
_0-7_枠細線
  6
CONTINUOUS
 62
    5
 10
1189.401817115018
 20
328.47321710336212
 11
1189.401817115018
 21
223.4732171033626
  0
LINE
  8
_0-7_枠細線
  6
CONTINUOUS
 62
    5
 10
1139.4018171150171
 20
328.47321710336212
 11
1139.4018171150171
 21
223.4732171033626
  0
TEXT
  8
_0-7_枠細線
 62
    5
 10
1140.4018171150178
 20
243.4732171033624
 40
15.000000000000002
 41
0.8
 50
0
  1
表面形状
  0
TEXT
  8
_0-7_枠細線
 62
    5
 10
1147.1760284558284
 20
330.97321710336223
 40
17.500000000000004
 41
0.7999999999999996
 50
0
  1
記号表
  0
TEXT
  8
_0-7_枠細線
 62
    5
 10
1140.4018171150178
 20
283.47321710336234
 40
15.000000000000002
 41
0.8
 50
0
  1
記　　号
  0
ARC
  8
_0-7_枠細線
  6
CONTINUOUS
 62
    5
 10
1282.9664605906701
 20
242.8577740296688
 40
12.026499332130607
 50
317.5616290000047
 51
42.438370999994966
  0
ARC
  8
_0-7_枠細線
  6
CONTINUOUS
 62
    5
 10
1300.7176602555626
 20
259.08866002804592
 40
12.026499332130607
 50
137.56162900000001
 51
222.43837100000297
  0
ARC
  8
_0-7_枠細線
  6
CONTINUOUS
 62
    5
 10
1188.0859738141414
 20
242.8577740296688
 40
12.026499332130607
 50
317.5616290000047
 51
42.438370999994966
  0
ARC
  8
_0-7_枠細線
  6
CONTINUOUS
 62
    5
 10
1205.8371734790339
 20
259.08866002804592
 40
12.026499332130607
 50
137.56162900000001
 51
222.43837100000297
  0
LINE
  8
_0-7_枠細線
  6
CONTINUOUS
 62
    5
 10
1194.4553061852555
 20
262.97321702885716
 11
1289.3357929617841
 21
262.97321702885716
  0
LINE
  8
_0-7_枠細線
  6
CONTINUOUS
 62
    5
 10
1294.3483278844483
 20
238.97321702885719
 11
1199.4678411079199
 21
238.97321702885719
  0
ARC
  8
_0-7_枠細線
  6
CONTINUOUS
 62
    5
 10
1392.9664605906705
 20
242.8577740296688
 40
12.026499332130607
 50
317.5616290000047
 51
42.438370999994966
  0
ARC
  8
_0-7_枠細線
  6
CONTINUOUS
 62
    5
 10
1410.7176602555633
 20
259.08866002804592
 40
12.026499332130607
 50
137.56162900000001
 51
222.43837100000297
  0
ARC
  8
_0-7_枠細線
  6
CONTINUOUS
 62
    5
 10
1298.0859738141419
 20
242.8577740296688
 40
12.026499332130607
 50
317.5616290000047
 51
42.438370999994966
  0
ARC
  8
_0-7_枠細線
  6
CONTINUOUS
 62
    5
 10
1315.8371734790344
 20
259.08866002804592
 40
12.026499332130607
 50
137.56162900000001
 51
222.43837100000297
  0
LINE
  8
_0-7_枠細線
  6
CONTINUOUS
 62
    5
 10
1304.4553061852559
 20
262.97321702885716
 11
1399.3357929617844
 21
262.97321702885716
  0
LINE
  8
_0-7_枠細線
  6
CONTINUOUS
 62
    5
 10
1404.3483278844487
 20
238.97321702885719
 11
1309.4678411079203
 21
238.97321702885719
  0
LINE
  8
_0-7_枠細線
  6
CONTINUOUS
 62
    5
 10
1310.0055655050664
 20
244.457780313212
 11
1315.4901287894211
 21
238.97321702885733
  0
LINE
  8
_0-7_枠細線
  6
CONTINUOUS
 62
    5
 10
1304.3960893257236
 20
262.79517855391293
 11
1328.218050850779
 21
238.97321702885733
  0
LINE
  8
_0-7_枠細線
  6
CONTINUOUS
 62
    5
 10
1316.9459729121368
 20
262.97321702885733
 11
1340.9459729121365
 21
238.97321702885731
  0
LINE
  8
_0-7_枠細線
  6
CONTINUOUS
 62
    5
 10
1329.6738949734945
 20
262.97321702885728
 11
1353.6738949734943
 21
238.97321702885731
  0
LINE
  8
_0-7_枠細線
  6
CONTINUOUS
 62
    5
 10
1342.4018170348522
 20
262.97321702885728
 11
1366.4018170348522
 21
238.97321702885728
  0
LINE
  8
_0-7_枠細線
  6
CONTINUOUS
 62
    5
 10
1355.12973909621
 20
262.97321702885722
 11
1379.1297390962097
 21
238.97321702885722
  0
LINE
  8
_0-7_枠細線
  6
CONTINUOUS
 62
    5
 10
1367.8576611575679
 20
262.97321702885722
 11
1391.8576611575677
 21
238.97321702885722
  0
LINE
  8
_0-7_枠細線
  6
CONTINUOUS
 62
    5
 10
1380.5855832189259
 20
262.97321702885722
 11
1404.4075447439811
 21
239.15125550380128
  0
LINE
  8
_0-7_枠細線
  6
CONTINUOUS
 62
    5
 10
1393.3135052802834
 20
262.97321702885716
 11
1398.7980685646385
 21
257.4886537445019
  0
LINE
  8
_0-7_枠細線
  6
CONTINUOUS
 62
    5
 10
1393.3135052802841
 20
238.97321702885722
 11
1403.3188705607758
 21
248.97858230934915
  0
LINE
  8
_0-7_枠細線
  6
CONTINUOUS
 62
    5
 10
1380.5855832189261
 20
238.97321702885722
 11
1398.8365633238177
 21
257.22419713374893
  0
LINE
  8
_0-7_枠細線
  6
CONTINUOUS
 62
    5
 10
1367.8576611575681
 20
238.97321702885728
 11
1391.8576611575681
 21
262.97321702885716
  0
LINE
  8
_0-7_枠細線
  6
CONTINUOUS
 62
    5
 10
1355.1297390962104
 20
238.97321702885731
 11
1379.1297390962106
 21
262.97321702885722
  0
LINE
  8
_0-7_枠細線
  6
CONTINUOUS
 62
    5
 10
1342.4018170348527
 20
238.97321702885731
 11
1366.4018170348525
 21
262.97321702885722
  0
LINE
  8
_0-7_枠細線
  6
CONTINUOUS
 62
    5
 10
1329.6738949734947
 20
238.97321702885733
 11
1353.6738949734947
 21
262.97321702885722
  0
LINE
  8
_0-7_枠細線
  6
CONTINUOUS
 62
    5
 10
1316.9459729121372
 20
238.97321702885733
 11
1340.9459729121372
 21
262.97321702885728
  0
LINE
  8
_0-7_枠細線
  6
CONTINUOUS
 62
    5
 10
1309.9670707458872
 20
244.72223692396551
 11
1328.218050850779
 21
262.97321702885728
  0
LINE
  8
_0-7_枠細線
  6
CONTINUOUS
 62
    5
 10
1305.4847635089295
 20
252.96785174836538
 11
1315.4901287894213
 21
262.97321702885733
  0
LINE
  8
_0-9_枠極太
  6
CONTINUOUS
 62
    5
 10
59.999999999999716
 20
60
 11
59.999999999999716
 21
960
  0
LINE
  8
_0-9_枠極太
  6
CONTINUOUS
 62
    5
 10
59.999999999999716
 20
960
 11
1424.9999999999998
 21
960
  0
LINE
  8
_0-9_枠極太
  6
CONTINUOUS
 62
    5
 10
1424.9999999999998
 20
960
 11
1424.9999999999998
 21
60
  0
LINE
  8
_0-9_枠極太
  6
CONTINUOUS
 62
    5
 10
1424.9999999999998
 20
60
 11
59.999999999999716
 21
60
  0
LINE
  8
_0-5_寸法線
  6
CONTINUOUS
 62
    7
 10
190.93374990362179
 20
551.93908616188708
 11
145.93374990362173
 21
551.93908616188719
  0
LINE
  8
_0-5_寸法線
  6
CONTINUOUS
 62
    7
 10
150.93374990362173
 20
551.93908616188719
 11
148.34555945259652
 21
561.59834442477791
  0
LINE
  8
_0-5_寸法線
  6
CONTINUOUS
 62
    7
 10
150.93374990362173
 20
551.93908616188719
 11
153.52194035464692
 21
561.59834442477791
  0
LINE
  8
_0-5_寸法線
  6
CONTINUOUS
 62
    7
 10
190.93374990362179
 20
581.93908616188571
 11
145.93374990362173
 21
581.93908616188583
  0
LINE
  8
_0-5_寸法線
  6
CONTINUOUS
 62
    7
 10
150.93374990362173
 20
581.93908616188583
 11
153.52194035464692
 21
572.27982789899511
  0
LINE
  8
_0-5_寸法線
  6
CONTINUOUS
 62
    7
 10
150.93374990362173
 20
581.93908616188583
 11
148.34555945259652
 21
572.27982789899511
  0
LINE
  8
_0-5_寸法線
  6
CONTINUOUS
 62
    7
 10
150.93374990362173
 20
551.93908616188719
 11
150.93374990362173
 21
581.93908616188583
  0
TEXT
  8
_0-5_寸法線
 62
    7
 10
150.93374990362173
 20
559.4390861618856
 40
15
 41
1
 50
90
  1
30
  0
LINE
  8
_0-5_寸法線
  6
CONTINUOUS
 62
    7
 10
150.93374990362173
 20
581.93908616188583
 11
148.34555945259652
 21
591.59834442477654
  0
LINE
  8
_0-5_寸法線
  6
CONTINUOUS
 62
    7
 10
150.93374990362173
 20
581.93908616188583
 11
153.52194035464692
 21
591.59834442477654
  0
LINE
  8
_0-5_寸法線
  6
CONTINUOUS
 62
    7
 10
190.93374990362307
 20
781.93908616188821
 11
145.93374990362173
 21
781.93908616188833
  0
LINE
  8
_0-5_寸法線
  6
CONTINUOUS
 62
    7
 10
150.93374990362173
 20
781.93908616188833
 11
153.52194035464692
 21
772.27982789899772
  0
LINE
  8
_0-5_寸法線
  6
CONTINUOUS
 62
    7
 10
150.93374990362173
 20
781.93908616188833
 11
148.34555945259652
 21
772.27982789899772
  0
LINE
  8
_0-5_寸法線
  6
CONTINUOUS
 62
    7
 10
150.93374990362173
 20
581.93908616188583
 11
150.93374990362173
 21
781.93908616188833
  0
TEXT
  8
_0-5_寸法線
 62
    7
 10
150.93374990362173
 20
670.6890861618856
 40
15
 41
1
 50
89.999999999999815
  1
200
  0
LINE
  8
_0-5_寸法線
  6
CONTINUOUS
 62
    7
 10
150.93374990362173
 20
781.93908616188833
 11
148.34555945259652
 21
791.59834442477916
  0
LINE
  8
_0-5_寸法線
  6
CONTINUOUS
 62
    7
 10
150.93374990362173
 20
781.93908616188833
 11
153.52194035464692
 21
791.59834442477916
  0
LINE
  8
_0-5_寸法線
  6
CONTINUOUS
 62
    7
 10
190.93374990362307
 20
811.93908616188924
 11
145.93374990362173
 21
811.93908616188935
  0
LINE
  8
_0-5_寸法線
  6
CONTINUOUS
 62
    7
 10
150.93374990362173
 20
811.93908616188935
 11
153.52194035464692
 21
802.27982789899852
  0
LINE
  8
_0-5_寸法線
  6
CONTINUOUS
 62
    7
 10
150.93374990362173
 20
811.93908616188935
 11
148.34555945259652
 21
802.27982789899852
  0
LINE
  8
_0-5_寸法線
  6
CONTINUOUS
 62
    7
 10
150.93374990362173
 20
781.93908616188833
 11
150.93374990362173
 21
811.93908616188935
  0
TEXT
  8
_0-5_寸法線
 62
    7
 10
150.93374990362173
 20
789.4390861618856
 40
15
 41
1
 50
90
  1
30
  0
LINE
  8
_0-5_寸法線
  6
CONTINUOUS
 62
    7
 10
1258.9337499036214
 20
551.93908616188571
 11
1338.9337499036214
 21
551.93908616188548
  0
LINE
  8
_0-5_寸法線
  6
CONTINUOUS
 62
    7
 10
1333.9337499036214
 20
551.93908616188548
 11
1331.3455594525963
 21
561.5983444247762
  0
LINE
  8
_0-5_寸法線
  6
CONTINUOUS
 62
    7
 10
1333.9337499036214
 20
551.93908616188548
 11
1336.5219403546464
 21
561.5983444247762
  0
LINE
  8
_0-5_寸法線
  6
CONTINUOUS
 62
    7
 10
1258.933749903621
 20
811.93908616188583
 11
1338.9337499036214
 21
811.93908616188548
  0
LINE
  8
_0-5_寸法線
  6
CONTINUOUS
 62
    7
 10
1333.9337499036214
 20
811.93908616188548
 11
1336.5219403546464
 21
802.27982789899488
  0
LINE
  8
_0-5_寸法線
  6
CONTINUOUS
 62
    7
 10
1333.9337499036214
 20
811.93908616188548
 11
1331.3455594525963
 21
802.27982789899488
  0
LINE
  8
_0-5_寸法線
  6
CONTINUOUS
 62
    7
 10
1333.9337499036214
 20
551.93908616188548
 11
1333.9337499036214
 21
811.93908616188548
  0
TEXT
  8
_0-5_寸法線
 62
    7
 10
1333.9337499036214
 20
670.68908616188492
 40
15
 41
1
 50
90
  1
260
  0
LINE
  8
_0-a_極細3
  6
CONTINUOUS
 62
    7
 10
690.93065977017181
 20
255.73477269126715
 11
687.09732643683833
 21
255.73477269126715
  0
LINE
  8
_0-a_極細3
  6
CONTINUOUS
 62
    7
 10
690.93065977017181
 20
259.06810602460064
 11
687.09732643683833
 21
259.06810602460064
  0
LINE
  8
_0-a_極細3
  6
CONTINUOUS
 62
    7
 10
690.93065977017181
 20
252.4014393579339
 11
687.09732643683833
 21
252.4014393579339
  0
LINE
  8
_0-a_極細3
  6
CONTINUOUS
 62
    7
 10
690.93065977017181
 20
262.4014393579339
 11
687.09732643683833
 21
262.4014393579339
  0
LINE
  8
_0-a_極細3
  6
CONTINUOUS
 62
    7
 10
687.09732643683833
 20
229.06810602460067
 11
690.93065977017181
 21
229.06810602460067
  0
LINE
  8
_0-a_極細3
  6
CONTINUOUS
 62
    7
 10
690.93065977017181
 20
279.06810602460064
 11
687.09732643683833
 21
279.06810602460064
  0
LINE
  8
_0-b_細線3
  6
CONTINUOUS
 62
    7
 10
687.09732643683833
 20
282.4014393579339
 11
687.09732643683833
 21
224.06810602460067
  0
LINE
  8
_0-b_細線3
  6
CONTINUOUS
 62
    7
 10
687.09732643683833
 20
224.06810602460067
 11
690.93065977017181
 21
224.06810602460067
  0
LINE
  8
_0-b_細線3
  6
CONTINUOUS
 62
    7
 10
690.93065977017181
 20
224.06810602460067
 11
690.93065977017181
 21
282.4014393579339
  0
LINE
  8
_0-b_細線3
  6
CONTINUOUS
 62
    7
 10
690.93065977017181
 20
282.4014393579339
 11
687.09732643683833
 21
282.4014393579339
  0
LINE
  8
_0-7_枠細線
  6
CONTINUOUS
 62
    5
 10
710.01652786341128
 20
260.13018935408797
 11
702.51652786341128
 21
275.13018935408797
  0
LINE
  8
_0-7_枠細線
  6
CONTINUOUS
 62
    5
 10
695.01652786341128
 20
260.13018935408797
 11
710.01652786341128
 21
260.13018935408797
  0
LINE
  8
_0-7_枠細線
  6
CONTINUOUS
 62
    5
 10
702.51652786341128
 20
275.13018935408797
 11
695.01652786341128
 21
260.13018935408797
  0
TEXT
  8
_0-7_枠細線
 62
    5
 10
697.38167913155939
 20
259.82318710870737
 40
12.5
 41
0.8
 50
0
  1
１
  0
LINE
  8
_0-a_極細3
  6
CONTINUOUS
 62
    7
 10
249.9306597701721
 20
255.73477269126715
 11
253.76399310350541
 21
255.73477269126715
  0
LINE
  8
_0-a_極細3
  6
CONTINUOUS
 62
    7
 10
249.9306597701721
 20
259.06810602460064
 11
253.76399310350541
 21
259.06810602460064
  0
LINE
  8
_0-a_極細3
  6
CONTINUOUS
 62
    7
 10
249.9306597701721
 20
252.4014393579339
 11
253.76399310350541
 21
252.4014393579339
  0
LINE
  8
_0-a_極細3
  6
CONTINUOUS
 62
    7
 10
249.9306597701721
 20
262.4014393579339
 11
253.76399310350541
 21
262.4014393579339
  0
LINE
  8
_0-a_極細3
  6
CONTINUOUS
 62
    7
 10
253.76399310350541
 20
229.06810602460067
 11
249.9306597701721
 21
229.06810602460067
  0
LINE
  8
_0-a_極細3
  6
CONTINUOUS
 62
    7
 10
249.9306597701721
 20
279.06810602460064
 11
253.76399310350541
 21
279.06810602460064
  0
LINE
  8
_0-b_細線3
  6
CONTINUOUS
 62
    7
 10
253.76399310350541
 20
282.4014393579339
 11
253.76399310350541
 21
224.06810602460067
  0
LINE
  8
_0-b_細線3
  6
CONTINUOUS
 62
    7
 10
253.76399310350541
 20
224.06810602460067
 11
249.9306597701721
 21
224.06810602460067
  0
LINE
  8
_0-b_細線3
  6
CONTINUOUS
 62
    7
 10
249.9306597701721
 20
224.06810602460067
 11
249.9306597701721
 21
282.4014393579339
  0
LINE
  8
_0-b_細線3
  6
CONTINUOUS
 62
    7
 10
249.9306597701721
 20
282.4014393579339
 11
253.76399310350541
 21
282.4014393579339
  0
LINE
  8
_0-7_枠細線
  6
CONTINUOUS
 62
    5
 10
1424.9999999999998
 20
907.5
 11
889.99999999999989
 21
907.5
  0
LINE
  8
_0-7_枠細線
  6
CONTINUOUS
 62
    5
 10
914.99999999999989
 20
908.94233397174708
 11
907.49999999999989
 21
923.94233397174708
  0
LINE
  8
_0-7_枠細線
  6
CONTINUOUS
 62
    5
 10
899.99999999999989
 20
908.94233397174708
 11
914.99999999999989
 21
908.94233397174708
  0
LINE
  8
_0-7_枠細線
  6
CONTINUOUS
 62
    5
 10
907.49999999999989
 20
923.94233397174708
 11
899.99999999999989
 21
908.94233397174708
  0
TEXT
  8
_0-7_枠細線
 62
    5
 10
902.36515126814788
 20
908.63533172636653
 40
12.5
 41
0.8
 50
0
  1
１
  0
TEXT
  8
_0-7_枠細線
 62
    5
 10
1179.9999999999998
 20
910
 40
12.5
 41
0.7199999999999999
 50
0
  1
２０１９．０９．０１
  0
TEXT
  8
_0-7_枠細線
 62
    5
 10
938.85037037037011
 20
910
 40
12.500000000000002
 41
1
 50
0
  1
アンカー材質･厚み変更
  0
LINE
  8
_0-7_枠細線
  6
CONTINUOUS
 62
    5
 10
889.99999999999989
 20
907.5
 11
889.99999999999989
 21
959.99999999999909
  0
LINE
  8
_0-7_枠細線
  6
CONTINUOUS
 62
    5
 10
924.99999999999989
 20
907.5
 11
924.99999999999989
 21
959.99999999999943
  0
LINE
  8
_0-7_枠細線
  6
CONTINUOUS
 62
    5
 10
1174.9999999999998
 20
907.50000000000023
 11
1174.9999999999998
 21
959.99999999999943
  0
LINE
  8
_0-7_枠細線
  6
CONTINUOUS
 62
    5
 10
1274.9999999999998
 20
907.50000000000023
 11
1274.9999999999998
 21
959.99999999999943
  0
LINE
  8
_0-5_寸法線
  6
CONTINUOUS
 62
    7
 10
1258.9337499036214
 20
551.93908616188571
 11
1303.9337499036214
 21
551.9390861618856
  0
LINE
  8
_0-5_寸法線
  6
CONTINUOUS
 62
    7
 10
1298.9337499036214
 20
551.9390861618856
 11
1301.5219403546464
 21
542.27982789899488
  0
LINE
  8
_0-5_寸法線
  6
CONTINUOUS
 62
    7
 10
1298.9337499036214
 20
551.9390861618856
 11
1296.3455594525963
 21
542.27982789899488
  0
LINE
  8
_0-5_寸法線
  6
CONTINUOUS
 62
    7
 10
1258.9337499036214
 20
554.93908616188583
 11
1303.9337499036214
 21
554.9390861618856
  0
CIRCLE
  8
_0-5_寸法線
  6
CONTINUOUS
 62
    1
 10
1298.9337499036214
 20
554.9390861618856
 40
1.5000000000000002
  0
LINE
  8
_0-5_寸法線
  6
CONTINUOUS
 62
    7
 10
1298.9337499036214
 20
526.9390861618856
 11
1298.9337499036214
 21
554.9390861618856
  0
TEXT
  8
_0-5_寸法線
 62
    7
 10
1298.9337499036214
 20
529.88038033629641
 40
15
 41
1
 50
90
  1
3
  0
LINE
  8
_0-5_寸法線
  6
CONTINUOUS
 62
    7
 10
1258.933749903621
 20
556.93908616188571
 11
1303.9337499036214
 21
556.9390861618856
  0
LINE
  8
_0-5_寸法線
  6
CONTINUOUS
 62
    7
 10
1298.9337499036214
 20
554.9390861618856
 11
1298.9337499036214
 21
556.9390861618856
  0
TEXT
  8
_0-5_寸法線
 62
    7
 10
1317.5194547610536
 20
554.93908616188583
 40
15
 41
1
 50
90
  1
2
  0
LINE
  8
_0-5_寸法線
  6
CONTINUOUS
 62
    7
 10
1298.9337499036214
 20
556.9390861618856
 11
1296.3455594525963
 21
566.59834442477631
  0
LINE
  8
_0-5_寸法線
  6
CONTINUOUS
 62
    7
 10
1298.9337499036214
 20
556.9390861618856
 11
1301.5219403546464
 21
566.59834442477631
  0
LINE
  8
_0-5_寸法線
  6
CONTINUOUS
 62
    7
 10
1258.933749903621
 20
806.93908616188583
 11
1303.9337499036214
 21
806.9390861618856
  0
LINE
  8
_0-5_寸法線
  6
CONTINUOUS
 62
    7
 10
1298.9337499036214
 20
806.9390861618856
 11
1301.5219403546464
 21
797.27982789899499
  0
LINE
  8
_0-5_寸法線
  6
CONTINUOUS
 62
    7
 10
1298.9337499036214
 20
806.9390861618856
 11
1296.3455594525963
 21
797.27982789899499
  0
LINE
  8
_0-5_寸法線
  6
CONTINUOUS
 62
    7
 10
1298.9337499036214
 20
556.9390861618856
 11
1298.9337499036214
 21
806.9390861618856
  0
TEXT
  8
_0-5_寸法線
 62
    7
 10
1298.9337499036214
 20
670.68908616188583
 40
15
 41
1
 50
90
  1
250
  0
LINE
  8
_0-5_寸法線
  6
CONTINUOUS
 62
    7
 10
1258.9337499036214
 20
808.93908616188583
 11
1303.9337499036214
 21
808.93908616188571
  0
CIRCLE
  8
_0-5_寸法線
  6
CONTINUOUS
 62
    1
 10
1298.9337499036214
 20
808.93908616188571
 40
1.5000000000000002
  0
LINE
  8
_0-5_寸法線
  6
CONTINUOUS
 62
    7
 10
1298.9337499036214
 20
806.9390861618856
 11
1298.9337499036214
 21
808.93908616188571
  0
TEXT
  8
_0-5_寸法線
 62
    7
 10
1317.8414308526167
 20
801.43908616188583
 40
15
 41
1
 50
90
  1
2
  0
LINE
  8
_0-5_寸法線
  6
CONTINUOUS
 62
    7
 10
1258.933749903621
 20
811.93908616188583
 11
1303.9337499036214
 21
811.9390861618856
  0
LINE
  8
_0-5_寸法線
  6
CONTINUOUS
 62
    7
 10
1298.9337499036214
 20
811.9390861618856
 11
1296.3455594525963
 21
821.59834442477631
  0
LINE
  8
_0-5_寸法線
  6
CONTINUOUS
 62
    7
 10
1298.9337499036214
 20
811.9390861618856
 11
1301.5219403546464
 21
821.59834442477631
  0
LINE
  8
_0-5_寸法線
  6
CONTINUOUS
 62
    7
 10
1298.9337499036214
 20
808.93908616188571
 11
1298.9337499036214
 21
836.9390861618856
  0
TEXT
  8
_0-5_寸法線
 62
    7
 10
1298.9337499036214
 20
825.26240072811618
 40
15
 41
1
 50
90
  1
3
  0
LINE
  8
_0-d_寸法3
  6
CONTINUOUS
 62
    7
 10
253.76399310350536
 20
377.4014393579339
 11
244.1047348406147
 21
374.81324890690871
  0
LINE
  8
_0-d_寸法3
  6
CONTINUOUS
 62
    7
 10
253.76399310350536
 20
377.4014393579339
 11
244.1047348406147
 21
379.98962980895919
  0
LINE
  8
_0-d_寸法3
  6
CONTINUOUS
 62
    7
 10
258.76399310350513
 20
296.56810602460041
 11
258.76399310350536
 21
382.4014393579339
  0
CIRCLE
  8
_0-d_寸法3
  6
CONTINUOUS
 62
    1
 10
258.76399310350536
 20
377.4014393579339
 40
1.5000000000000002
  0
LINE
  8
_0-d_寸法3
  6
CONTINUOUS
 62
    7
 10
228.76399310350536
 20
377.4014393579339
 11
258.76399310350536
 21
377.4014393579339
  0
TEXT
  8
_0-d_寸法3
 62
    7
 10
234.00204945774206
 20
377.4014393579339
 40
15
 41
1
 50
0
  1
3
  0
LINE
  8
_0-d_寸法3
  6
CONTINUOUS
 62
    7
 10
262.09732643683822
 20
294.06810435625607
 11
262.09732643683833
 21
382.4014393579339
  0
LINE
  8
_0-d_寸法3
  6
CONTINUOUS
 62
    7
 10
258.76399310350536
 20
377.4014393579339
 11
262.09732643683833
 21
377.4014393579339
  0
TEXT
  8
_0-d_寸法3
 62
    7
 10
256.68065977017164
 20
377.4014393579339
 40
15
 41
1
 50
0
  1
2
  0
LINE
  8
_0-d_寸法3
  6
CONTINUOUS
 62
    7
 10
262.09732643683833
 20
377.4014393579339
 11
271.75658469972905
 21
379.98962980895908
  0
LINE
  8
_0-d_寸法3
  6
CONTINUOUS
 62
    7
 10
262.09732643683833
 20
377.4014393579339
 11
271.75658469972905
 21
374.81324890690871
  0
LINE
  8
_0-d_寸法3
  6
CONTINUOUS
 62
    7
 10
678.76399310350496
 20
294.06810435625607
 11
678.7639931035053
 21
382.4014393579339
  0
LINE
  8
_0-d_寸法3
  6
CONTINUOUS
 62
    7
 10
678.7639931035053
 20
377.4014393579339
 11
669.10473484061458
 21
374.81324890690871
  0
LINE
  8
_0-d_寸法3
  6
CONTINUOUS
 62
    7
 10
678.7639931035053
 20
377.4014393579339
 11
669.10473484061458
 21
379.98962980895919
  0
LINE
  8
_0-d_寸法3
  6
CONTINUOUS
 62
    7
 10
262.09732643683833
 20
377.4014393579339
 11
678.7639931035053
 21
377.4014393579339
  0
TEXT
  8
_0-d_寸法3
 62
    7
 10
459.18065977017193
 20
377.4014393579339
 40
15
 41
1
 50
0
  1
250
  0
LINE
  8
_0-d_寸法3
  6
CONTINUOUS
 62
    7
 10
682.09732643683788
 20
296.56810602460041
 11
682.09732643683833
 21
382.4014393579339
  0
CIRCLE
  8
_0-d_寸法3
  6
CONTINUOUS
 62
    1
 10
682.09732643683833
 20
377.4014393579339
 40
1.5000000000000002
  0
LINE
  8
_0-d_寸法3
  6
CONTINUOUS
 62
    7
 10
678.7639931035053
 20
377.4014393579339
 11
682.09732643683833
 21
377.4014393579339
  0
TEXT
  8
_0-d_寸法3
 62
    7
 10
676.68065977017136
 20
377.4014393579339
 40
15
 41
1
 50
0
  1
2
  0
LINE
  8
_0-d_寸法3
  6
CONTINUOUS
 62
    7
 10
687.09732643683833
 20
377.4014393579339
 11
696.75658469972905
 21
379.98962980895902
  0
LINE
  8
_0-d_寸法3
  6
CONTINUOUS
 62
    7
 10
687.09732643683833
 20
377.4014393579339
 11
696.75658469972905
 21
374.81324890690865
  0
LINE
  8
_0-d_寸法3
  6
CONTINUOUS
 62
    7
 10
682.09732643683833
 20
377.4014393579339
 11
712.09732643683833
 21
377.4014393579339
  0
TEXT
  8
_0-d_寸法3
 62
    7
 10
700.87630017827553
 20
377.4014393579339
 40
15
 41
1
 50
0
  1
3
  0
LINE
  8
_0-0_計極細
  6
CENTER2
 62
    2
 10
1248.9337499036203
 20
681.93908616188662
 11
200.93374990362071
 21
681.93908616188662
  0
ENDSEC
  0
EOF
