  0
SECTION
  2
HEADER
  9
$ACADVER
  1
AC1009
  9
$INSBASE
 10
0
 20
0
 30
0
  9
$EXTMIN
 10
0
 20
0
  9
$EXTMAX
 10
1485
 20
1050
  9
$LIMMIN
 10
0
 20
0
  9
$LIMMAX
 10
1485
 20
1050
  9
$LTSCALE
 40
5
  0
ENDSEC
  0
SECTION
  2
TABLES
  0
TABLE
  2
LTYPE
 70
     9
  0
LTYPE
  2
CONTINUOUS
 70
    64
  3
実線
 72
    65
 73
     0
 40
0.0
  0
LTYPE
  2
DASHED1
 70
    64
  3
--  --  --  --  --  --  --  --  
 72
    65
 73
     2
 40
2.5
 49
1.25
 49
-1.25
  0
LTYPE
  2
DASHED2
 70
    64
  3
----    ----    ----    ----    
 72
    65
 73
     2
 40
5.0
 49
2.5
 49
-2.5
  0
LTYPE
  2
DASHED3
 70
    64
  3
------  ------  ------  ------  
 72
    65
 73
     2
 40
5.0
 49
3.75
 49
-1.25
  0
LTYPE
  2
CENTER1
 70
    64
  3
----- - ----- - ----- - ----- - 
 72
    65
 73
     4
 40
10.0
 49
6.25
 49
-1.25
 49
1.25
 49
-1.25
  0
LTYPE
  2
CENTER2
 70
    64
  3
----------  --  ----------  --  
 72
    65
 73
     4
 40
20.0
 49
12.5
 49
-2.5
 49
2.5
 49
-2.5
  0
LTYPE
  2
PHANTOM1
 70
    64
  3
--- - - --- - - --- - - --- - - 
 72
    65
 73
     6
 40
10.0
 49
3.25
 49
-1.25
 49
1.25
 49
-1.25
 49
1.25
 49
-1.25
  0
LTYPE
  2
PHANTOM2
 70
    64
  3
--------  -  -  --------  -  -  
 72
    65
 73
     6
 40
20.0
 49
10.0
 49
-2.5
 49
1.25
 49
-2.5
 49
1.25
 49
-2.5
  0
LTYPE
  2
DOT
 70
    64
  3
-   -   -   -   -   -   -   -   
 72
    65
 73
     2
 40
2.5
 49
0.625
 49
-1.875
  0
LTYPE
  2
DUMMY
 70
    64
  3
ダミー
 72
    65
 73
     0
 40
0.0
  0
LTYPE
  2
RAND1
 70
    64
  3
ランダム線1
 72
    65
 73
     4
 40
10.0
 49
1.0
 49
-2.0
 49
3.0
 49
-4.0
  0
LTYPE
  2
RAND2
 70
    64
  3
ランダム線2
 72
    65
 73
     4
 40
14.0
 49
2.0
 49
-3.0
 49
4.0
 49
-5.0
  0
LTYPE
  2
RAND3
 70
    64
  3
ランダム線3
 72
    65
 73
     4
 40
18.0
 49
3.0
 49
-4.0
 49
5.0
 49
-6.0
  0
LTYPE
  2
RAND4
 70
    64
  3
ランダム線4
 72
    65
 73
     4
 40
22.0
 49
4.0
 49
-5.0
 49
6.0
 49
-7.0
  0
LTYPE
  2
RAND5
 70
    64
  3
ランダム線5
 72
    65
 73
     4
 40
26.0
 49
5.0
 49
-6.0
 49
7.0
 49
-8.0
  0
LTYPE
  2
LONG1
 70
    64
  3
----------  --  ----------  --  
 72
    65
 73
     4
 40
40.0
 49
32.5
 49
-2.5
 49
2.5
 49
-2.5
  0
LTYPE
  2
LONG2
 70
    64
  3
--------  -  -  --------  -  -  
 72
    65
 73
     6
 40
40.0
 49
30.0
 49
-2.5
 49
1.25
 49
-2.5
 49
1.25
 49
-2.5
  0
LTYPE
  2
LONG3
 70
    64
  3
+++++++++++++++..+++++++++++++++
 72
    65
 73
     2
 40
40.0
 49
37.5
 49
-2.5
  0
LTYPE
  2
LONG4
 70
    64
  3
+++++++++++++++..+++++++++++++++
 72
    65
 73
     2
 40
80.0
 49
75.0
 49
-5.0
  0
LTYPE
  2
LONG5
 70
    64
  3
----------  --  ----------  --  
 72
    65
 73
     4
 40
60.0
 49
37.5
 49
-7.5
 49
7.5
 49
-7.5
  0
LTYPE
  2
dashed
 70
   64
  3
-------   -------------   ------
 72
   65
 73
    2
 40
7.5
 49
6
 49
-1.5
  0
LTYPE
  2
dashed_spaced
 70
   64
  3
----        --------        ----
 72
   65
 73
    2
 40
12
 49
6
 49
-6
  0
LTYPE
  2
long_dashed_dotted
 70
   64
  3
------------- --- --------------
 72
   65
 73
    4
 40
15.25
 49
12
 49
-1.5
 49
0.25
 49
-1.5
  0
LTYPE
  2
long_dashed_double-dotted
 70
   64
  3
----------- --- --- ------------
 72
   65
 73
    6
 40
17
 49
12
 49
-1.5
 49
0.25
 49
-1.5
 49
0.25
 49
-1.5
  0
LTYPE
  2
long_dashed_triplicate-dotted
 70
   64
  3
--------- --- --- --- ----------
 72
   65
 73
    8
 40
18.75
 49
12
 49
-1.5
 49
0.25
 49
-1.5
 49
0.25
 49
-1.5
 49
0.25
 49
-1.5
  0
LTYPE
  2
dotted
 70
   64
  3
   -       -       -       -    
 72
   65
 73
    2
 40
1.75
 49
0.25
 49
-1.5
  0
LTYPE
  2
chain
 70
   64
  3
-------------- -- --------------
 72
   65
 73
    4
 40
18.5
 49
12
 49
-1.5
 49
3.5
 49
-1.5
  0
LTYPE
  2
chain_double_dash
 70
   64
  3
------------ -- -- -------------
 72
   65
 73
    6
 40
23.5
 49
12
 49
-1.5
 49
3.5
 49
-1.5
 49
3.5
 49
-1.5
  0
LTYPE
  2
dashed_dotted
 70
   64
  3
-----------     -     ----------
 72
   65
 73
    4
 40
9.25
 49
6
 49
-1.5
 49
0.25
 49
-1.5
  0
LTYPE
  2
double-dashed_dotted
 70
   64
  3
------   -----------   -   -----
 72
   65
 73
    6
 40
16.75
 49
6
 49
-1.5
 49
6
 49
-1.5
 49
0.25
 49
-1.5
  0
LTYPE
  2
dashed_double-dotted
 70
   64
  3
---------    -    -    ---------
 72
   65
 73
    6
 40
11
 49
6
 49
-1.5
 49
0.25
 49
-1.5
 49
0.25
 49
-1.5
  0
LTYPE
  2
double-dashed_double-dotted
 70
   64
  3
-----   ---------   -   -   ----
 72
   65
 73
    8
 40
18.5
 49
6
 49
-1.5
 49
6
 49
-1.5
 49
0.25
 49
-1.5
 49
0.25
 49
-1.5
  0
LTYPE
  2
dashed_triplicate-dotted
 70
   64
  3
-------    -    -    -    ------
 72
   65
 73
    8
 40
12.75
 49
6
 49
-1.5
 49
0.25
 49
-1.5
 49
0.25
 49
-1.5
 49
0.25
 49
-1.5
  0
LTYPE
  2
double-dashed_triplicate-dotted
 70
   64
  3
-----  ---------  -  -  -  -----
 72
   65
 73
   10
 40
20.25
 49
6
 49
-1.5
 49
6
 49
-1.5
 49
0.25
 49
-1.5
 49
0.25
 49
-1.5
 49
0.25
 49
-1.5
  0
LTYPE
  2
undefined
 70
   64
  3
--------------------------------
 72
   65
 73
    0
 40
0
  0
ENDTAB
  0
TABLE
  2
STYLE
  5
3
100
AcDbSymbolTable
 70
     1
  0
STYLE
  5
10
100
AcDbSymbolTableRecord
100
AcDbTextStyleTableRecord
  2
STANDARD
 70
     0
 40
0.0
 41
1.0
 50
0.0
 71
     0
 42
0.2
  3
txt
  4
bigfont.shx
  0
STYLE
  5
26
100
AcDbSymbolTableRecord
100
AcDbTextStyleTableRecord
  2
TATEGAKI
 70
    68
 40
0.0
 41
1.0
 50
0.0
 71
     0
 42
1.0
  3
txt
  4
bigfont.shx
  0
ENDTAB
  0
TABLE
  2
LAYER
 70
   10
  0
LAYER
  2
_0-0_計極細
 70
   64
 62
    7
  6
CONTINUOUS
  0
LAYER
  2
_0-1_計細線
 70
   64
 62
    7
  6
CONTINUOUS
  0
LAYER
  2
_0-5_寸法線
 70
   64
 62
    7
  6
CONTINUOUS
  0
LAYER
  2
_0-7_枠細線
 70
   64
 62
    7
  6
CONTINUOUS
  0
LAYER
  2
_0-8_枠中線
 70
   64
 62
    7
  6
CONTINUOUS
  0
LAYER
  2
_0-9_枠極太
 70
   64
 62
    7
  6
CONTINUOUS
  0
LAYER
  2
_0-a_極細3
 70
   64
 62
    7
  6
CONTINUOUS
  0
LAYER
  2
_0-b_細線3
 70
   64
 62
    7
  6
CONTINUOUS
  0
LAYER
  2
_0-d_寸法3
 70
   64
 62
    7
  6
CONTINUOUS
  0
LAYER
  2
ADD_LINE
 70
   64
 62
    7
  6
CONTINUOUS
  0
ENDTAB
  0
ENDSEC
  0
SECTION
  2
BLOCKS
  0
ENDSEC
  0
SECTION
  2
ENTITIES
  0
LINE
  8
_0-7_枠細線
  6
CONTINUOUS
 62
    5
 10
1424.9999999999998
 20
942.5
 11
889.99999999999989
 21
942.5
  0
TEXT
  8
_0-7_枠細線
 62
    5
 10
894.99999999999989
 20
945
 40
12.5
 41
1
 50
0
  1
記号
  0
TEXT
  8
_0-7_枠細線
 62
    5
 10
996.87499999999989
 20
945
 40
12.5
 41
1
 50
0
  1
訂　 正　 記　 事
  0
TEXT
  8
_0-7_枠細線
 62
    5
 10
1181.2499999999998
 20
945
 40
12.5
 41
1
 50
0
  1
訂 正 年 月 日
  0
TEXT
  8
_0-7_枠細線
 62
    5
 10
1306.2499999999998
 20
945
 40
12.5
 41
1
 50
0
  1
備　　　　　考
  0
LINE
  8
_0-7_枠細線
  6
CONTINUOUS
 62
    5
 10
1184.9999999999998
 20
180
 11
1184.9999999999998
 21
100
  0
TEXT
  8
_0-7_枠細線
 62
    5
 10
937.49999999999989
 20
97.5
 40
17.5
 41
1
 50
0
  1
備考
  7
TATEGAKI
  0
TEXT
  8
_0-7_枠細線
 62
    5
 10
937.49999999999989
 20
137.5
 40
17.5
 41
1
 50
0
  1
品番
  7
TATEGAKI
  0
TEXT
  8
_0-7_枠細線
 62
    5
 10
937.49999999999989
 20
177.5
 40
17.5
 41
1
 50
0
  1
品名
  7
TATEGAKI
  0
LINE
  8
_0-7_枠細線
  6
CONTINUOUS
 62
    5
 10
1184.9999999999998
 20
140
 11
924.99999999999989
 21
140
  0
LINE
  8
_0-7_枠細線
  6
CONTINUOUS
 62
    5
 10
949.99999999999989
 20
180
 11
949.99999999999989
 21
60
  0
LINE
  8
_0-8_枠中線
  6
CONTINUOUS
 62
    5
 10
1424.9999999999998
 20
180
 11
924.99999999999989
 21
180
  0
LINE
  8
_0-8_枠中線
  6
CONTINUOUS
 62
    5
 10
924.99999999999989
 20
180
 11
924.99999999999989
 21
60
  0
LINE
  8
_0-7_枠細線
  6
CONTINUOUS
 62
    5
 10
1244.9999999999998
 20
180
 11
1244.9999999999998
 21
60
  0
TEXT
  8
_0-7_枠細線
 62
    5
 10
1192.4999999999998
 20
160
 40
15
 41
1
 50
0
  1
縮　尺
  0
TEXT
  8
_0-7_枠細線
 62
    5
 10
1193.9999999999998
 20
117.5
 40
20
 41
0.7000000000000001
 50
0
  1
１：５
  0
LINE
  8
_0-7_枠細線
  6
CONTINUOUS
 62
    5
 10
1184.9999999999998
 20
155
 11
1244.9999999999998
 21
155
  0
LINE
  8
_0-7_枠細線
  6
CONTINUOUS
 62
    5
 10
1244.9999999999998
 20
100
 11
924.99999999999989
 21
100
  0
LINE
  8
_0-7_枠細線
  6
CONTINUOUS
 62
    5
 10
1424.9999999999998
 20
90
 11
1244.9999999999998
 21
90
  0
LINE
  8
_0-7_枠細線
  6
CONTINUOUS
 62
    5
 10
1244.9999999999998
 20
120
 11
1424.9999999999998
 21
120
  0
LINE
  8
_0-7_枠細線
  6
CONTINUOUS
 62
    5
 10
1424.9999999999998
 20
140
 11
1244.9999999999998
 21
140
  0
TEXT
  8
_0-7_枠細線
 62
    5
 10
1254.9999999999998
 20
147.5
 40
25
 41
0.8
 50
0
  1
株式会社シマブン
  0
TEXT
  8
_0-7_枠細線
 62
    5
 10
1252.4999999999998
 20
59.999999999999929
 40
15
 41
1
 50
0
  1
年月日
  0
TEXT
  8
_0-7_枠細線
 62
    5
 10
1252.4999999999998
 20
75
 40
15
 41
1
 50
0
  1
作　成
  0
TEXT
  8
_0-7_枠細線
 62
    5
 10
1256.2499999999998
 20
122.5
 40
15
 41
1
 50
0
  1
承 認
  0
LINE
  8
_0-7_枠細線
  6
CONTINUOUS
 62
    5
 10
1304.9999999999998
 20
140
 11
1304.9999999999998
 21
60
  0
TEXT
  8
_0-7_枠細線
 62
    5
 10
1316.2499999999998
 20
122.5
 40
15
 41
1
 50
0
  1
検 図
  0
LINE
  8
_0-7_枠細線
  6
CONTINUOUS
 62
    5
 10
1364.9999999999998
 20
140
 11
1364.9999999999998
 21
90
  0
TEXT
  8
_0-7_枠細線
 62
    5
 10
1374.9999999999998
 20
95
 40
20
 41
1
 50
0
  1
藤戸
  0
TEXT
  8
_0-7_枠細線
 62
    5
 10
1376.2499999999998
 20
122.5
 40
15
 41
1
 50
0
  1
設 計
  0
TEXT
  8
_0-7_枠細線
 62
    5
 10
1254.9999999999998
 20
95
 40
20
 41
1
 50
0
  1
隠塚
  0
TEXT
  8
_0-7_枠細線
 62
    5
 10
1314.9999999999998
 20
95
 40
20
 41
1
 50
0
  1
渋田
  0
TEXT
  8
_0-7_枠細線
 62
    5
 10
1309.9999999999998
 20
67.5
 40
15
 41
0.6666666666666666
 50
0
  1
２０１２年０２月２９日
  0
LINE
  8
_0-7_枠細線
  6
CONTINUOUS
 62
    5
 10
1424.9999999999998
 20
925
 11
889.99999999999989
 21
925
  0
TEXT
  8
_0-7_枠細線
 62
    5
 10
938.85037037037011
 20
927.5
 40
12.500000000000002
 41
1
 50
0
  1
品番変更
  0
TEXT
  8
_0-7_枠細線
 62
    5
 10
956.55807915457672
 20
218.48278215653394
 40
25
 41
0.8
 50
0
  1
側面詳細図
  0
TEXT
  8
_0-7_枠細線
 62
    5
 10
1027.2366688631305
 20
193.70761534481403
 40
20
 41
0.6
 50
0
  1
Ｓ＝１：３
  0
TEXT
  8
_0-7_枠細線
 62
    5
 10
1179.9999999999998
 20
927.5
 40
12.5
 41
0.7199999999999999
 50
0
  1
２０１５．０４．０１
  0
LINE
  8
_0-a_極細3
  6
CENTER1
 62
    7
 10
470.43065977017193
 20
251.21560987248404
 11
470.43065977017193
 21
306.33227653915696
  0
LINE
  8
_0-d_寸法3
  6
CONTINUOUS
 62
    7
 10
462.23913932728192
 20
273.13720372144434
 11
426.88679760159653
 21
297.89117989113493
  0
LINE
  8
_0-d_寸法3
  6
CONTINUOUS
 62
    7
 10
430.98255782304142
 20
295.02329770937968
 11
428.39436737201623
 21
304.68255597227034
  0
LINE
  8
_0-d_寸法3
  6
CONTINUOUS
 62
    7
 10
430.98255782304142
 20
295.02329770937968
 11
433.57074827406672
 21
304.68255597227034
  0
LINE
  8
_0-d_寸法3
  6
CONTINUOUS
 62
    7
 10
462.23913932728203
 20
298.13720372144439
 11
426.88679760159653
 21
322.89117989113515
  0
LINE
  8
_0-d_寸法3
  6
CONTINUOUS
 62
    7
 10
430.98255782304142
 20
320.0232977093799
 11
433.57074827406666
 21
310.36403944648919
  0
LINE
  8
_0-d_寸法3
  6
CONTINUOUS
 62
    7
 10
430.98255782304142
 20
320.0232977093799
 11
428.39436737201623
 21
310.36403944648924
  0
LINE
  8
_0-d_寸法3
  6
CONTINUOUS
 62
    7
 10
430.98255782304142
 20
295.02329770937968
 11
430.98255782304142
 21
320.0232977093799
  0
TEXT
  8
_0-d_寸法3
 62
    7
 10
430.98255782304142
 20
300.02329770937968
 40
15
 41
1
 50
90
  1
15
  0
TEXT
  8
_0-7_枠細線
 62
    5
 10
420.5086121309381
 20
117.40107435625575
 40
25
 41
0.8
 50
0
  1
断面詳細図
  0
TEXT
  8
_0-7_枠細線
 62
    5
 10
535.45758188010609
 20
117.40107435625575
 40
20
 41
0.6
 50
0
  1
Ｓ＝１：３
  0
CIRCLE
  8
_0-a_極細3
  6
CONTINUOUS
 62
    7
 10
157.04756590032281
 20
277.36040533014921
 40
0.5530864197530718
  0
LINE
  8
_0-a_極細3
  6
CONTINUOUS
 62
    7
 10
162.09732643683864
 20
292.4014393579339
 11
162.09732643683864
 21
280.73477269126693
  0
LINE
  8
_0-a_極細3
  6
CONTINUOUS
 62
    7
 10
162.09732643683864
 20
292.4014393579339
 11
72.919579291723977
 21
292.4014393579339
  0
LINE
  8
_0-a_極細3
  6
CONTINUOUS
 62
    7
 10
170.43065977017207
 20
280.73477269126693
 11
72.919579291723977
 21
280.73477269126693
  0
LINE
  8
_0-a_極細3
  6
CONTINUOUS
 62
    7
 10
170.43065977017207
 20
292.4014393579339
 11
162.09732643683864
 21
292.4014393579339
  0
LINE
  8
_0-a_極細3
  6
CONTINUOUS
 62
    7
 10
170.43065977017207
 20
291.56810602460041
 11
170.43065977017207
 21
292.4014393579339
  0
LINE
  8
_0-a_極細3
  6
CONTINUOUS
 62
    7
 10
170.23256951381256
 20
280.73477269126693
 11
170.43065977017164
 21
280.93286294762652
  0
LINE
  8
_0-a_極細3
  6
CONTINUOUS
 62
    7
 10
165.98992882669341
 20
280.73477269126693
 11
170.43065977017207
 21
285.17550363474561
  0
LINE
  8
_0-a_極細3
  6
CONTINUOUS
 62
    7
 10
162.09732643683864
 20
281.08481098853167
 11
170.43065977017207
 21
289.41814432186493
  0
LINE
  8
_0-a_極細3
  6
CONTINUOUS
 62
    7
 10
162.09732643683864
 20
285.32745167565076
 11
169.17131411912129
 21
292.4014393579339
  0
LINE
  8
_0-a_極細3
  6
CONTINUOUS
 62
    7
 10
162.09732643683864
 20
289.57009236277031
 11
164.92867343200217
 21
292.4014393579339
  0
LINE
  8
_0-a_極細3
  6
CONTINUOUS
 62
    7
 10
170.43065977017207
 20
290.12047248567524
 11
168.14969289791364
 21
292.4014393579339
  0
LINE
  8
_0-a_極細3
  6
CONTINUOUS
 62
    7
 10
170.43065977017207
 20
285.87783179855592
 11
163.90705221079415
 21
292.4014393579339
  0
LINE
  8
_0-a_極細3
  6
CONTINUOUS
 62
    7
 10
162.09732643683864
 20
289.96852444477008
 11
170.43065977017207
 21
281.63519111143682
  0
LINE
  8
_0-a_極細3
  6
CONTINUOUS
 62
    7
 10
162.09732643683864
 20
285.72588375765076
 11
167.08843750322202
 21
280.73477269126693
  0
LINE
  8
_0-a_極細3
  6
CONTINUOUS
 62
    7
 10
162.09732643683864
 20
281.48324307053144
 11
162.84579681610296
 21
280.73477269126693
  0
LINE
  8
_0-a_極細3
  6
CONTINUOUS
 62
    7
 10
153.26200675920796
 20
280.73477268513966
 11
162.09732643683864
 21
289.57009236277031
  0
LINE
  8
_0-a_極細3
  6
CONTINUOUS
 62
    7
 10
132.04880330890049
 20
280.73477267042858
 11
143.71546999640586
 21
292.40143935793367
  0
LINE
  8
_0-a_極細3
  6
CONTINUOUS
 62
    7
 10
110.8355998585926
 20
280.73477265571705
 11
122.50226656080898
 21
292.4014393579339
  0
LINE
  8
_0-a_極細3
  6
CONTINUOUS
 62
    7
 10
89.622396408284715
 20
280.73477264100597
 11
101.28906312521266
 21
292.4014393579339
  0
LINE
  8
_0-a_極細3
  6
CONTINUOUS
 62
    7
 10
72.919579291723977
 20
285.24515896004118
 11
80.075859689616209
 21
292.40143935793367
  0
LINE
  8
_0-a_極細3
  6
DASHED2
 62
    7
 10
142.65540503405424
 20
280.73477267778412
 11
154.32207171420401
 21
292.4014393579339
  0
LINE
  8
_0-a_極細3
  6
DASHED2
 62
    7
 10
121.44220158374637
 20
280.73477266307282
 11
133.10886827860764
 21
292.4014393579339
  0
LINE
  8
_0-a_極細3
  6
DASHED2
 62
    7
 10
100.22899813343884
 20
280.73477264836151
 11
111.89566484301082
 21
292.4014393579339
  0
LINE
  8
_0-a_極細3
  6
DASHED2
 62
    7
 10
79.01579468313102
 20
280.73477263365044
 11
90.682461407414507
 21
292.4014393579339
  0
LINE
  8
_0-a_極細3
  6
CONTINUOUS
 62
    7
 10
103.76399310350514
 20
255.73477269126715
 11
103.76399310350514
 21
187.4014393579339
  0
LINE
  8
_0-a_極細3
  6
CONTINUOUS
 62
    7
 10
187.09732643683864
 20
187.4014393579339
 11
103.76399310350514
 21
187.4014393579339
  0
LINE
  8
_0-a_極細3
  6
CONTINUOUS
 62
    7
 10
103.76399310350514
 20
255.73477269126715
 11
72.919579291723977
 21
255.73477269126715
  0
LINE
  8
_0-a_極細3
  6
CONTINUOUS
 62
    7
 10
187.09732643683864
 20
187.4014393579339
 11
187.09732643683864
 21
161.15983906315478
  0
LINE
  8
_0-a_極細3
  6
CONTINUOUS
 62
    7
 10
149.67535187184879
 20
161.1598391795917
 11
175.9169520501915
 21
187.4014393579339
  0
LINE
  8
_0-a_極細3
  6
CONTINUOUS
 62
    7
 10
78.964673973207482
 20
161.15983939960486
 11
105.2062739315366
 21
187.4014393579339
  0
LINE
  8
_0-a_極細3
  6
CONTINUOUS
 62
    7
 10
72.919579291723977
 20
225.82542283677617
 11
102.8289291462152
 21
255.73477269126715
  0
LINE
  8
_0-a_極細3
  6
CONTINUOUS
 62
    7
 10
142.60428408198464
 20
161.15983920159309
 11
168.84588423832568
 21
187.4014393579339
  0
LINE
  8
_0-a_極細3
  6
CONTINUOUS
 62
    7
 10
72.919579291723977
 20
162.18581252998689
 11
103.76399310350514
 21
193.03022634176818
  0
LINE
  8
_0-a_極細3
  6
CONTINUOUS
 62
    7
 10
72.919579291723977
 20
232.8964906486417
 11
95.757861334349457
 21
255.73477269126715
  0
LINE
  8
_0-a_極細3
  6
CONTINUOUS
 62
    7
 10
135.53321629212093
 20
161.15983922359447
 11
161.77481642646043
 21
187.4014393579339
  0
LINE
  8
_0-a_極細3
  6
CONTINUOUS
 62
    7
 10
72.919579291723977
 20
169.25688034185242
 11
103.76399310350514
 21
200.10129415363372
  0
LINE
  8
_0-a_極細3
  6
CONTINUOUS
 62
    7
 10
72.919579291723977
 20
239.96755846050704
 11
88.686793522484209
 21
255.73477269126715
  0
CIRCLE
  8
_0-a_極細3
  6
CONTINUOUS
 62
    7
 10
90.815467134891179
 20
270.93818310792722
 40
0.5530864197530718
  0
CIRCLE
  8
_0-a_極細3
  6
CONTINUOUS
 62
    7
 10
80.484602937360705
 20
260.9826275523717
 40
0.5530864197530718
  0
CIRCLE
  8
_0-a_極細3
  6
CONTINUOUS
 62
    7
 10
91.092010344767971
 20
262.0492942190383
 40
0.5530864197530718
  0
CIRCLE
  8
_0-a_極細3
  6
CONTINUOUS
 62
    7
 10
103.71423256699025
 20
264.00484977459382
 40
0.5530864197530718
  0
CIRCLE
  8
_0-a_極細3
  6
CONTINUOUS
 62
    7
 10
132.15867701143409
 20
275.73818310792717
 40
0.5530864197530718
  0
CIRCLE
  8
_0-a_極細3
  6
CONTINUOUS
 62
    7
 10
162.73645478921168
 20
269.515960885705
 40
0.5530864197530718
  0
CIRCLE
  8
_0-a_極細3
  6
CONTINUOUS
 62
    7
 10
137.84756590032302
 20
268.9826275523717
 40
0.5530864197530718
  0
CIRCLE
  8
_0-a_極細3
  6
CONTINUOUS
 62
    7
 10
110.65867701143461
 20
256.74929421903835
 40
0.5530864197530718
  0
CIRCLE
  8
_0-a_極細3
  6
CONTINUOUS
 62
    7
 10
131.10312145587847
 20
255.50484977459382
 40
0.5530864197530718
  0
CIRCLE
  8
_0-a_極細3
  6
CONTINUOUS
 62
    7
 10
156.16978812254507
 20
251.7715164412607
 40
0.5530864197530718
  0
CIRCLE
  8
_0-a_極細3
  6
CONTINUOUS
 62
    7
 10
143.54756590032281
 20
246.08262755237183
 40
0.5530864197530718
  0
CIRCLE
  8
_0-a_極細3
  6
CONTINUOUS
 62
    7
 10
128.79201034476779
 20
232.57151644126068
 40
0.5530864197530718
  0
CIRCLE
  8
_0-a_極細3
  6
CONTINUOUS
 62
    7
 10
156.16978812254507
 20
239.86040533014969
 40
0.5530864197530718
  0
CIRCLE
  8
_0-a_極細3
  6
CONTINUOUS
 62
    7
 10
115.05867701143423
 20
212.7492942190388
 40
0.5530864197530718
  0
CIRCLE
  8
_0-a_極細3
  6
CONTINUOUS
 62
    7
 10
109.36978812254537
 20
194.79373866348325
 40
0.5530864197530718
  0
CIRCLE
  8
_0-a_極細3
  6
CONTINUOUS
 62
    7
 10
118.08089923365657
 20
201.54929421903873
 40
0.5530864197530718
  0
CIRCLE
  8
_0-a_極細3
  6
CONTINUOUS
 62
    7
 10
124.30312145587877
 20
193.01596088570548
 40
0.5530864197530718
  0
CIRCLE
  8
_0-a_極細3
  6
CONTINUOUS
 62
    7
 10
163.60312145587847
 20
210.9048497745944
 40
0.5530864197530718
  0
CIRCLE
  8
_0-a_極細3
  6
CONTINUOUS
 62
    7
 10
152.40312145587865
 20
205.39373866348319
 40
0.5530864197530718
  0
CIRCLE
  8
_0-a_極細3
  6
CONTINUOUS
 62
    7
 10
158.62534367810085
 20
202.90484977459442
 40
0.5530864197530718
  0
CIRCLE
  8
_0-a_極細3
  6
CONTINUOUS
 62
    7
 10
155.06978812254516
 20
193.6604053301501
 40
0.5530864197530718
  0
CIRCLE
  8
_0-a_極細3
  6
CONTINUOUS
 62
    7
 10
174.98089923365626
 20
194.72707199681665
 40
0.5530864197530718
  0
CIRCLE
  8
_0-a_極細3
  6
CONTINUOUS
 62
    7
 10
187.95867701143385
 20
197.92707199681672
 40
0.5530864197530718
  0
CIRCLE
  8
_0-a_極細3
  6
CONTINUOUS
 62
    7
 10
201.64756590032269
 20
182.99373866348361
 40
0.5530864197530718
  0
CIRCLE
  8
_0-a_極細3
  6
CONTINUOUS
 62
    7
 10
194.71423256698932
 20
168.06040533015022
 40
0.5530864197530718
  0
CIRCLE
  8
_0-a_極細3
  6
CONTINUOUS
 62
    7
 10
178.04756590032284
 20
211.6752201449647
 40
0.5530864197530718
  0
CIRCLE
  8
_0-a_極細3
  6
CONTINUOUS
 62
    7
 10
192.80312145587828
 20
245.80855347829788
 40
0.5530864197530718
  0
CIRCLE
  8
_0-a_極細3
  6
CONTINUOUS
 62
    7
 10
207.9142325669892
 20
235.85299792274239
 40
0.5530864197530718
  0
CIRCLE
  8
_0-a_極細3
  6
CONTINUOUS
 62
    7
 10
208.44756590032247
 20
217.89744236718687
 40
0.5530864197530718
  0
CIRCLE
  8
_0-a_極細3
  6
CONTINUOUS
 62
    7
 10
173.20312145587835
 20
247.63077570051996
 40
0.5530864197530718
  0
CIRCLE
  8
_0-a_極細3
  6
CONTINUOUS
 62
    7
 10
152.91423256698963
 20
269.61472631780384
 40
1.825531472681392
  0
CIRCLE
  8
_0-a_極細3
  6
CONTINUOUS
 62
    7
 10
101.1521128655545
 20
276.54434059250161
 40
1.825531472681392
  0
CIRCLE
  8
_0-a_極細3
  6
CONTINUOUS
 62
    7
 10
127.69201034476744
 20
246.81472631780392
 40
1.825531472681392
  0
CIRCLE
  8
_0-a_極細3
  6
CONTINUOUS
 62
    7
 10
108.0920103447675
 20
208.81472631780437
 40
1.825531472681392
  0
CIRCLE
  8
_0-a_極細3
  6
CONTINUOUS
 62
    7
 10
161.29201034476694
 20
196.01472631780467
 40
1.825531472681392
  0
CIRCLE
  8
_0-a_極細3
  6
CONTINUOUS
 62
    7
 10
197.26978812254458
 20
192.41472631780468
 40
1.825531472681392
  0
CIRCLE
  8
_0-a_極細3
  6
CONTINUOUS
 62
    7
 10
202.06978812254425
 20
173.74805965113822
 40
1.825531472681392
  0
CIRCLE
  8
_0-a_極細3
  6
CONTINUOUS
 62
    7
 10
80.95503332447521
 20
277.43694854002592
 40
1.825531472681392
  0
LINE
  8
_0-a_極細3
  6
CONTINUOUS
 62
    7
 10
219.59732643683864
 20
262.4014393579339
 11
220.43065977017207
 21
262.4014393579339
  0
LINE
  8
_0-a_極細3
  6
CONTINUOUS
 62
    7
 10
220.43065977017207
 20
262.4014393579339
 11
220.43065977017207
 21
161.15983906315478
  0
CIRCLE
  8
_0-a_極細3
  6
CONTINUOUS
 62
    7
 10
213.54322562254316
 20
246.41472631780448
 40
1.825531472681392
  0
CIRCLE
  8
_0-a_極細3
  6
CONTINUOUS
 62
    7
 10
212.55126960402606
 20
191.70484977459452
 40
0.5530864197530718
  0
CIRCLE
  8
_0-a_極細3
  6
CONTINUOUS
 62
    7
 10
213.88460293735994
 20
169.04877874142471
 40
0.5530864197530718
  0
CIRCLE
  8
_0-a_極細3
  6
CONTINUOUS
 62
    7
 10
201.51423256698493
 20
227.30361520669362
 40
1.825531472681392
  0
LINE
  8
_0-a_極細3
  6
CONTINUOUS
 62
    7
 10
126.79059154968677
 20
212.28314052043743
 11
121.66028939980158
 21
226.37852983222592
  0
LINE
  8
_0-a_極細3
  6
CONTINUOUS
 62
    7
 10
176.78463422348329
 20
246.44215053147221
 11
181.91493637336805
 21
232.34676121968369
  0
LINE
  8
_0-a_極細3
  6
CONTINUOUS
 62
    7
 10
121.66028939980158
 20
226.37852983222592
 11
176.78463422348329
 21
246.44215053147221
  0
LINE
  8
_0-a_極細3
  6
CONTINUOUS
 62
    7
 10
126.79059154968677
 20
212.28314052043743
 11
181.91493637336805
 21
232.34676121968369
  0
LINE
  8
_0-a_極細3
  6
CENTER1
 62
    7
 10
119.27000708275145
 20
217.52720513630177
 11
183.30102756531716
 21
240.8325906213372
  0
LINE
  8
_0-a_極細3
  6
CONTINUOUS
 62
    7
 10
145.43065977017207
 20
187.4014393579339
 11
145.43065977017207
 21
231.48700070625
  0
LINE
  8
_0-a_極細3
  6
CONTINUOUS
 62
    7
 10
145.43065977017207
 20
231.48700070625
 11
130.43065977017207
 21
231.48700070625
  0
LINE
  8
_0-a_極細3
  6
CONTINUOUS
 62
    7
 10
130.43065977017207
 20
231.48700070625
 11
130.43065977017207
 21
187.4014393579339
  0
CIRCLE
  8
_0-a_極細3
  6
CONTINUOUS
 62
    7
 10
159.81052886328604
 20
217.32336829311271
 40
1.825531472681392
  0
CIRCLE
  8
_0-a_極細3
  6
CONTINUOUS
 62
    7
 10
181.51917083859473
 20
223.54559051533514
 40
1.825531472681392
  0
LINE
  8
_0-a_極細3
  6
CENTER1
 62
    7
 10
137.93065977017207
 20
179.12469907348097
 11
137.93065977017207
 21
235.76272087085954
  0
LINE
  8
_0-d_寸法3
  6
CONTINUOUS
 62
    7
 10
160.43065977017207
 20
292.40143935793401
 11
114.48062869158257
 21
292.4014393579339
  0
LINE
  8
_0-d_寸法3
  6
CONTINUOUS
 62
    7
 10
119.48062869158257
 20
292.4014393579339
 11
122.06881914260777
 21
282.74218109504318
  0
LINE
  8
_0-d_寸法3
  6
CONTINUOUS
 62
    7
 10
119.48062869158257
 20
292.4014393579339
 11
116.89243824055737
 21
282.74218109504324
  0
LINE
  8
_0-d_寸法3
  6
CONTINUOUS
 62
    7
 10
158.4306597701721
 20
262.40143935793401
 11
114.48062869158278
 21
262.4014393579339
  0
LINE
  8
_0-d_寸法3
  6
CONTINUOUS
 62
    7
 10
119.48062869158278
 20
262.4014393579339
 11
116.89243824055758
 21
272.06069762082456
  0
LINE
  8
_0-d_寸法3
  6
CONTINUOUS
 62
    7
 10
119.48062869158278
 20
262.4014393579339
 11
122.06881914260798
 21
272.06069762082461
  0
LINE
  8
_0-d_寸法3
  6
CONTINUOUS
 62
    7
 10
119.48062869158257
 20
292.4014393579339
 11
119.48062869158278
 21
262.4014393579339
  0
TEXT
  8
_0-d_寸法3
 62
    7
 10
119.48062869158278
 20
269.9014393579339
 40
15
 41
1
 50
90
  1
18
  0
LINE
  8
_0-d_寸法3
  6
CONTINUOUS
 62
    7
 10
160.43065977017207
 20
262.40143935793373
 11
114.48062869158278
 21
262.40143935793367
  0
LINE
  8
_0-d_寸法3
  6
CONTINUOUS
 62
    7
 10
119.48062869158278
 20
262.40143935793367
 11
122.06881914260798
 21
252.74218109504301
  0
LINE
  8
_0-d_寸法3
  6
CONTINUOUS
 62
    7
 10
119.48062869158278
 20
262.40143935793367
 11
116.89243824055758
 21
252.74218109504304
  0
LINE
  8
_0-d_寸法3
  6
CONTINUOUS
 62
    7
 10
158.4306597701721
 20
224.06810602460044
 11
114.48062869158278
 21
224.06810602460044
  0
LINE
  8
_0-d_寸法3
  6
CONTINUOUS
 62
    7
 10
119.48062869158278
 20
224.06810602460041
 11
116.89243824055758
 21
233.7273642874911
  0
LINE
  8
_0-d_寸法3
  6
CONTINUOUS
 62
    7
 10
119.48062869158278
 20
224.06810602460041
 11
122.06881914260798
 21
233.7273642874911
  0
LINE
  8
_0-d_寸法3
  6
CONTINUOUS
 62
    7
 10
119.48062869158278
 20
262.40143935793367
 11
119.48062869158278
 21
224.06810602460041
  0
TEXT
  8
_0-d_寸法3
 62
    7
 10
119.48062869158278
 20
235.73477269126715
 40
15
 41
1
 50
90
  1
23
  0
LINE
  8
_0-d_寸法3
  6
CONTINUOUS
 62
    7
 10
170.43065977017199
 20
214.06810602460067
 11
170.43065977017179
 21
196.9234141236953
  0
LINE
  8
_0-d_寸法3
  6
CONTINUOUS
 62
    7
 10
170.43065977017193
 20
201.9234141236953
 11
180.08991803306259
 21
204.51160457472042
  0
LINE
  8
_0-d_寸法3
  6
CONTINUOUS
 62
    7
 10
170.43065977017193
 20
201.9234141236953
 11
180.08991803306259
 21
199.33522367267003
  0
LINE
  8
_0-d_寸法3
  6
CONTINUOUS
 62
    7
 10
220.43065977017199
 20
252.4014393579339
 11
220.43065977017136
 21
196.9234141236953
  0
LINE
  8
_0-d_寸法3
  6
CONTINUOUS
 62
    7
 10
220.43065977017142
 20
201.9234141236953
 11
210.7714015072807
 21
199.33522367267003
  0
LINE
  8
_0-d_寸法3
  6
CONTINUOUS
 62
    7
 10
220.43065977017142
 20
201.9234141236953
 11
210.77140150728076
 21
204.51160457472048
  0
LINE
  8
_0-d_寸法3
  6
CONTINUOUS
 62
    7
 10
170.43065977017193
 20
201.9234141236953
 11
220.43065977017142
 21
201.9234141236953
  0
TEXT
  8
_0-d_寸法3
 62
    7
 10
187.93065977017164
 20
201.9234141236953
 40
15
 41
1
 50
0
  1
30
  0
ARC
  8
_0-b_細線3
  6
CONTINUOUS
 62
    7
 10
175.43065977017207
 20
267.4014393579339
 40
5
 50
179.99999999999983
 51
269.99999999999977
  0
LINE
  8
_0-b_細線3
  6
CONTINUOUS
 62
    7
 10
170.43065977017207
 20
267.4014393579339
 11
170.43065977017207
 21
291.56810602460041
  0
LINE
  8
_0-b_細線3
  6
CONTINUOUS
 62
    7
 10
175.43065977017207
 20
262.4014393579339
 11
219.59732643683864
 21
262.4014393579339
  0
LINE
  8
_0-b_細線3
  6
CONTINUOUS
 62
    7
 10
220.43065977017207
 20
263.23477269126715
 11
219.59732643683864
 21
262.4014393579339
  0
LINE
  8
_0-b_細線3
  6
CONTINUOUS
 62
    7
 10
220.43065977017207
 20
266.56810602460064
 11
220.43065977017207
 21
263.23477269126715
  0
LINE
  8
_0-b_細線3
  6
CONTINUOUS
 62
    7
 10
219.59732643683864
 20
267.4014393579339
 11
220.43065977017207
 21
266.56810602460064
  0
LINE
  8
_0-b_細線3
  6
CONTINUOUS
 62
    7
 10
175.43065977017207
 20
267.4014393579339
 11
219.59732643683864
 21
267.4014393579339
  0
LINE
  8
_0-b_細線3
  6
CONTINUOUS
 62
    7
 10
171.26399310350513
 20
292.4014393579339
 11
170.43065977017207
 21
291.56810602460041
  0
LINE
  8
_0-b_細線3
  6
CONTINUOUS
 62
    7
 10
174.59732643683864
 20
292.4014393579339
 11
171.26399310350513
 21
292.4014393579339
  0
LINE
  8
_0-b_細線3
  6
CONTINUOUS
 62
    7
 10
175.43065977017207
 20
291.56810602460041
 11
174.59732643683864
 21
292.4014393579339
  0
LINE
  8
_0-b_細線3
  6
CONTINUOUS
 62
    7
 10
175.43065977017207
 20
267.4014393579339
 11
175.43065977017207
 21
291.56810602460041
  0
LINE
  8
_0-b_細線3
  6
CONTINUOUS
 62
    7
 10
183.76399310350513
 20
267.40143935793344
 11
183.76399310350513
 21
292.40143935793321
  0
LINE
  8
_0-b_細線3
  6
CONTINUOUS
 62
    7
 10
183.76399310350513
 20
292.40143935793321
 11
178.76399310350513
 21
292.40143935793321
  0
LINE
  8
_0-b_細線3
  6
CONTINUOUS
 62
    7
 10
178.76399310350513
 20
292.40143935793321
 11
178.76399310350513
 21
267.40143935793344
  0
LINE
  8
_0-b_細線3
  6
CONTINUOUS
 62
    7
 10
178.76399310350513
 20
267.40143935793344
 11
183.76399310350513
 21
267.40143935793344
  0
CIRCLE
  8
_0-a_極細3
  6
CONTINUOUS
 62
    7
 10
842.42534367809708
 20
277.66688681163055
 40
0.5530864197530718
  0
CIRCLE
  8
_0-a_極細3
  6
CONTINUOUS
 62
    7
 10
790.42534367809708
 20
278.60022014496394
 40
0.5530864197530718
  0
LINE
  8
_0-a_極細3
  6
CONTINUOUS
 62
    7
 10
778.7639931035053
 20
292.4014393579339
 11
778.7639931035053
 21
280.73477269126693
  0
LINE
  8
_0-a_極細3
  6
CONTINUOUS
 62
    7
 10
778.7639931035053
 20
292.4014393579339
 11
867.94174024861945
 21
292.4014393579339
  0
LINE
  8
_0-a_極細3
  6
CONTINUOUS
 62
    7
 10
770.43065977017136
 20
280.73477269126693
 11
867.94174024861945
 21
280.73477269126693
  0
LINE
  8
_0-a_極細3
  6
CONTINUOUS
 62
    7
 10
770.43065977017136
 20
292.4014393579339
 11
778.7639931035053
 21
292.4014393579339
  0
LINE
  8
_0-a_極細3
  6
CONTINUOUS
 62
    7
 10
770.43065977017136
 20
291.56810602460041
 11
770.43065977017136
 21
292.4014393579339
  0
LINE
  8
_0-a_極細3
  6
CONTINUOUS
 62
    7
 10
778.7639931035053
 20
284.40385897199189
 11
775.09490682277999
 21
280.73477269126693
  0
LINE
  8
_0-a_極細3
  6
CONTINUOUS
 62
    7
 10
778.7639931035053
 20
288.64649965911099
 11
770.85226613566078
 21
280.73477269126693
  0
LINE
  8
_0-a_極細3
  6
CONTINUOUS
 62
    7
 10
770.43065977017136
 20
284.55580701289705
 11
778.27629211520866
 21
292.4014393579339
  0
LINE
  8
_0-a_極細3
  6
CONTINUOUS
 62
    7
 10
770.43065977017136
 20
288.79844770001637
 11
774.03365142808866
 21
292.40143935793367
  0
LINE
  8
_0-a_極細3
  6
CONTINUOUS
 62
    7
 10
778.7639931035053
 20
290.89211714842827
 11
777.25467089399967
 21
292.4014393579339
  0
LINE
  8
_0-a_極細3
  6
CONTINUOUS
 62
    7
 10
778.7639931035053
 20
286.64947646130895
 11
773.01203020688058
 21
292.4014393579339
  0
LINE
  8
_0-a_極細3
  6
CONTINUOUS
 62
    7
 10
778.7639931035053
 20
282.40683577418963
 11
770.43065977017136
 21
290.74016910752312
  0
LINE
  8
_0-a_極細3
  6
CONTINUOUS
 62
    7
 10
776.19341549930846
 20
280.73477269126693
 11
770.43065977017136
 21
286.4975284204038
  0
LINE
  8
_0-a_極細3
  6
CONTINUOUS
 62
    7
 10
771.95077481218948
 20
280.73477269126693
 11
770.43065977017136
 21
282.25488773328448
  0
LINE
  8
_0-a_極細3
  6
CONTINUOUS
 62
    7
 10
847.21979850380819
 20
280.73477269126693
 11
858.88646454368597
 21
292.40143873114471
  0
LINE
  8
_0-a_極細3
  6
CONTINUOUS
 62
    7
 10
826.00659506821171
 20
280.73477269126715
 11
837.67326127403771
 21
292.40143889709339
  0
LINE
  8
_0-a_極細3
  6
CONTINUOUS
 62
    7
 10
804.79339163261545
 20
280.73477269126693
 11
816.46005800438957
 21
292.40143906304161
  0
LINE
  8
_0-a_極細3
  6
CONTINUOUS
 62
    7
 10
783.58018819701897
 20
280.73477269126693
 11
795.24685473474233
 21
292.40143922899028
  0
LINE
  8
_0-a_極細3
  6
DASHED2
 62
    7
 10
857.82640022160638
 20
280.73477269126715
 11
867.94174024861945
 21
290.85011271828057
  0
LINE
  8
_0-a_極細3
  6
DASHED2
 62
    7
 10
836.61319678600989
 20
280.73477269126693
 11
848.2798629088619
 21
292.40143881411882
  0
LINE
  8
_0-a_極細3
  6
DASHED2
 62
    7
 10
815.39999335041352
 20
280.73477269126693
 11
827.06665963921364
 21
292.4014389800675
  0
LINE
  8
_0-a_極細3
  6
DASHED2
 62
    7
 10
794.18678991481727
 20
280.73477269126693
 11
805.85345636956561
 21
292.40143914601595
  0
LINE
  8
_0-a_極細3
  6
DASHED2
 62
    7
 10
778.7639931035053
 20
286.52517931555144
 11
784.64025309991825
 21
292.4014393119644
  0
LINE
  8
_0-a_極細3
  6
CONTINUOUS
 62
    7
 10
837.09732643683833
 20
255.73477269126715
 11
837.09732643683833
 21
187.4014393579339
  0
LINE
  8
_0-a_極細3
  6
CONTINUOUS
 62
    7
 10
753.7639931035053
 20
187.4014393579339
 11
837.09732643683833
 21
187.4014393579339
  0
LINE
  8
_0-a_極細3
  6
CONTINUOUS
 62
    7
 10
837.09732643683833
 20
255.73477269126715
 11
867.94174024861945
 21
255.73477269126715
  0
LINE
  8
_0-a_極細3
  6
CONTINUOUS
 62
    7
 10
753.7639931035053
 20
187.4014393579339
 11
753.7639931035053
 21
161.15983906315478
  0
LINE
  8
_0-a_極細3
  6
CONTINUOUS
 62
    7
 10
845.38732885143133
 20
161.15983906315478
 11
867.94174029016062
 21
183.71425050188378
  0
LINE
  8
_0-a_極細3
  6
CONTINUOUS
 62
    7
 10
774.67665073277647
 20
161.15983906315478
 11
800.91825102755581
 21
187.4014393579339
  0
LINE
  8
_0-a_極細3
  6
CONTINUOUS
 62
    7
 10
837.09732643683833
 20
223.58051476721656
 11
867.94174024937536
 21
254.42492857975344
  0
LINE
  8
_0-a_極細3
  6
CONTINUOUS
 62
    7
 10
838.31626103956546
 20
161.15983906315478
 11
867.94174028608154
 21
190.78531830967086
  0
LINE
  8
_0-a_極細3
  6
CONTINUOUS
 62
    7
 10
767.60558292091059
 20
161.15983906315478
 11
793.84718321568994
 21
187.4014393579339
  0
LINE
  8
_0-a_極細3
  6
CONTINUOUS
 62
    7
 10
837.09732643683833
 20
230.65158257908209
 11
862.18051636947337
 21
255.73477251171678
  0
LINE
  8
_0-a_極細3
  6
CONTINUOUS
 62
    7
 10
831.24519322770072
 20
161.15983906315478
 11
867.94174028200348
 21
197.85638611745782
  0
LINE
  8
_0-a_極細3
  6
CONTINUOUS
 62
    7
 10
760.53451510904574
 20
161.15983906315478
 11
786.77611540382509
 21
187.4014393579339
  0
LINE
  8
_0-a_極細3
  6
CONTINUOUS
 62
    7
 10
837.09732643683833
 20
237.72265039094762
 11
855.1094486082236
 21
255.73477256233289
  0
CIRCLE
  8
_0-a_極細3
  6
CONTINUOUS
 62
    7
 10
740.16978812254251
 20
246.25577570051999
 40
0.5530864197530718
  0
CIRCLE
  8
_0-a_極細3
  6
CONTINUOUS
 62
    7
 10
750.12534367809781
 20
251.05577570051992
 40
0.5530864197530718
  0
CIRCLE
  8
_0-a_極細3
  6
CONTINUOUS
 62
    7
 10
746.03645478920942
 20
226.0779979227425
 40
0.5530864197530718
  0
CIRCLE
  8
_0-a_極細3
  6
CONTINUOUS
 62
    7
 10
763.56978812254215
 20
209.05577570052037
 40
0.5530864197530718
  0
CIRCLE
  8
_0-a_極細3
  6
CONTINUOUS
 62
    7
 10
745.73645478920912
 20
185.75577570052062
 40
0.5530864197530718
  0
CIRCLE
  8
_0-a_極細3
  6
CONTINUOUS
 62
    7
 10
736.40312145587609
 20
167.88910903385414
 40
0.5530864197530718
  0
CIRCLE
  8
_0-a_極細3
  6
CONTINUOUS
 62
    7
 10
747.86978812254233
 20
197.75577570052042
 40
0.5530864197530718
  0
CIRCLE
  8
_0-a_極細3
  6
CONTINUOUS
 62
    7
 10
761.73645478920912
 20
192.95577570052046
 40
0.5530864197530718
  0
CIRCLE
  8
_0-a_極細3
  6
CONTINUOUS
 62
    7
 10
788.66978812254263
 20
193.22244236718717
 40
0.5530864197530718
  0
CIRCLE
  8
_0-a_極細3
  6
CONTINUOUS
 62
    7
 10
776.66978812254251
 20
202.28910903385369
 40
0.5530864197530718
  0
CIRCLE
  8
_0-a_極細3
  6
CONTINUOUS
 62
    7
 10
787.86978812254233
 20
207.88910903385363
 40
0.5530864197530718
  0
CIRCLE
  8
_0-a_極細3
  6
CONTINUOUS
 62
    7
 10
775.89201034476434
 20
262.17799792274195
 40
0.5530864197530718
  0
CIRCLE
  8
_0-a_極細3
  6
CONTINUOUS
 62
    7
 10
796.42534367809719
 20
261.46688681163096
 40
0.5530864197530718
  0
CIRCLE
  8
_0-a_極細3
  6
CONTINUOUS
 62
    7
 10
784.82534367809762
 20
247.46688681163096
 40
0.5530864197530718
  0
CIRCLE
  8
_0-a_極細3
  6
CONTINUOUS
 62
    7
 10
824.02534367809744
 20
194.26688681163157
 40
0.5530864197530718
  0
CIRCLE
  8
_0-a_極細3
  6
CONTINUOUS
 62
    7
 10
831.22534367809737
 20
208.26688681163162
 40
0.5530864197530718
  0
CIRCLE
  8
_0-a_極細3
  6
CONTINUOUS
 62
    7
 10
829.6253436780969
 20
229.06688681163132
 40
0.5530864197530718
  0
CIRCLE
  8
_0-a_極細3
  6
CONTINUOUS
 62
    7
 10
811.62534367809701
 20
250.26688681163114
 40
0.5530864197530718
  0
CIRCLE
  8
_0-a_極細3
  6
CONTINUOUS
 62
    7
 10
828.42534367809719
 20
269.86688681163082
 40
0.5530864197530718
  0
CIRCLE
  8
_0-a_極細3
  6
CONTINUOUS
 62
    7
 10
825.6253436780969
 20
243.06688681163109
 40
0.5530864197530718
  0
CIRCLE
  8
_0-a_極細3
  6
CONTINUOUS
 62
    7
 10
855.22534367809635
 20
264.26688681163091
 40
0.5530864197530718
  0
CIRCLE
  8
_0-a_極細3
  6
CONTINUOUS
 62
    7
 10
850.42534367809617
 20
278.03694854002583
 40
1.825531472681392
  0
CIRCLE
  8
_0-a_極細3
  6
CONTINUOUS
 62
    7
 10
834.78089923365201
 20
262.57028187335936
 40
1.825531472681392
  0
CIRCLE
  8
_0-a_極細3
  6
CONTINUOUS
 62
    7
 10
779.35867701143047
 20
269.14805965113715
 40
1.825531472681392
  0
CIRCLE
  8
_0-a_極細3
  6
CONTINUOUS
 62
    7
 10
811.35867701143059
 20
237.1480596511374
 40
1.825531472681392
  0
CIRCLE
  8
_0-a_極細3
  6
CONTINUOUS
 62
    7
 10
740.96423256698722
 20
192.59805965113785
 40
1.825531472681392
  0
CIRCLE
  8
_0-a_極細3
  6
CONTINUOUS
 62
    7
 10
751.18645478920894
 20
222.46472631780446
 40
1.825531472681392
  0
CIRCLE
  8
_0-a_極細3
  6
CONTINUOUS
 62
    7
 10
786.38645478920876
 20
200.06472631780454
 40
1.825531472681392
  0
CIRCLE
  8
_0-a_極細3
  6
CONTINUOUS
 62
    7
 10
832.65164742449258
 20
189.87767392583507
 40
1.825531472681392
  0
CIRCLE
  8
_0-a_極細3
  6
CONTINUOUS
 62
    7
 10
781.98645478920821
 20
243.26472631780419
 40
1.825531472681392
  0
CIRCLE
  8
_0-a_極細3
  6
CONTINUOUS
 62
    7
 10
734.52040540649318
 20
237.84152091076774
 40
0.5530864197530718
  0
CIRCLE
  8
_0-a_極細3
  6
CONTINUOUS
 62
    7
 10
734.72040540649391
 20
213.88596535521245
 40
0.5530864197530718
  0
CIRCLE
  8
_0-a_極細3
  6
CONTINUOUS
 62
    7
 10
811.75867701143022
 20
274.61472631780384
 40
1.825531472681392
  0
LINE
  8
_0-a_極細3
  6
CONTINUOUS
 62
    7
 10
721.26399310350439
 20
262.4014393579339
 11
720.43065977017136
 21
262.4014393579339
  0
LINE
  8
_0-a_極細3
  6
CONTINUOUS
 62
    7
 10
720.43065977017136
 20
262.4014393579339
 11
720.43065977017136
 21
161.15983906315478
  0
CIRCLE
  8
_0-a_極細3
  6
CONTINUOUS
 62
    7
 10
726.41505561225472
 20
222.34466458940915
 40
0.5530864197530718
  0
CIRCLE
  8
_0-a_極細3
  6
CONTINUOUS
 62
    7
 10
727.72163997439452
 20
183.08910903385396
 40
0.5530864197530718
  0
CIRCLE
  8
_0-a_極細3
  6
CONTINUOUS
 62
    7
 10
727.08275108550492
 20
249.04250409558244
 40
1.825531472681392
  0
CIRCLE
  8
_0-a_極細3
  6
CONTINUOUS
 62
    7
 10
730.03089923365292
 20
176.42028187335995
 40
1.825531472681392
  0
LINE
  8
_0-a_極細3
  6
CONTINUOUS
 62
    7
 10
814.07072799065713
 20
212.28314052043743
 11
819.20103014054234
 21
226.37852983222592
  0
LINE
  8
_0-a_極細3
  6
CONTINUOUS
 62
    7
 10
764.07668531686045
 20
246.44215053147221
 11
758.94638316697626
 21
232.34676121968369
  0
LINE
  8
_0-a_極細3
  6
CONTINUOUS
 62
    7
 10
819.20103014054234
 20
226.37852983222592
 11
764.07668531686045
 21
246.44215053147221
  0
LINE
  8
_0-a_極細3
  6
CONTINUOUS
 62
    7
 10
814.07072799065713
 20
212.28314052043743
 11
758.94638316697626
 21
232.34676121968369
  0
LINE
  8
_0-a_極細3
  6
CENTER1
 62
    7
 10
821.59131245759249
 20
217.52720513630177
 11
757.56029197502698
 21
240.8325906213372
  0
LINE
  8
_0-a_極細3
  6
CONTINUOUS
 62
    7
 10
795.43065977017136
 20
187.4014393579339
 11
795.43065977017136
 21
231.48700070625
  0
LINE
  8
_0-a_極細3
  6
CONTINUOUS
 62
    7
 10
795.43065977017136
 20
231.48700070625
 11
810.43065977017136
 21
231.48700070625
  0
LINE
  8
_0-a_極細3
  6
CONTINUOUS
 62
    7
 10
810.43065977017136
 20
231.48700070625
 11
810.43065977017136
 21
187.4014393579339
  0
LINE
  8
_0-a_極細3
  6
CENTER1
 62
    7
 10
802.93065977017136
 20
179.12469907348097
 11
802.93065977017136
 21
235.76272087085954
  0
CIRCLE
  8
_0-a_極細3
  6
CONTINUOUS
 62
    7
 10
797.04756590032036
 20
244.56318310792744
 40
0.5530864197530718
  0
CIRCLE
  8
_0-a_極細3
  6
CONTINUOUS
 62
    7
 10
819.26375245724728
 20
231.21997323138456
 40
0.5530864197530718
  0
LINE
  8
_0-d_寸法3
  6
CONTINUOUS
 62
    7
 10
770.43065977017238
 20
214.06810602460067
 11
770.43065977017238
 21
196.9234141236953
  0
LINE
  8
_0-d_寸法3
  6
CONTINUOUS
 62
    7
 10
770.43065977017238
 20
201.9234141236953
 11
760.77140150728155
 21
199.33522367267003
  0
LINE
  8
_0-d_寸法3
  6
CONTINUOUS
 62
    7
 10
770.43065977017238
 20
201.9234141236953
 11
760.77140150728155
 21
204.51160457472042
  0
LINE
  8
_0-d_寸法3
  6
CONTINUOUS
 62
    7
 10
720.43065977017238
 20
252.4014393579339
 11
720.43065977017238
 21
196.9234141236953
  0
LINE
  8
_0-d_寸法3
  6
CONTINUOUS
 62
    7
 10
720.43065977017238
 20
201.9234141236953
 11
730.08991803306299
 21
204.51160457472048
  0
LINE
  8
_0-d_寸法3
  6
CONTINUOUS
 62
    7
 10
720.43065977017238
 20
201.9234141236953
 11
730.08991803306299
 21
199.33522367267003
  0
LINE
  8
_0-d_寸法3
  6
CONTINUOUS
 62
    7
 10
770.43065977017238
 20
201.9234141236953
 11
720.43065977017238
 21
201.9234141236953
  0
TEXT
  8
_0-d_寸法3
 62
    7
 10
737.93065977017238
 20
201.92341412369524
 40
15
 41
1
 50
0.0000000000002714
  1
30
  0
ARC
  8
_0-b_細線3
  6
CONTINUOUS
 62
    7
 10
765.43065977017136
 20
267.4014393579339
 40
5
 50
269.99999999999977
 51
359.99999999999966
  0
LINE
  8
_0-b_細線3
  6
CONTINUOUS
 62
    7
 10
770.43065977017136
 20
267.4014393579339
 11
770.43065977017136
 21
291.56810602460041
  0
LINE
  8
_0-b_細線3
  6
CONTINUOUS
 62
    7
 10
765.43065977017136
 20
262.4014393579339
 11
721.26399310350439
 21
262.4014393579339
  0
LINE
  8
_0-b_細線3
  6
CONTINUOUS
 62
    7
 10
720.43065977017136
 20
263.23477269126715
 11
721.26399310350439
 21
262.4014393579339
  0
LINE
  8
_0-b_細線3
  6
CONTINUOUS
 62
    7
 10
720.43065977017136
 20
266.56810602460064
 11
720.43065977017136
 21
263.23477269126715
  0
LINE
  8
_0-b_細線3
  6
CONTINUOUS
 62
    7
 10
721.26399310350439
 20
267.4014393579339
 11
720.43065977017136
 21
266.56810602460064
  0
LINE
  8
_0-b_細線3
  6
CONTINUOUS
 62
    7
 10
765.43065977017136
 20
267.4014393579339
 11
721.26399310350439
 21
267.4014393579339
  0
LINE
  8
_0-b_細線3
  6
CONTINUOUS
 62
    7
 10
769.59732643683833
 20
292.4014393579339
 11
770.43065977017136
 21
291.56810602460041
  0
LINE
  8
_0-b_細線3
  6
CONTINUOUS
 62
    7
 10
766.2639931035053
 20
292.4014393579339
 11
769.59732643683833
 21
292.4014393579339
  0
LINE
  8
_0-b_細線3
  6
CONTINUOUS
 62
    7
 10
765.43065977017136
 20
291.56810602460041
 11
766.2639931035053
 21
292.4014393579339
  0
LINE
  8
_0-b_細線3
  6
CONTINUOUS
 62
    7
 10
765.43065977017136
 20
267.4014393579339
 11
765.43065977017136
 21
291.56810602460041
  0
LINE
  8
_0-b_細線3
  6
CONTINUOUS
 62
    7
 10
757.09732643683833
 20
267.40143935793412
 11
757.09732643683833
 21
292.4014393579339
  0
LINE
  8
_0-b_細線3
  6
CONTINUOUS
 62
    7
 10
757.09732643683833
 20
292.4014393579339
 11
762.09732643683833
 21
292.4014393579339
  0
LINE
  8
_0-b_細線3
  6
CONTINUOUS
 62
    7
 10
762.09732643683833
 20
292.4014393579339
 11
762.09732643683833
 21
267.40143935793412
  0
LINE
  8
_0-b_細線3
  6
CONTINUOUS
 62
    7
 10
762.09732643683833
 20
267.40143935793412
 11
757.09732643683833
 21
267.40143935793412
  0
LINE
  8
_0-b_細線3
  6
CONTINUOUS
 62
    7
 10
757.09732643683833
 20
292.4014393579339
 11
183.76399310350513
 21
292.40143935793321
  0
LINE
  8
_0-d_寸法3
  6
CONTINUOUS
 62
    7
 10
220.43065977017207
 20
257.4014393579339
 11
220.43065977017207
 21
196.9234141236953
  0
LINE
  8
_0-d_寸法3
  6
CONTINUOUS
 62
    7
 10
220.43065977017207
 20
201.9234141236953
 11
230.08991803306282
 21
204.51160457472042
  0
LINE
  8
_0-d_寸法3
  6
CONTINUOUS
 62
    7
 10
220.43065977017207
 20
201.9234141236953
 11
230.08991803306282
 21
199.33522367267003
  0
LINE
  8
_0-d_寸法3
  6
CONTINUOUS
 62
    7
 10
720.43065977017136
 20
257.4014393579339
 11
720.43065977017136
 21
196.9234141236953
  0
LINE
  8
_0-d_寸法3
  6
CONTINUOUS
 62
    7
 10
720.43065977017136
 20
201.9234141236953
 11
710.77140150728064
 21
199.33522367267003
  0
LINE
  8
_0-d_寸法3
  6
CONTINUOUS
 62
    7
 10
720.43065977017136
 20
201.9234141236953
 11
710.77140150728064
 21
204.51160457472048
  0
LINE
  8
_0-d_寸法3
  6
CONTINUOUS
 62
    7
 10
220.43065977017207
 20
201.9234141236953
 11
720.43065977017136
 21
201.9234141236953
  0
TEXT
  8
_0-d_寸法3
 62
    7
 10
459.18065977017193
 20
201.9234141236953
 40
15
 41
1
 50
0
  1
300
  0
LINE
  8
_0-b_細線3
  6
CONTINUOUS
 62
    7
 10
757.09732643683833
 20
267.40143935793412
 11
183.76399310350513
 21
267.40143935793344
  0
LINE
  8
_0-a_極細3
  6
CENTER1
 62
    7
 10
773.0974148379936
 20
279.9014393579339
 11
168.77666732563156
 21
279.9014393579339
  0
ARC
  8
_0-b_細線3
  6
CONTINUOUS
 62
    7
 10
470.43065977017193
 20
279.9014393579339
 40
8.75
 50
294.03943363457506
 51
65.960566365424228
  0
ARC
  8
_0-b_細線3
  6
CONTINUOUS
 62
    7
 10
470.43065977017193
 20
279.9014393579339
 40
8.75
 50
114.03943363457542
 51
245.96056636541877
  0
ARC
  8
_0-b_細線3
  6
CONTINUOUS
 62
    7
 10
470.4306597701646
 20
274.06810602454311
 40
2.4999999999928004
 50
179.99999999999983
 51
359.99999999999966
  0
LINE
  8
_0-b_細線3
  6
CONTINUOUS
 62
    7
 10
467.93065977017193
 20
285.73477269126738
 11
467.93065977017193
 21
274.06810602460064
  0
ARC
  8
_0-b_細線3
  6
CONTINUOUS
 62
    7
 10
470.4306597701646
 20
285.73477269133923
 40
2.5000000000072005
 50
0
 51
179.99999999999983
  0
LINE
  8
_0-b_細線3
  6
CONTINUOUS
 62
    7
 10
472.93065977017193
 20
274.06810602460064
 11
472.93065977017193
 21
285.73477269126738
  0
ARC
  8
_0-b_細線3
  6
CONTINUOUS
 62
    7
 10
470.43065977017733
 20
274.06810602458177
 40
4.1666666666723522
 50
179.99999999999983
 51
359.99999999999966
  0
LINE
  8
_0-b_細線3
  6
CONTINUOUS
 62
    7
 10
466.26399310350587
 20
285.73477269126738
 11
466.26399310350587
 21
274.06810602460064
  0
ARC
  8
_0-b_細線3
  6
CONTINUOUS
 62
    7
 10
470.43065977013919
 20
285.73477269136515
 40
4.1666666667000154
 50
0
 51
179.99999999999983
  0
LINE
  8
_0-b_細線3
  6
CONTINUOUS
 62
    7
 10
474.59732643683884
 20
274.06810602460064
 11
474.59732643683884
 21
285.73477269126738
  0
ARC
  8
_0-b_細線3
  6
CONTINUOUS
 62
    7
 10
220.43065977017207
 20
279.9014393579339
 40
8.75
 50
294.03943363457506
 51
65.960566365424228
  0
ARC
  8
_0-b_細線3
  6
CONTINUOUS
 62
    7
 10
220.43065977017207
 20
279.9014393579339
 40
8.75
 50
114.03943363457542
 51
245.96056636541877
  0
ARC
  8
_0-b_細線3
  6
CONTINUOUS
 62
    7
 10
220.43065977016482
 20
274.06810602454311
 40
2.4999999999928004
 50
179.99999999999983
 51
359.99999999999966
  0
LINE
  8
_0-b_細線3
  6
CONTINUOUS
 62
    7
 10
217.93065977017207
 20
285.73477269126738
 11
217.93065977017207
 21
274.06810602460064
  0
ARC
  8
_0-b_細線3
  6
CONTINUOUS
 62
    7
 10
220.43065977016482
 20
285.73477269133923
 40
2.5000000000072005
 50
0
 51
179.99999999999983
  0
LINE
  8
_0-b_細線3
  6
CONTINUOUS
 62
    7
 10
222.93065977017207
 20
274.06810602460064
 11
222.93065977017207
 21
285.73477269126738
  0
ARC
  8
_0-b_細線3
  6
CONTINUOUS
 62
    7
 10
220.43065977017761
 20
274.06810602458177
 40
4.1666666666723522
 50
179.99999999999983
 51
359.99999999999966
  0
LINE
  8
_0-b_細線3
  6
CONTINUOUS
 62
    7
 10
216.26399310350607
 20
285.73477269126738
 11
216.26399310350607
 21
274.06810602460064
  0
ARC
  8
_0-b_細線3
  6
CONTINUOUS
 62
    7
 10
220.43065977013939
 20
285.73477269136515
 40
4.1666666667000154
 50
0
 51
179.99999999999983
  0
LINE
  8
_0-b_細線3
  6
CONTINUOUS
 62
    7
 10
224.59732643683907
 20
274.06810602460064
 11
224.59732643683907
 21
285.73477269126738
  0
ARC
  8
_0-b_細線3
  6
CONTINUOUS
 62
    7
 10
720.43065977017238
 20
279.9014393579339
 40
8.75
 50
294.03943363457506
 51
65.960566365424228
  0
ARC
  8
_0-b_細線3
  6
CONTINUOUS
 62
    7
 10
720.43065977017238
 20
279.9014393579339
 40
8.75
 50
114.03943363457542
 51
245.96056636541877
  0
ARC
  8
_0-b_細線3
  6
CONTINUOUS
 62
    7
 10
720.43065977016499
 20
274.06810602454311
 40
2.4999999999928004
 50
179.99999999999983
 51
359.99999999999966
  0
LINE
  8
_0-b_細線3
  6
CONTINUOUS
 62
    7
 10
717.93065977017238
 20
285.73477269126738
 11
717.93065977017238
 21
274.06810602460064
  0
ARC
  8
_0-b_細線3
  6
CONTINUOUS
 62
    7
 10
720.43065977016499
 20
285.73477269133923
 40
2.5000000000072005
 50
0
 51
179.99999999999983
  0
LINE
  8
_0-b_細線3
  6
CONTINUOUS
 62
    7
 10
722.93065977017238
 20
274.06810602460064
 11
722.93065977017238
 21
285.73477269126738
  0
ARC
  8
_0-b_細線3
  6
CONTINUOUS
 62
    7
 10
720.43065977017773
 20
274.06810602458177
 40
4.1666666666723522
 50
179.99999999999983
 51
359.99999999999966
  0
LINE
  8
_0-b_細線3
  6
CONTINUOUS
 62
    7
 10
716.26399310350621
 20
285.73477269126738
 11
716.26399310350621
 21
274.06810602460064
  0
ARC
  8
_0-b_細線3
  6
CONTINUOUS
 62
    7
 10
720.43065977013953
 20
285.73477269136515
 40
4.1666666667000154
 50
0
 51
179.99999999999983
  0
LINE
  8
_0-b_細線3
  6
CONTINUOUS
 62
    7
 10
724.59732643683924
 20
274.06810602460064
 11
724.59732643683924
 21
285.73477269126738
  0
LINE
  8
_0-d_寸法3
  6
CONTINUOUS
 62
    7
 10
170.43065977017207
 20
297.4014393579339
 11
170.43065977017235
 21
417.4014393579339
  0
LINE
  8
_0-d_寸法3
  6
CONTINUOUS
 62
    7
 10
170.43065977017235
 20
412.4014393579339
 11
180.08991803306301
 21
414.98962980895908
  0
LINE
  8
_0-d_寸法3
  6
CONTINUOUS
 62
    7
 10
170.43065977017235
 20
412.4014393579339
 11
180.08991803306301
 21
409.81324890690871
  0
LINE
  8
_0-d_寸法3
  6
CONTINUOUS
 62
    7
 10
770.43065977017136
 20
297.4014393579339
 11
770.43065977017193
 21
417.4014393579339
  0
LINE
  8
_0-d_寸法3
  6
CONTINUOUS
 62
    7
 10
770.43065977017193
 20
412.4014393579339
 11
760.7714015072811
 21
409.81324890690871
  0
LINE
  8
_0-d_寸法3
  6
CONTINUOUS
 62
    7
 10
770.43065977017193
 20
412.4014393579339
 11
760.7714015072811
 21
414.98962980895919
  0
LINE
  8
_0-d_寸法3
  6
CONTINUOUS
 62
    7
 10
170.43065977017235
 20
412.4014393579339
 11
770.43065977017193
 21
412.4014393579339
  0
TEXT
  8
_0-d_寸法3
 62
    7
 10
459.18065977017193
 20
412.4014393579339
 40
15
 41
1
 50
0
  1
360
  0
LINE
  8
_0-d_寸法3
  6
CONTINUOUS
 62
    7
 10
178.76399310350521
 20
302.4014393579339
 11
178.76399310350536
 21
347.4014393579339
  0
LINE
  8
_0-d_寸法3
  6
CONTINUOUS
 62
    7
 10
178.76399310350536
 20
342.4014393579339
 11
188.42325136639602
 21
344.98962980895908
  0
LINE
  8
_0-d_寸法3
  6
CONTINUOUS
 62
    7
 10
178.76399310350536
 20
342.4014393579339
 11
188.42325136639602
 21
339.81324890690871
  0
LINE
  8
_0-d_寸法3
  6
CONTINUOUS
 62
    7
 10
220.43065977017193
 20
302.40143935793344
 11
220.43065977017216
 21
347.4014393579339
  0
LINE
  8
_0-d_寸法3
  6
CONTINUOUS
 62
    7
 10
220.43065977017207
 20
342.4014393579339
 11
210.77140150728141
 21
339.81324890690871
  0
LINE
  8
_0-d_寸法3
  6
CONTINUOUS
 62
    7
 10
220.43065977017207
 20
342.4014393579339
 11
210.77140150728141
 21
344.98962980895919
  0
LINE
  8
_0-d_寸法3
  6
CONTINUOUS
 62
    7
 10
178.76399310350536
 20
342.4014393579339
 11
220.43065977017207
 21
342.4014393579339
  0
TEXT
  8
_0-d_寸法3
 62
    7
 10
192.09732643683864
 20
342.4014393579339
 40
15
 41
1
 50
0
  1
25
  0
LINE
  8
_0-d_寸法3
  6
CONTINUOUS
 62
    7
 10
220.43065977017207
 20
342.4014393579339
 11
230.08991803306282
 21
344.98962980895902
  0
LINE
  8
_0-d_寸法3
  6
CONTINUOUS
 62
    7
 10
220.43065977017207
 20
342.4014393579339
 11
230.08991803306273
 21
339.81324890690865
  0
LINE
  8
_0-d_寸法3
  6
CONTINUOUS
 62
    7
 10
470.43065977017193
 20
302.40143935793344
 11
470.43065977017193
 21
347.4014393579339
  0
LINE
  8
_0-d_寸法3
  6
CONTINUOUS
 62
    7
 10
470.43065977017193
 20
342.4014393579339
 11
460.77140150728121
 21
339.81324890690871
  0
LINE
  8
_0-d_寸法3
  6
CONTINUOUS
 62
    7
 10
470.43065977017193
 20
342.4014393579339
 11
460.77140150728127
 21
344.98962980895919
  0
LINE
  8
_0-d_寸法3
  6
CONTINUOUS
 62
    7
 10
220.43065977017207
 20
342.4014393579339
 11
470.43065977017193
 21
342.4014393579339
  0
TEXT
  8
_0-d_寸法3
 62
    7
 10
334.18065977017187
 20
342.4014393579339
 40
15
 41
1
 50
0
  1
150
  0
LINE
  8
_0-d_寸法3
  6
CONTINUOUS
 62
    7
 10
470.43065977017193
 20
342.4014393579339
 11
480.08991803306259
 21
344.98962980895902
  0
LINE
  8
_0-d_寸法3
  6
CONTINUOUS
 62
    7
 10
470.43065977017193
 20
342.4014393579339
 11
480.08991803306259
 21
339.81324890690865
  0
LINE
  8
_0-d_寸法3
  6
CONTINUOUS
 62
    7
 10
720.43065977017136
 20
302.40143935793344
 11
720.43065977017136
 21
347.4014393579339
  0
LINE
  8
_0-d_寸法3
  6
CONTINUOUS
 62
    7
 10
720.43065977017136
 20
342.4014393579339
 11
710.77140150728064
 21
339.81324890690871
  0
LINE
  8
_0-d_寸法3
  6
CONTINUOUS
 62
    7
 10
720.43065977017136
 20
342.4014393579339
 11
710.77140150728064
 21
344.98962980895919
  0
LINE
  8
_0-d_寸法3
  6
CONTINUOUS
 62
    7
 10
470.43065977017193
 20
342.4014393579339
 11
720.43065977017136
 21
342.4014393579339
  0
TEXT
  8
_0-d_寸法3
 62
    7
 10
584.18065977017136
 20
342.4014393579339
 40
15
 41
1
 50
0
  1
150
  0
LINE
  8
_0-d_寸法3
  6
CONTINUOUS
 62
    7
 10
720.43065977017136
 20
342.4014393579339
 11
730.08991803306219
 21
344.98962980895902
  0
LINE
  8
_0-d_寸法3
  6
CONTINUOUS
 62
    7
 10
720.43065977017136
 20
342.4014393579339
 11
730.08991803306219
 21
339.81324890690865
  0
LINE
  8
_0-d_寸法3
  6
CONTINUOUS
 62
    7
 10
762.09732643683856
 20
302.4014393579339
 11
762.09732643683878
 21
347.4014393579339
  0
LINE
  8
_0-d_寸法3
  6
CONTINUOUS
 62
    7
 10
762.09732643683878
 20
342.4014393579339
 11
752.43806817394807
 21
339.81324890690871
  0
LINE
  8
_0-d_寸法3
  6
CONTINUOUS
 62
    7
 10
762.09732643683878
 20
342.4014393579339
 11
752.43806817394807
 21
344.98962980895919
  0
LINE
  8
_0-d_寸法3
  6
CONTINUOUS
 62
    7
 10
720.43065977017136
 20
342.4014393579339
 11
762.09732643683878
 21
342.4014393579339
  0
TEXT
  8
_0-d_寸法3
 62
    7
 10
733.76399310350496
 20
342.4014393579339
 40
15
 41
1
 50
0
  1
25
  0
ARC
  8
_0-a_極細3
  6
CONTINUOUS
 62
    7
 10
953.46646366835171
 20
288.88554488551267
 40
21.070607518177617
 50
150.03871396148111
 51
205.23810402387852
  0
ARC
  8
_0-a_極細3
  6
CONTINUOUS
 62
    7
 10
915.34789344047408
 20
270.9173338303558
 40
21.070607518177617
 50
330.03871396148247
 51
25.238104023878527
  0
LINE
  8
_0-d_寸法3
  6
CONTINUOUS
 62
    7
 10
922.69126241195295
 20
292.40143935793401
 11
894.35792907861946
 21
292.40143935793418
  0
LINE
  8
_0-d_寸法3
  6
CONTINUOUS
 62
    7
 10
899.35792907861946
 20
292.40143935793412
 11
901.94611952964465
 21
282.74218109504346
  0
LINE
  8
_0-d_寸法3
  6
CONTINUOUS
 62
    7
 10
899.35792907861946
 20
292.40143935793412
 11
896.76973862759439
 21
282.74218109504346
  0
LINE
  8
_0-d_寸法3
  6
CONTINUOUS
 62
    7
 10
922.69126241195295
 20
267.40143935793401
 11
894.35792907861946
 21
267.40143935793418
  0
LINE
  8
_0-d_寸法3
  6
CONTINUOUS
 62
    7
 10
899.35792907861946
 20
267.40143935793412
 11
896.76973862759439
 21
277.06069762082478
  0
LINE
  8
_0-d_寸法3
  6
CONTINUOUS
 62
    7
 10
899.35792907861946
 20
267.40143935793412
 11
901.94611952964465
 21
277.06069762082478
  0
LINE
  8
_0-d_寸法3
  6
CONTINUOUS
 62
    7
 10
899.35792907861946
 20
292.40143935793412
 11
899.35792907861946
 21
267.40143935793412
  0
TEXT
  8
_0-d_寸法3
 62
    7
 10
899.35792907861946
 20
272.40143935793412
 40
15
 41
1
 50
90
  1
15
  0
LINE
  8
_0-a_極細3
  6
CENTER1
 62
    7
 10
914.55665531664977
 20
279.9014393579339
 11
1077.5360825895468
 21
279.9014393579339
  0
ARC
  8
_0-b_細線3
  6
CONTINUOUS
 62
    7
 10
958.58023746876131
 20
369.93058031496412
 40
97.696522151887564
 50
263.73185704547734
 51
276.26814295452192
  0
ARC
  8
_0-b_細線3
  6
CONTINUOUS
 62
    7
 10
958.58023746876131
 20
188.20563173423736
 40
97.696522151887407
 50
83.731857045477739
 51
96.268142954522261
  0
LINE
  8
_0-b_細線3
  6
CONTINUOUS
 62
    7
 10
953.58023746876165
 20
290.4014393579339
 11
953.58023746876165
 21
292.4014393579339
  0
LINE
  8
_0-b_細線3
  6
CONTINUOUS
 62
    7
 10
947.91357080209525
 20
290.4014393579339
 11
953.58023746876165
 21
290.4014393579339
  0
LINE
  8
_0-b_細線3
  6
CONTINUOUS
 62
    7
 10
947.91357080209525
 20
267.4014393579339
 11
947.91357080209525
 21
290.4014393579339
  0
LINE
  8
_0-b_細線3
  6
CONTINUOUS
 62
    7
 10
945.91357080209514
 20
267.4014393579339
 11
947.91357080209525
 21
267.4014393579339
  0
LINE
  8
_0-b_細線3
  6
CONTINUOUS
 62
    7
 10
945.91357080209514
 20
290.4014393579339
 11
945.91357080209514
 21
267.4014393579339
  0
LINE
  8
_0-b_細線3
  6
CONTINUOUS
 62
    7
 10
940.24690413542874
 20
290.4014393579339
 11
945.91357080209514
 21
290.4014393579339
  0
LINE
  8
_0-b_細線3
  6
CONTINUOUS
 62
    7
 10
940.24690413542874
 20
292.4014393579339
 11
940.24690413542874
 21
290.4014393579339
  0
LINE
  8
_0-b_細線3
  6
CONTINUOUS
 62
    7
 10
953.58023746876165
 20
292.4014393579339
 11
940.24690413542874
 21
292.4014393579339
  0
ARC
  8
_0-b_細線3
  6
CONTINUOUS
 62
    7
 10
1005.2469041354283
 20
369.93058031496298
 40
97.696522151886498
 50
263.73185704547677
 51
276.26814295452255
  0
ARC
  8
_0-b_細線3
  6
CONTINUOUS
 62
    7
 10
1005.2469041354283
 20
188.20563173423835
 40
97.696522151886498
 50
83.731857045477142
 51
96.268142954522872
  0
ARC
  8
_0-b_細線3
  6
CONTINUOUS
 62
    7
 10
981.91357080209468
 20
369.93058031496298
 40
97.696522151886498
 50
263.73185704547706
 51
276.26814295452255
  0
ARC
  8
_0-b_細線3
  6
CONTINUOUS
 62
    7
 10
981.91357080209468
 20
188.20563173423835
 40
97.696522151886498
 50
83.731857045477142
 51
96.268142954522602
  0
LINE
  8
_0-b_細線3
  6
CONTINUOUS
 62
    7
 10
976.91357080209514
 20
290.4014393579339
 11
976.91357080209514
 21
292.4014393579339
  0
LINE
  8
_0-b_細線3
  6
CONTINUOUS
 62
    7
 10
971.24690413542862
 20
290.4014393579339
 11
976.91357080209514
 21
290.4014393579339
  0
LINE
  8
_0-b_細線3
  6
CONTINUOUS
 62
    7
 10
971.24690413542862
 20
267.4014393579339
 11
971.24690413542862
 21
290.4014393579339
  0
LINE
  8
_0-b_細線3
  6
CONTINUOUS
 62
    7
 10
969.24690413542862
 20
267.4014393579339
 11
971.24690413542862
 21
267.4014393579339
  0
LINE
  8
_0-b_細線3
  6
CONTINUOUS
 62
    7
 10
969.24690413542862
 20
290.4014393579339
 11
969.24690413542862
 21
267.4014393579339
  0
LINE
  8
_0-b_細線3
  6
CONTINUOUS
 62
    7
 10
963.58023746876165
 20
290.4014393579339
 11
969.24690413542862
 21
290.4014393579339
  0
LINE
  8
_0-b_細線3
  6
CONTINUOUS
 62
    7
 10
963.58023746876165
 20
292.4014393579339
 11
963.58023746876165
 21
290.4014393579339
  0
LINE
  8
_0-b_細線3
  6
CONTINUOUS
 62
    7
 10
976.91357080209514
 20
292.4014393579339
 11
963.58023746876165
 21
292.4014393579339
  0
LINE
  8
_0-b_細線3
  6
CONTINUOUS
 62
    7
 10
1000.2469041354283
 20
290.4014393579339
 11
1000.2469041354283
 21
292.4014393579339
  0
LINE
  8
_0-b_細線3
  6
CONTINUOUS
 62
    7
 10
994.58023746876165
 20
290.4014393579339
 11
1000.2469041354283
 21
290.4014393579339
  0
LINE
  8
_0-b_細線3
  6
CONTINUOUS
 62
    7
 10
994.58023746876165
 20
267.4014393579339
 11
994.58023746876165
 21
290.4014393579339
  0
LINE
  8
_0-b_細線3
  6
CONTINUOUS
 62
    7
 10
992.58023746876177
 20
267.4014393579339
 11
994.58023746876165
 21
267.4014393579339
  0
LINE
  8
_0-b_細線3
  6
CONTINUOUS
 62
    7
 10
992.58023746876177
 20
290.4014393579339
 11
992.58023746876177
 21
267.4014393579339
  0
LINE
  8
_0-b_細線3
  6
CONTINUOUS
 62
    7
 10
986.91357080209468
 20
290.4014393579339
 11
992.58023746876177
 21
290.4014393579339
  0
LINE
  8
_0-b_細線3
  6
CONTINUOUS
 62
    7
 10
986.91357080209468
 20
292.4014393579339
 11
986.91357080209468
 21
290.4014393579339
  0
LINE
  8
_0-b_細線3
  6
CONTINUOUS
 62
    7
 10
1000.2469041354283
 20
292.4014393579339
 11
986.91357080209468
 21
292.4014393579339
  0
LINE
  8
_0-b_細線3
  6
CONTINUOUS
 62
    7
 10
1023.5802374687617
 20
290.4014393579339
 11
1023.5802374687617
 21
292.4014393579339
  0
LINE
  8
_0-b_細線3
  6
CONTINUOUS
 62
    7
 10
1017.9135708020948
 20
290.4014393579339
 11
1023.5802374687617
 21
290.4014393579339
  0
LINE
  8
_0-b_細線3
  6
CONTINUOUS
 62
    7
 10
1017.9135708020948
 20
267.4014393579339
 11
1017.9135708020948
 21
290.4014393579339
  0
LINE
  8
_0-b_細線3
  6
CONTINUOUS
 62
    7
 10
1015.9135708020951
 20
267.4014393579339
 11
1017.9135708020948
 21
267.4014393579339
  0
LINE
  8
_0-b_細線3
  6
CONTINUOUS
 62
    7
 10
1015.9135708020951
 20
290.4014393579339
 11
1015.9135708020951
 21
267.4014393579339
  0
LINE
  8
_0-b_細線3
  6
CONTINUOUS
 62
    7
 10
1010.2469041354287
 20
290.4014393579339
 11
1015.9135708020951
 21
290.4014393579339
  0
LINE
  8
_0-b_細線3
  6
CONTINUOUS
 62
    7
 10
1010.2469041354287
 20
292.4014393579339
 11
1010.2469041354287
 21
290.4014393579339
  0
LINE
  8
_0-b_細線3
  6
CONTINUOUS
 62
    7
 10
1023.5802374687617
 20
292.4014393579339
 11
1010.2469041354287
 21
292.4014393579339
  0
LINE
  8
_0-d_寸法3
  6
CONTINUOUS
 62
    7
 10
940.24690413542874
 20
302.4014393579339
 11
940.24690413542874
 21
347.4014393579339
  0
LINE
  8
_0-d_寸法3
  6
CONTINUOUS
 62
    7
 10
940.24690413542874
 20
342.4014393579339
 11
930.58764587253791
 21
339.81324890690871
  0
LINE
  8
_0-d_寸法3
  6
CONTINUOUS
 62
    7
 10
940.24690413542874
 20
342.4014393579339
 11
930.58764587253791
 21
344.98962980895919
  0
LINE
  8
_0-d_寸法3
  6
CONTINUOUS
 62
    7
 10
953.58023746876211
 20
302.4014393579339
 11
953.58023746876211
 21
347.4014393579339
  0
CIRCLE
  8
_0-d_寸法3
  6
CONTINUOUS
 62
    1
 10
953.58023746876211
 20
342.4014393579339
 40
1.5000000000000002
  0
LINE
  8
_0-d_寸法3
  6
CONTINUOUS
 62
    7
 10
915.24690413542874
 20
342.4014393579339
 11
953.58023746876211
 21
342.4014393579339
  0
TEXT
  8
_0-d_寸法3
 62
    7
 10
922.74147008584794
 20
342.4014393579339
 40
15
 41
1
 50
0
  1
8
  0
LINE
  8
_0-d_寸法3
  6
CONTINUOUS
 62
    7
 10
963.58023746876211
 20
302.4014393579339
 11
963.58023746876211
 21
347.4014393579339
  0
LINE
  8
_0-d_寸法3
  6
CONTINUOUS
 62
    7
 10
963.58023746876211
 20
342.4014393579339
 11
973.23949573165294
 21
344.98962980895902
  0
LINE
  8
_0-d_寸法3
  6
CONTINUOUS
 62
    7
 10
963.58023746876211
 20
342.4014393579339
 11
973.23949573165294
 21
339.81324890690865
  0
LINE
  8
_0-d_寸法3
  6
CONTINUOUS
 62
    7
 10
953.58023746876211
 20
342.4014393579339
 11
988.58023746876211
 21
342.4014393579339
  0
TEXT
  8
_0-d_寸法3
 62
    7
 10
973.30097625868746
 20
342.4014393579339
 40
15
 41
1
 50
0
  1
6
  0
ARC
  8
_0-b_細線3
  6
CONTINUOUS
 62
    7
 10
1028.5802374687612
 20
369.93058031496298
 40
97.696522151886498
 50
263.73185704547677
 51
276.26814295452255
  0
ARC
  8
_0-b_細線3
  6
CONTINUOUS
 62
    7
 10
1028.5802374687612
 20
188.20563173423835
 40
97.696522151886498
 50
83.731857045477142
 51
96.268142954522872
  0
LINE
  8
_0-b_細線3
  6
CONTINUOUS
 62
    7
 10
1046.9135708020947
 20
290.4014393579339
 11
1046.9135708020947
 21
292.4014393579339
  0
LINE
  8
_0-b_細線3
  6
CONTINUOUS
 62
    7
 10
1041.2469041354277
 20
290.4014393579339
 11
1046.9135708020947
 21
290.4014393579339
  0
LINE
  8
_0-b_細線3
  6
CONTINUOUS
 62
    7
 10
1041.2469041354277
 20
267.4014393579339
 11
1041.2469041354277
 21
290.4014393579339
  0
LINE
  8
_0-b_細線3
  6
CONTINUOUS
 62
    7
 10
1039.2469041354282
 20
267.4014393579339
 11
1041.2469041354277
 21
267.4014393579339
  0
LINE
  8
_0-b_細線3
  6
CONTINUOUS
 62
    7
 10
1039.2469041354282
 20
290.4014393579339
 11
1039.2469041354282
 21
267.4014393579339
  0
LINE
  8
_0-b_細線3
  6
CONTINUOUS
 62
    7
 10
1033.5802374687617
 20
290.4014393579339
 11
1039.2469041354282
 21
290.4014393579339
  0
LINE
  8
_0-b_細線3
  6
CONTINUOUS
 62
    7
 10
1033.5802374687617
 20
292.4014393579339
 11
1033.5802374687617
 21
290.4014393579339
  0
LINE
  8
_0-b_細線3
  6
CONTINUOUS
 62
    7
 10
1046.9135708020947
 20
292.4014393579339
 11
1033.5802374687617
 21
292.4014393579339
  0
ARC
  8
_0-b_細線3
  6
CONTINUOUS
 62
    7
 10
1051.9135708020942
 20
369.93058031496298
 40
97.696522151886498
 50
263.73185704547677
 51
276.26814295452255
  0
ARC
  8
_0-b_細線3
  6
CONTINUOUS
 62
    7
 10
1051.9135708020942
 20
188.20563173423835
 40
97.696522151886498
 50
83.731857045477142
 51
96.268142954522872
  0
LINE
  8
_0-b_細線3
  6
CONTINUOUS
 62
    7
 10
1070.2469041354277
 20
290.4014393579339
 11
1070.2469041354277
 21
292.4014393579339
  0
LINE
  8
_0-b_細線3
  6
CONTINUOUS
 62
    7
 10
1064.5802374687607
 20
290.4014393579339
 11
1070.2469041354277
 21
290.4014393579339
  0
LINE
  8
_0-b_細線3
  6
CONTINUOUS
 62
    7
 10
1064.5802374687607
 20
267.4014393579339
 11
1064.5802374687607
 21
290.4014393579339
  0
LINE
  8
_0-b_細線3
  6
CONTINUOUS
 62
    7
 10
1062.5802374687612
 20
267.4014393579339
 11
1064.5802374687607
 21
267.4014393579339
  0
LINE
  8
_0-b_細線3
  6
CONTINUOUS
 62
    7
 10
1062.5802374687612
 20
290.4014393579339
 11
1062.5802374687612
 21
267.4014393579339
  0
LINE
  8
_0-b_細線3
  6
CONTINUOUS
 62
    7
 10
1056.9135708020947
 20
290.4014393579339
 11
1062.5802374687612
 21
290.4014393579339
  0
LINE
  8
_0-b_細線3
  6
CONTINUOUS
 62
    7
 10
1056.9135708020947
 20
292.4014393579339
 11
1056.9135708020947
 21
290.4014393579339
  0
LINE
  8
_0-b_細線3
  6
CONTINUOUS
 62
    7
 10
1070.2469041354277
 20
292.4014393579339
 11
1056.9135708020947
 21
292.4014393579339
  0
ARC
  8
_0-a_極細3
  6
CONTINUOUS
 62
    7
 10
1096.5953677034852
 20
288.88554488551267
 40
21.070607518177617
 50
150.03871396148173
 51
205.23810402387798
  0
ARC
  8
_0-a_極細3
  6
CONTINUOUS
 62
    7
 10
1058.4767974756071
 20
270.9173338303558
 40
21.070607518177617
 50
330.03871396148247
 51
25.238104023878019
  0
ARC
  8
_0-b_細線3
  6
CONTINUOUS
 62
    7
 10
1075.2469041354273
 20
188.20563173423835
 40
97.696522151886498
 50
89.712447716540126
 51
96.268142954522872
  0
ARC
  8
_0-b_細線3
  6
CONTINUOUS
 62
    7
 10
1075.2469041354273
 20
369.93058031496298
 40
97.696522151886498
 50
263.73185704547654
 51
272.49521673648451
  0
ARC
  8
_0-b_細線3
  6
CONTINUOUS
 62
    7
 10
935.24690413542771
 20
188.20563173423736
 40
97.696522151887407
 50
83.731857045477739
 51
91.544741679869503
  0
ARC
  8
_0-b_細線3
  6
CONTINUOUS
 62
    7
 10
935.24690413542771
 20
369.93058031496412
 40
97.696522151887564
 50
270.66272511896562
 51
276.26814295452192
  0
LINE
  8
_0-d_寸法3
  6
CONTINUOUS
 62
    7
 10
1016.9135708020951
 20
302.40143935793412
 11
1016.9135708020951
 21
347.4014393579339
  0
LINE
  8
_0-d_寸法3
  6
CONTINUOUS
 62
    7
 10
1016.9135708020951
 20
342.4014393579339
 11
1026.5728290649859
 21
344.98962980895908
  0
LINE
  8
_0-d_寸法3
  6
CONTINUOUS
 62
    7
 10
1016.9135708020951
 20
342.4014393579339
 11
1026.5728290649859
 21
339.81324890690871
  0
LINE
  8
_0-d_寸法3
  6
CONTINUOUS
 62
    7
 10
1040.2469041354286
 20
302.4014393579339
 11
1040.2469041354286
 21
347.4014393579339
  0
LINE
  8
_0-d_寸法3
  6
CONTINUOUS
 62
    7
 10
1040.2469041354286
 20
342.4014393579339
 11
1030.5876458725379
 21
339.81324890690871
  0
LINE
  8
_0-d_寸法3
  6
CONTINUOUS
 62
    7
 10
1040.2469041354286
 20
342.4014393579339
 11
1030.5876458725379
 21
344.98962980895919
  0
LINE
  8
_0-d_寸法3
  6
CONTINUOUS
 62
    7
 10
1016.9135708020951
 20
342.4014393579339
 11
1040.2469041354286
 21
342.4014393579339
  0
TEXT
  8
_0-d_寸法3
 62
    7
 10
1021.0802374687617
 20
342.4014393579339
 40
15
 41
1
 50
0
  1
14
  0
LINE
  8
_0-d_寸法3
  6
CONTINUOUS
 62
    7
 10
1040.2469041354286
 20
342.4014393579339
 11
1049.9061623983193
 21
344.98962980895902
  0
LINE
  8
_0-d_寸法3
  6
CONTINUOUS
 62
    7
 10
1040.2469041354286
 20
342.4014393579339
 11
1049.9061623983193
 21
339.81324890690865
  0
LINE
  8
_0-d_寸法3
  6
CONTINUOUS
 62
    7
 10
1063.5802374687617
 20
302.4014393579339
 11
1063.5802374687617
 21
347.4014393579339
  0
LINE
  8
_0-d_寸法3
  6
CONTINUOUS
 62
    7
 10
1063.5802374687617
 20
342.4014393579339
 11
1053.9209792058709
 21
339.81324890690871
  0
LINE
  8
_0-d_寸法3
  6
CONTINUOUS
 62
    7
 10
1063.5802374687617
 20
342.4014393579339
 11
1053.9209792058709
 21
344.98962980895919
  0
LINE
  8
_0-d_寸法3
  6
CONTINUOUS
 62
    7
 10
1040.2469041354286
 20
342.4014393579339
 11
1063.5802374687617
 21
342.4014393579339
  0
TEXT
  8
_0-d_寸法3
 62
    7
 10
1044.4135708020951
 20
342.4014393579339
 40
15
 41
1
 50
0
  1
14
  0
LINE
  8
_0-b_細線3
  6
CONTINUOUS
 62
    7
 10
936.12309469687284
 20
267.40143935793321
 11
1079.2519987320061
 21
267.40143935793321
  0
LINE
  8
_0-b_細線3
  6
CONTINUOUS
 62
    7
 10
932.69126241195295
 20
292.4014393579339
 11
1075.820166447086
 21
292.4014393579339
  0
TEXT
  8
_0-7_枠細線
 62
    5
 10
965.49999999999977
 20
110
 40
20
 41
0.6
 50
0
  1
ＧＳＴＪ－１５Ｗ３５０
  0
TEXT
  8
_0-7_枠細線
 62
    5
 10
965.49999999999977
 20
150
 40
20
 41
0.5
 50
0
  1
Ｔバー ステンレスグレーチング Ｈ１５タイプ
  0
TEXT
  8
_0-7_枠細線
 62
    5
 10
965.49999999999955
 20
70
 40
20.000000000000004
 41
0.5999999999999997
 50
0
  1
表面形状については記号表参照のこと
  0
LINE
  8
_0-9_枠極太
  6
CONTINUOUS
 62
    5
 10
59.999999999999716
 20
60
 11
59.999999999999716
 21
960
  0
LINE
  8
_0-9_枠極太
  6
CONTINUOUS
 62
    5
 10
59.999999999999716
 20
960
 11
1424.9999999999998
 21
960
  0
LINE
  8
_0-9_枠極太
  6
CONTINUOUS
 62
    5
 10
1424.9999999999998
 20
960
 11
1424.9999999999998
 21
60
  0
LINE
  8
_0-9_枠極太
  6
CONTINUOUS
 62
    5
 10
1424.9999999999998
 20
60
 11
59.999999999999716
 21
60
  0
LINE
  8
_0-a_極細3
  6
CONTINUOUS
 62
    7
 10
774.26399310350519
 20
255.73477269126715
 11
770.43065977017193
 21
255.73477269126715
  0
LINE
  8
_0-a_極細3
  6
CONTINUOUS
 62
    7
 10
774.26399310350519
 20
259.06810602460064
 11
770.43065977017193
 21
259.06810602460064
  0
LINE
  8
_0-a_極細3
  6
CONTINUOUS
 62
    7
 10
774.26399310350519
 20
252.4014393579339
 11
770.43065977017193
 21
252.4014393579339
  0
LINE
  8
_0-a_極細3
  6
CONTINUOUS
 62
    7
 10
774.26399310350519
 20
262.4014393579339
 11
770.43065977017193
 21
262.4014393579339
  0
LINE
  8
_0-a_極細3
  6
CONTINUOUS
 62
    7
 10
770.43065977017193
 20
229.06810602460067
 11
774.26399310350519
 21
229.06810602460067
  0
LINE
  8
_0-a_極細3
  6
CONTINUOUS
 62
    7
 10
774.26399310350519
 20
279.06810602460064
 11
770.43065977017193
 21
279.06810602460064
  0
LINE
  8
_0-b_細線3
  6
CONTINUOUS
 62
    7
 10
770.43065977017193
 20
282.4014393579339
 11
770.43065977017193
 21
224.06810602460067
  0
LINE
  8
_0-b_細線3
  6
CONTINUOUS
 62
    7
 10
770.43065977017193
 20
224.06810602460067
 11
774.26399310350519
 21
224.06810602460067
  0
LINE
  8
_0-b_細線3
  6
CONTINUOUS
 62
    7
 10
774.26399310350519
 20
224.06810602460067
 11
774.26399310350519
 21
282.4014393579339
  0
LINE
  8
_0-b_細線3
  6
CONTINUOUS
 62
    7
 10
774.26399310350519
 20
282.4014393579339
 11
770.43065977017193
 21
282.4014393579339
  0
LINE
  8
_0-7_枠細線
  6
CONTINUOUS
 62
    5
 10
793.34986119674465
 20
260.13018935408797
 11
785.84986119674465
 21
275.13018935408797
  0
LINE
  8
_0-7_枠細線
  6
CONTINUOUS
 62
    5
 10
778.34986119674465
 20
260.13018935408797
 11
793.34986119674465
 21
260.13018935408797
  0
LINE
  8
_0-7_枠細線
  6
CONTINUOUS
 62
    5
 10
785.84986119674465
 20
275.13018935408797
 11
778.34986119674465
 21
260.13018935408797
  0
TEXT
  8
_0-7_枠細線
 62
    5
 10
780.71501246489277
 20
259.82318710870737
 40
12.5
 41
0.8
 50
0
  1
１
  0
LINE
  8
_0-a_極細3
  6
CONTINUOUS
 62
    7
 10
166.59732643683853
 20
255.73477269126715
 11
170.43065977017193
 21
255.73477269126715
  0
LINE
  8
_0-a_極細3
  6
CONTINUOUS
 62
    7
 10
166.59732643683853
 20
259.06810602460064
 11
170.43065977017193
 21
259.06810602460064
  0
LINE
  8
_0-a_極細3
  6
CONTINUOUS
 62
    7
 10
166.59732643683853
 20
252.4014393579339
 11
170.43065977017193
 21
252.4014393579339
  0
LINE
  8
_0-a_極細3
  6
CONTINUOUS
 62
    7
 10
166.59732643683853
 20
262.4014393579339
 11
170.43065977017193
 21
262.4014393579339
  0
LINE
  8
_0-a_極細3
  6
CONTINUOUS
 62
    7
 10
170.43065977017193
 20
229.06810602460067
 11
166.59732643683853
 21
229.06810602460067
  0
LINE
  8
_0-a_極細3
  6
CONTINUOUS
 62
    7
 10
166.59732643683853
 20
279.06810602460064
 11
170.43065977017193
 21
279.06810602460064
  0
LINE
  8
_0-b_細線3
  6
CONTINUOUS
 62
    7
 10
170.43065977017193
 20
282.4014393579339
 11
170.43065977017193
 21
224.06810602460067
  0
LINE
  8
_0-b_細線3
  6
CONTINUOUS
 62
    7
 10
170.43065977017193
 20
224.06810602460067
 11
166.59732643683853
 21
224.06810602460067
  0
LINE
  8
_0-b_細線3
  6
CONTINUOUS
 62
    7
 10
166.59732643683853
 20
224.06810602460067
 11
166.59732643683853
 21
282.4014393579339
  0
LINE
  8
_0-b_細線3
  6
CONTINUOUS
 62
    7
 10
166.59732643683853
 20
282.4014393579339
 11
170.43065977017193
 21
282.4014393579339
  0
LINE
  8
_0-7_枠細線
  6
CONTINUOUS
 62
    5
 10
1424.9999999999998
 20
907.5
 11
889.99999999999989
 21
907.5
  0
LINE
  8
_0-7_枠細線
  6
CONTINUOUS
 62
    5
 10
914.99999999999989
 20
908.94233397174708
 11
907.49999999999989
 21
923.94233397174708
  0
LINE
  8
_0-7_枠細線
  6
CONTINUOUS
 62
    5
 10
899.99999999999989
 20
908.94233397174708
 11
914.99999999999989
 21
908.94233397174708
  0
LINE
  8
_0-7_枠細線
  6
CONTINUOUS
 62
    5
 10
907.49999999999989
 20
923.94233397174708
 11
899.99999999999989
 21
908.94233397174708
  0
TEXT
  8
_0-7_枠細線
 62
    5
 10
902.36515126814788
 20
908.63533172636653
 40
12.5
 41
0.8
 50
0
  1
１
  0
TEXT
  8
_0-7_枠細線
 62
    5
 10
1179.9999999999998
 20
910
 40
12.5
 41
0.7199999999999999
 50
0
  1
２０１９．０９．０１
  0
TEXT
  8
_0-7_枠細線
 62
    5
 10
938.85037037037011
 20
910
 40
12.500000000000002
 41
1
 50
0
  1
アンカー材質･厚み変更
  0
LINE
  8
_0-7_枠細線
  6
CONTINUOUS
 62
    5
 10
1139.401817115018
 20
347.90367155267637
 11
1139.401817115018
 21
427.9036715526766
  0
LINE
  8
_0-7_枠細線
  6
CONTINUOUS
 62
    5
 10
1229.401817115018
 20
347.90367155267637
 11
1229.401817115018
 21
427.9036715526766
  0
TEXT
  8
_0-7_枠細線
 62
    5
 10
1251.901817115018
 20
405.4036715526766
 40
15
 41
1
 50
0
  1
蓋重量
  0
LINE
  8
_0-7_枠細線
  6
CONTINUOUS
 62
    5
 10
1319.4018171150183
 20
347.90367155267637
 11
1319.4018171150183
 21
427.9036715526766
  0
TEXT
  8
_0-7_枠細線
 62
    5
 10
1341.9018171150183
 20
405.4036715526766
 40
15
 41
1
 50
0
  1
枠重量
  0
LINE
  8
_0-7_枠細線
  6
CONTINUOUS
 62
    5
 10
1139.401817115018
 20
397.9036715526766
 11
1409.4018171150183
 21
397.9036715526766
  0
LINE
  8
_0-7_枠細線
  6
CONTINUOUS
 62
    5
 10
1139.401817115018
 20
427.9036715526766
 11
1409.4018171150183
 21
427.9036715526766
  0
LINE
  8
_0-7_枠細線
  6
CONTINUOUS
 62
    5
 10
1139.401817115018
 20
347.90367155267637
 11
1409.4018171150183
 21
347.90367155267637
  0
LINE
  8
_0-7_枠細線
  6
CONTINUOUS
 62
    5
 10
1409.4018171150183
 20
347.90367155267637
 11
1409.4018171150183
 21
427.9036715526766
  0
TEXT
  8
_0-7_枠細線
 62
    5
 10
1154.401817115018
 20
405.4036715526766
 40
15
 41
1
 50
0
  1
適用荷重
  0
TEXT
  8
_0-7_枠細線
 62
    5
 10
1334.4018171150183
 20
366.65367155267637
 40
15
 41
0.8000000000000001
 50
0
  1
2.2kg/ｍ組
  0
TEXT
  8
_0-7_枠細線
 62
    5
 10
1161.901817115018
 20
375.4036715526766
 40
15
 41
1
 50
0
  1
歩道用
  0
TEXT
  8
_0-7_枠細線
 62
    5
 10
1139.401817115018
 20
355.40367155267637
 40
15
 41
1
 50
0
  1
（5.0kN/㎡）
  0
TEXT
  8
_0-7_枠細線
 62
    5
 10
1250.4018171150183
 20
366.65367155267637
 40
15
 41
0.8000000000000001
 50
0
  1
6.0kg/枚
  0
LINE
  8
_0-7_枠細線
  6
CONTINUOUS
 62
    5
 10
1409.4018171150183
 20
302.94804865310471
 11
1409.4018171150183
 21
197.9480486531051
  0
TEXT
  8
_0-7_枠細線
 62
    5
 10
1318.4018171150192
 20
282.94804865310471
 40
15.000000000000002
 41
0.8
 50
0
  1
ノンスリップ
  0
TEXT
  8
_0-7_枠細線
 62
    5
 10
1330.4018171150185
 20
257.94804865310476
 40
15.000000000000002
 41
0.8
 50
0
  1
品番－Ｄ
  0
LINE
  8
_0-7_枠細線
  6
CONTINUOUS
 62
    5
 10
1299.4018171150176
 20
302.94804865310471
 11
1299.4018171150176
 21
197.9480486531051
  0
TEXT
  8
_0-7_枠細線
 62
    5
 10
1220.4018171150176
 20
282.94804865310476
 40
15.000000000000002
 41
0.8
 50
0
  1
プレーン
  0
TEXT
  8
_0-7_枠細線
 62
    5
 10
1220.4018171150183
 20
257.94804865310476
 40
15.000000000000002
 41
0.8
 50
0
  1
品番－Ｆ
  0
TEXT
  8
_0-7_枠細線
 62
    5
 10
1140.4018171150178
 20
282.94804865310471
 40
15.000000000000002
 41
0.8
 50
0
  1
タ イ プ
  0
LINE
  8
_0-7_枠細線
  6
CONTINUOUS
 62
    5
 10
1139.4018171150171
 20
252.94804865310479
 11
1409.4018171150183
 21
252.94804865310479
  0
LINE
  8
_0-7_枠細線
  6
CONTINUOUS
 62
    5
 10
1139.4018171150171
 20
277.94804865310471
 11
1409.4018171150183
 21
277.94804865310471
  0
LINE
  8
_0-7_枠細線
  6
CONTINUOUS
 62
    5
 10
1139.4018171150171
 20
302.94804865310471
 11
1409.4018171150183
 21
302.94804865310471
  0
LINE
  8
_0-7_枠細線
  6
CONTINUOUS
 62
    5
 10
1139.4018171150171
 20
197.9480486531051
 11
1409.4018171150183
 21
197.9480486531051
  0
LINE
  8
_0-7_枠細線
  6
CONTINUOUS
 62
    5
 10
1189.401817115018
 20
302.94804865310471
 11
1189.401817115018
 21
197.9480486531051
  0
LINE
  8
_0-7_枠細線
  6
CONTINUOUS
 62
    5
 10
1139.4018171150171
 20
302.94804865310471
 11
1139.4018171150171
 21
197.9480486531051
  0
TEXT
  8
_0-7_枠細線
 62
    5
 10
1140.4018171150178
 20
217.94804865310496
 40
15.000000000000002
 41
0.8
 50
0
  1
表面形状
  0
TEXT
  8
_0-7_枠細線
 62
    5
 10
1147.1760284558284
 20
305.44804865310476
 40
17.500000000000004
 41
0.7999999999999996
 50
0
  1
記号表
  0
TEXT
  8
_0-7_枠細線
 62
    5
 10
1140.4018171150178
 20
257.94804865310488
 40
15.000000000000002
 41
0.8
 50
0
  1
記　　号
  0
ARC
  8
_0-7_枠細線
  6
CONTINUOUS
 62
    5
 10
1282.9664605906701
 20
217.33260557941136
 40
12.026499332130607
 50
317.5616290000047
 51
42.438370999994966
  0
ARC
  8
_0-7_枠細線
  6
CONTINUOUS
 62
    5
 10
1300.7176602555626
 20
233.56349157778851
 40
12.026499332130607
 50
137.56162900000001
 51
222.43837100000309
  0
ARC
  8
_0-7_枠細線
  6
CONTINUOUS
 62
    5
 10
1188.0859738141414
 20
217.33260557941136
 40
12.026499332130607
 50
317.5616290000047
 51
42.438370999994966
  0
ARC
  8
_0-7_枠細線
  6
CONTINUOUS
 62
    5
 10
1205.8371734790339
 20
233.56349157778851
 40
12.026499332130607
 50
137.56162900000001
 51
222.43837100000309
  0
LINE
  8
_0-7_枠細線
  6
CONTINUOUS
 62
    5
 10
1194.4553061852555
 20
237.44804857859975
 11
1289.3357929617841
 21
237.44804857859975
  0
LINE
  8
_0-7_枠細線
  6
CONTINUOUS
 62
    5
 10
1294.3483278844483
 20
213.44804857859972
 11
1199.4678411079199
 21
213.44804857859972
  0
ARC
  8
_0-7_枠細線
  6
CONTINUOUS
 62
    5
 10
1392.9664605906705
 20
217.33260557941136
 40
12.026499332130607
 50
317.5616290000047
 51
42.438370999994966
  0
ARC
  8
_0-7_枠細線
  6
CONTINUOUS
 62
    5
 10
1410.7176602555633
 20
233.56349157778851
 40
12.026499332130607
 50
137.56162900000001
 51
222.43837100000309
  0
ARC
  8
_0-7_枠細線
  6
CONTINUOUS
 62
    5
 10
1298.0859738141419
 20
217.33260557941136
 40
12.026499332130607
 50
317.5616290000047
 51
42.438370999994966
  0
ARC
  8
_0-7_枠細線
  6
CONTINUOUS
 62
    5
 10
1315.8371734790344
 20
233.56349157778851
 40
12.026499332130607
 50
137.56162900000001
 51
222.43837100000309
  0
LINE
  8
_0-7_枠細線
  6
CONTINUOUS
 62
    5
 10
1304.4553061852559
 20
237.44804857859975
 11
1399.3357929617844
 21
237.44804857859975
  0
LINE
  8
_0-7_枠細線
  6
CONTINUOUS
 62
    5
 10
1404.3483278844487
 20
213.44804857859972
 11
1309.4678411079203
 21
213.44804857859972
  0
LINE
  8
_0-7_枠細線
  6
CONTINUOUS
 62
    5
 10
1310.0055655050664
 20
218.93261186295459
 11
1315.4901287894211
 21
213.44804857859992
  0
LINE
  8
_0-7_枠細線
  6
CONTINUOUS
 62
    5
 10
1304.3960893257236
 20
237.27001010365547
 11
1328.218050850779
 21
213.44804857859987
  0
LINE
  8
_0-7_枠細線
  6
CONTINUOUS
 62
    5
 10
1316.9459729121368
 20
237.4480485785999
 11
1340.9459729121365
 21
213.44804857859984
  0
LINE
  8
_0-7_枠細線
  6
CONTINUOUS
 62
    5
 10
1329.6738949734945
 20
237.4480485785999
 11
1353.6738949734943
 21
213.44804857859984
  0
LINE
  8
_0-7_枠細線
  6
CONTINUOUS
 62
    5
 10
1342.4018170348522
 20
237.4480485785999
 11
1366.4018170348522
 21
213.44804857859984
  0
LINE
  8
_0-7_枠細線
  6
CONTINUOUS
 62
    5
 10
1355.12973909621
 20
237.44804857859975
 11
1379.1297390962097
 21
213.44804857859981
  0
LINE
  8
_0-7_枠細線
  6
CONTINUOUS
 62
    5
 10
1367.8576611575679
 20
237.44804857859975
 11
1391.8576611575677
 21
213.44804857859981
  0
LINE
  8
_0-7_枠細線
  6
CONTINUOUS
 62
    5
 10
1380.5855832189259
 20
237.44804857859975
 11
1404.4075447439811
 21
213.62608705354387
  0
LINE
  8
_0-7_枠細線
  6
CONTINUOUS
 62
    5
 10
1393.3135052802834
 20
237.44804857859975
 11
1398.7980685646385
 21
231.96348529424444
  0
LINE
  8
_0-7_枠細線
  6
CONTINUOUS
 62
    5
 10
1393.3135052802841
 20
213.44804857859981
 11
1403.3188705607758
 21
223.45341385909171
  0
LINE
  8
_0-7_枠細線
  6
CONTINUOUS
 62
    5
 10
1380.5855832189261
 20
213.44804857859981
 11
1398.8365633238177
 21
231.69902868349146
  0
LINE
  8
_0-7_枠細線
  6
CONTINUOUS
 62
    5
 10
1367.8576611575681
 20
213.44804857859984
 11
1391.8576611575681
 21
237.44804857859975
  0
LINE
  8
_0-7_枠細線
  6
CONTINUOUS
 62
    5
 10
1355.1297390962104
 20
213.44804857859984
 11
1379.1297390962106
 21
237.44804857859975
  0
LINE
  8
_0-7_枠細線
  6
CONTINUOUS
 62
    5
 10
1342.4018170348527
 20
213.44804857859984
 11
1366.4018170348525
 21
237.44804857859975
  0
LINE
  8
_0-7_枠細線
  6
CONTINUOUS
 62
    5
 10
1329.6738949734947
 20
213.44804857859987
 11
1353.6738949734947
 21
237.44804857859975
  0
LINE
  8
_0-7_枠細線
  6
CONTINUOUS
 62
    5
 10
1316.9459729121372
 20
213.44804857859992
 11
1340.9459729121372
 21
237.4480485785999
  0
LINE
  8
_0-7_枠細線
  6
CONTINUOUS
 62
    5
 10
1309.9670707458872
 20
219.19706847370804
 11
1328.218050850779
 21
237.4480485785999
  0
LINE
  8
_0-7_枠細線
  6
CONTINUOUS
 62
    5
 10
1305.4847635089295
 20
227.44268329810794
 11
1315.4901287894213
 21
237.4480485785999
  0
LINE
  8
_0-7_枠細線
  6
CONTINUOUS
 62
    5
 10
889.99999999999989
 20
907.5
 11
889.99999999999989
 21
959.99999999999909
  0
LINE
  8
_0-7_枠細線
  6
CONTINUOUS
 62
    5
 10
924.99999999999989
 20
907.5
 11
924.99999999999989
 21
959.99999999999943
  0
LINE
  8
_0-7_枠細線
  6
CONTINUOUS
 62
    5
 10
1174.9999999999998
 20
907.50000000000023
 11
1174.9999999999998
 21
959.99999999999943
  0
LINE
  8
_0-7_枠細線
  6
CONTINUOUS
 62
    5
 10
1274.9999999999998
 20
907.50000000000023
 11
1274.9999999999998
 21
959.99999999999943
  0
LINE
  8
_0-0_計極細
  6
CONTINUOUS
 62
    2
 10
1210.9337498412515
 20
660.71732635213493
 11
1204.9337498412515
 21
660.71732635213493
  0
LINE
  8
_0-0_計極細
  6
CONTINUOUS
 62
    2
 10
1210.9337498412515
 20
655.71732635213493
 11
1204.9337498412515
 21
655.71732635213493
  0
LINE
  8
_0-0_計極細
  6
CONTINUOUS
 62
    2
 10
1196.9337498412515
 20
660.71732635213493
 11
1190.9337498412515
 21
660.71732635213493
  0
LINE
  8
_0-0_計極細
  6
CONTINUOUS
 62
    2
 10
1196.9337498412515
 20
655.71732635213493
 11
1190.9337498412515
 21
655.71732635213493
  0
LINE
  8
_0-0_計極細
  6
CONTINUOUS
 62
    2
 10
1182.9337498412515
 20
660.71732635213493
 11
1176.9337498412515
 21
660.71732635213493
  0
LINE
  8
_0-0_計極細
  6
CONTINUOUS
 62
    2
 10
1182.9337498412515
 20
655.71732635213493
 11
1176.9337498412515
 21
655.71732635213493
  0
LINE
  8
_0-0_計極細
  6
CONTINUOUS
 62
    2
 10
1168.9337498412515
 20
660.71732635213493
 11
1162.9337498412515
 21
660.71732635213493
  0
LINE
  8
_0-0_計極細
  6
CONTINUOUS
 62
    2
 10
1168.9337498412515
 20
655.71732635213493
 11
1162.9337498412515
 21
655.71732635213493
  0
LINE
  8
_0-0_計極細
  6
CONTINUOUS
 62
    2
 10
1154.9337498412515
 20
660.71732635213493
 11
1148.9337498412515
 21
660.71732635213493
  0
LINE
  8
_0-0_計極細
  6
CONTINUOUS
 62
    2
 10
1154.9337498412515
 20
655.71732635213493
 11
1148.9337498412515
 21
655.71732635213493
  0
LINE
  8
_0-0_計極細
  6
CONTINUOUS
 62
    2
 10
1140.9337498412515
 20
660.71732635213493
 11
1134.9337498412515
 21
660.71732635213493
  0
LINE
  8
_0-0_計極細
  6
CONTINUOUS
 62
    2
 10
1140.9337498412515
 20
655.71732635213493
 11
1134.9337498412515
 21
655.71732635213493
  0
LINE
  8
_0-0_計極細
  6
CONTINUOUS
 62
    2
 10
1126.9337498412515
 20
660.71732635213493
 11
1120.9337498412524
 21
660.71732635213493
  0
LINE
  8
_0-0_計極細
  6
CONTINUOUS
 62
    2
 10
1126.9337498412515
 20
655.71732635213493
 11
1120.9337498412524
 21
655.71732635213493
  0
LINE
  8
_0-0_計極細
  6
CONTINUOUS
 62
    2
 10
1112.9337498412524
 20
660.71732635213493
 11
1106.9337498412524
 21
660.71732635213493
  0
LINE
  8
_0-0_計極細
  6
CONTINUOUS
 62
    2
 10
1112.9337498412524
 20
655.71732635213493
 11
1106.9337498412524
 21
655.71732635213493
  0
LINE
  8
_0-0_計極細
  6
CONTINUOUS
 62
    2
 10
1098.9337498412524
 20
660.71732635213493
 11
1092.9337498412524
 21
660.71732635213493
  0
LINE
  8
_0-0_計極細
  6
CONTINUOUS
 62
    2
 10
1098.9337498412524
 20
655.71732635213493
 11
1092.9337498412524
 21
655.71732635213493
  0
LINE
  8
_0-0_計極細
  6
CONTINUOUS
 62
    2
 10
1084.9337498412524
 20
660.71732635213493
 11
1078.9337498412524
 21
660.71732635213493
  0
LINE
  8
_0-0_計極細
  6
CONTINUOUS
 62
    2
 10
1084.9337498412524
 20
655.71732635213493
 11
1078.9337498412524
 21
655.71732635213493
  0
LINE
  8
_0-0_計極細
  6
CONTINUOUS
 62
    2
 10
1070.9337498412524
 20
660.71732635213493
 11
1064.9337498412524
 21
660.71732635213493
  0
LINE
  8
_0-0_計極細
  6
CONTINUOUS
 62
    2
 10
1070.9337498412524
 20
655.71732635213493
 11
1064.9337498412524
 21
655.71732635213493
  0
LINE
  8
_0-0_計極細
  6
CONTINUOUS
 62
    2
 10
1056.9337498412524
 20
660.71732635213493
 11
1050.9337498412524
 21
660.71732635213493
  0
LINE
  8
_0-0_計極細
  6
CONTINUOUS
 62
    2
 10
1056.9337498412524
 20
655.71732635213493
 11
1050.9337498412524
 21
655.71732635213493
  0
LINE
  8
_0-0_計極細
  6
CONTINUOUS
 62
    2
 10
1042.9337498412524
 20
660.71732635213493
 11
1036.9337498412524
 21
660.71732635213493
  0
LINE
  8
_0-0_計極細
  6
CONTINUOUS
 62
    2
 10
1042.9337498412524
 20
655.71732635213493
 11
1036.9337498412524
 21
655.71732635213493
  0
LINE
  8
_0-0_計極細
  6
CONTINUOUS
 62
    2
 10
1028.9337498412524
 20
660.71732635213493
 11
1022.9337498412525
 21
660.71732635213493
  0
LINE
  8
_0-0_計極細
  6
CONTINUOUS
 62
    2
 10
1028.9337498412524
 20
655.71732635213493
 11
1022.9337498412525
 21
655.71732635213493
  0
LINE
  8
_0-0_計極細
  6
CONTINUOUS
 62
    2
 10
1014.9337498412525
 20
660.71732635213493
 11
1008.9337498412526
 21
660.71732635213493
  0
LINE
  8
_0-0_計極細
  6
CONTINUOUS
 62
    2
 10
1014.9337498412525
 20
655.71732635213493
 11
1008.9337498412526
 21
655.71732635213493
  0
LINE
  8
_0-0_計極細
  6
CONTINUOUS
 62
    2
 10
1000.9337498412526
 20
660.71732635213493
 11
994.93374984125251
 21
660.71732635213493
  0
LINE
  8
_0-0_計極細
  6
CONTINUOUS
 62
    2
 10
1000.9337498412526
 20
655.71732635213493
 11
994.93374984125251
 21
655.71732635213493
  0
LINE
  8
_0-0_計極細
  6
CONTINUOUS
 62
    2
 10
986.93374984125262
 20
660.71732635213493
 11
980.93374984125262
 21
660.71732635213493
  0
LINE
  8
_0-0_計極細
  6
CONTINUOUS
 62
    2
 10
986.93374984125262
 20
655.71732635213493
 11
980.93374984125262
 21
655.71732635213493
  0
LINE
  8
_0-0_計極細
  6
CONTINUOUS
 62
    2
 10
972.93374984125251
 20
660.71732635213493
 11
966.93374984125262
 21
660.71732635213493
  0
LINE
  8
_0-0_計極細
  6
CONTINUOUS
 62
    2
 10
972.93374984125251
 20
655.71732635213493
 11
966.93374984125262
 21
655.71732635213493
  0
LINE
  8
_0-0_計極細
  6
CONTINUOUS
 62
    2
 10
958.93374984125262
 20
660.71732635213493
 11
952.93374984125251
 21
660.71732635213493
  0
LINE
  8
_0-0_計極細
  6
CONTINUOUS
 62
    2
 10
958.93374984125262
 20
655.71732635213493
 11
952.93374984125251
 21
655.71732635213493
  0
LINE
  8
_0-0_計極細
  6
CONTINUOUS
 62
    2
 10
944.93374984125251
 20
660.71732635213493
 11
938.93374984125262
 21
660.71732635213493
  0
LINE
  8
_0-0_計極細
  6
CONTINUOUS
 62
    2
 10
944.93374984125251
 20
655.71732635213493
 11
938.93374984125262
 21
655.71732635213493
  0
LINE
  8
_0-0_計極細
  6
CONTINUOUS
 62
    2
 10
930.93374984125262
 20
660.71732635213493
 11
924.93374984125251
 21
660.71732635213493
  0
LINE
  8
_0-0_計極細
  6
CONTINUOUS
 62
    2
 10
930.93374984125262
 20
655.71732635213493
 11
924.93374984125251
 21
655.71732635213493
  0
LINE
  8
_0-0_計極細
  6
CONTINUOUS
 62
    2
 10
916.93374984125262
 20
660.71732635213493
 11
910.93374984125262
 21
660.71732635213493
  0
LINE
  8
_0-0_計極細
  6
CONTINUOUS
 62
    2
 10
916.93374984125262
 20
655.71732635213493
 11
910.93374984125262
 21
655.71732635213493
  0
LINE
  8
_0-0_計極細
  6
CONTINUOUS
 62
    2
 10
902.93374984125251
 20
660.71732635213493
 11
896.93374984125262
 21
660.71732635213493
  0
LINE
  8
_0-0_計極細
  6
CONTINUOUS
 62
    2
 10
902.93374984125251
 20
655.71732635213493
 11
896.93374984125262
 21
655.71732635213493
  0
LINE
  8
_0-0_計極細
  6
CONTINUOUS
 62
    2
 10
888.93374984125262
 20
660.71732635213493
 11
882.93374984125251
 21
660.71732635213493
  0
LINE
  8
_0-0_計極細
  6
CONTINUOUS
 62
    2
 10
888.93374984125262
 20
655.71732635213493
 11
882.93374984125251
 21
655.71732635213493
  0
LINE
  8
_0-0_計極細
  6
CONTINUOUS
 62
    2
 10
874.93374984125251
 20
660.71732635213493
 11
868.93374984125262
 21
660.71732635213493
  0
LINE
  8
_0-0_計極細
  6
CONTINUOUS
 62
    2
 10
874.93374984125251
 20
655.71732635213493
 11
868.93374984125262
 21
655.71732635213493
  0
LINE
  8
_0-0_計極細
  6
CONTINUOUS
 62
    2
 10
860.93374984125262
 20
660.71732635213493
 11
854.93374984125251
 21
660.71732635213493
  0
LINE
  8
_0-0_計極細
  6
CONTINUOUS
 62
    2
 10
860.93374984125262
 20
655.71732635213493
 11
854.93374984125251
 21
655.71732635213493
  0
LINE
  8
_0-0_計極細
  6
CONTINUOUS
 62
    2
 10
846.93374984125262
 20
660.71732635213493
 11
840.93374984125262
 21
660.71732635213493
  0
LINE
  8
_0-0_計極細
  6
CONTINUOUS
 62
    2
 10
846.93374984125262
 20
655.71732635213493
 11
840.93374984125262
 21
655.71732635213493
  0
LINE
  8
_0-0_計極細
  6
CONTINUOUS
 62
    2
 10
832.93374984125251
 20
660.71732635213493
 11
826.93374984125262
 21
660.71732635213493
  0
LINE
  8
_0-0_計極細
  6
CONTINUOUS
 62
    2
 10
832.93374984125251
 20
655.71732635213493
 11
826.93374984125262
 21
655.71732635213493
  0
LINE
  8
_0-0_計極細
  6
CONTINUOUS
 62
    2
 10
818.93374984125262
 20
660.71732635213493
 11
812.93374984125251
 21
660.71732635213493
  0
LINE
  8
_0-0_計極細
  6
CONTINUOUS
 62
    2
 10
818.93374984125262
 20
655.71732635213493
 11
812.93374984125251
 21
655.71732635213493
  0
LINE
  8
_0-0_計極細
  6
CONTINUOUS
 62
    2
 10
804.93374984125251
 20
660.71732635213493
 11
798.93374984125262
 21
660.71732635213493
  0
LINE
  8
_0-0_計極細
  6
CONTINUOUS
 62
    2
 10
804.93374984125251
 20
655.71732635213493
 11
798.93374984125262
 21
655.71732635213493
  0
LINE
  8
_0-0_計極細
  6
CONTINUOUS
 62
    2
 10
790.93374984125262
 20
660.71732635213493
 11
784.93374984125251
 21
660.71732635213493
  0
LINE
  8
_0-0_計極細
  6
CONTINUOUS
 62
    2
 10
790.93374984125262
 20
655.71732635213493
 11
784.93374984125251
 21
655.71732635213493
  0
LINE
  8
_0-0_計極細
  6
CONTINUOUS
 62
    2
 10
776.93374984125262
 20
660.71732635213493
 11
770.93374984125262
 21
660.71732635213493
  0
LINE
  8
_0-0_計極細
  6
CONTINUOUS
 62
    2
 10
776.93374984125262
 20
655.71732635213493
 11
770.93374984125262
 21
655.71732635213493
  0
LINE
  8
_0-0_計極細
  6
CONTINUOUS
 62
    2
 10
762.93374984125251
 20
660.71732635213493
 11
756.93374984125262
 21
660.71732635213493
  0
LINE
  8
_0-0_計極細
  6
CONTINUOUS
 62
    2
 10
762.93374984125251
 20
655.71732635213493
 11
756.93374984125262
 21
655.71732635213493
  0
LINE
  8
_0-0_計極細
  6
CONTINUOUS
 62
    2
 10
748.93374984125262
 20
660.71732635213493
 11
742.93374984125251
 21
660.71732635213493
  0
LINE
  8
_0-0_計極細
  6
CONTINUOUS
 62
    2
 10
748.93374984125262
 20
655.71732635213493
 11
742.93374984125251
 21
655.71732635213493
  0
LINE
  8
_0-0_計極細
  6
CONTINUOUS
 62
    2
 10
734.93374984125251
 20
660.71732635213493
 11
728.93374984125262
 21
660.71732635213493
  0
LINE
  8
_0-0_計極細
  6
CONTINUOUS
 62
    2
 10
734.93374984125251
 20
655.71732635213493
 11
728.93374984125262
 21
655.71732635213493
  0
LINE
  8
_0-0_計極細
  6
CONTINUOUS
 62
    2
 10
720.93374984125251
 20
660.71732635213493
 11
714.93374984125251
 21
660.71732635213493
  0
LINE
  8
_0-0_計極細
  6
CONTINUOUS
 62
    2
 10
720.93374984125251
 20
655.71732635213493
 11
714.93374984125251
 21
655.71732635213493
  0
LINE
  8
_0-0_計極細
  6
CONTINUOUS
 62
    2
 10
706.93374984125262
 20
660.71732635213493
 11
700.93374984125251
 21
660.71732635213493
  0
LINE
  8
_0-0_計極細
  6
CONTINUOUS
 62
    2
 10
706.93374984125262
 20
655.71732635213493
 11
700.93374984125251
 21
655.71732635213493
  0
LINE
  8
_0-0_計極細
  6
CONTINUOUS
 62
    2
 10
692.93374984125251
 20
660.71732635213493
 11
686.93374984125262
 21
660.71732635213493
  0
LINE
  8
_0-0_計極細
  6
CONTINUOUS
 62
    2
 10
692.93374984125251
 20
655.71732635213493
 11
686.93374984125262
 21
655.71732635213493
  0
LINE
  8
_0-0_計極細
  6
CONTINUOUS
 62
    2
 10
678.93374984125262
 20
660.71732635213493
 11
672.93374984125251
 21
660.71732635213493
  0
LINE
  8
_0-0_計極細
  6
CONTINUOUS
 62
    2
 10
678.93374984125262
 20
655.71732635213493
 11
672.93374984125251
 21
655.71732635213493
  0
LINE
  8
_0-0_計極細
  6
CONTINUOUS
 62
    2
 10
664.93374984125251
 20
660.71732635213493
 11
658.93374984125262
 21
660.71732635213493
  0
LINE
  8
_0-0_計極細
  6
CONTINUOUS
 62
    2
 10
664.93374984125251
 20
655.71732635213493
 11
658.93374984125262
 21
655.71732635213493
  0
LINE
  8
_0-0_計極細
  6
CONTINUOUS
 62
    2
 10
650.93374984125251
 20
660.71732635213493
 11
644.93374984125251
 21
660.71732635213493
  0
LINE
  8
_0-0_計極細
  6
CONTINUOUS
 62
    2
 10
650.93374984125251
 20
655.71732635213493
 11
644.93374984125251
 21
655.71732635213493
  0
LINE
  8
_0-0_計極細
  6
CONTINUOUS
 62
    2
 10
636.93374984125262
 20
660.71732635213493
 11
630.93374984125251
 21
660.71732635213493
  0
LINE
  8
_0-0_計極細
  6
CONTINUOUS
 62
    2
 10
636.93374984125262
 20
655.71732635213493
 11
630.93374984125251
 21
655.71732635213493
  0
LINE
  8
_0-0_計極細
  6
CONTINUOUS
 62
    2
 10
622.93374984125251
 20
660.71732635213493
 11
616.93374984125262
 21
660.71732635213493
  0
LINE
  8
_0-0_計極細
  6
CONTINUOUS
 62
    2
 10
622.93374984125251
 20
655.71732635213493
 11
616.93374984125262
 21
655.71732635213493
  0
LINE
  8
_0-0_計極細
  6
CONTINUOUS
 62
    2
 10
608.93374984125251
 20
660.71732635213493
 11
602.93374984125251
 21
660.71732635213493
  0
LINE
  8
_0-0_計極細
  6
CONTINUOUS
 62
    2
 10
608.93374984125251
 20
655.71732635213493
 11
602.93374984125251
 21
655.71732635213493
  0
LINE
  8
_0-0_計極細
  6
CONTINUOUS
 62
    2
 10
594.93374984125251
 20
660.71732635213493
 11
588.93374984125251
 21
660.71732635213493
  0
LINE
  8
_0-0_計極細
  6
CONTINUOUS
 62
    2
 10
594.93374984125251
 20
655.71732635213493
 11
588.93374984125251
 21
655.71732635213493
  0
LINE
  8
_0-0_計極細
  6
CONTINUOUS
 62
    2
 10
580.93374984125251
 20
660.71732635213493
 11
574.93374984125251
 21
660.71732635213493
  0
LINE
  8
_0-0_計極細
  6
CONTINUOUS
 62
    2
 10
580.93374984125251
 20
655.71732635213493
 11
574.93374984125251
 21
655.71732635213493
  0
LINE
  8
_0-0_計極細
  6
CONTINUOUS
 62
    2
 10
566.93374984125262
 20
660.71732635213493
 11
560.93374984125251
 21
660.71732635213493
  0
LINE
  8
_0-0_計極細
  6
CONTINUOUS
 62
    2
 10
566.93374984125262
 20
655.71732635213493
 11
560.93374984125251
 21
655.71732635213493
  0
LINE
  8
_0-0_計極細
  6
CONTINUOUS
 62
    2
 10
552.93374984125251
 20
660.71732635213493
 11
546.93374984125262
 21
660.71732635213493
  0
LINE
  8
_0-0_計極細
  6
CONTINUOUS
 62
    2
 10
552.93374984125251
 20
655.71732635213493
 11
546.93374984125262
 21
655.71732635213493
  0
LINE
  8
_0-0_計極細
  6
CONTINUOUS
 62
    2
 10
538.93374984125251
 20
660.71732635213493
 11
532.93374984125251
 21
660.71732635213493
  0
LINE
  8
_0-0_計極細
  6
CONTINUOUS
 62
    2
 10
538.93374984125251
 20
655.71732635213493
 11
532.93374984125251
 21
655.71732635213493
  0
LINE
  8
_0-0_計極細
  6
CONTINUOUS
 62
    2
 10
524.93374984125251
 20
660.71732635213493
 11
518.93374984125251
 21
660.71732635213493
  0
LINE
  8
_0-0_計極細
  6
CONTINUOUS
 62
    2
 10
524.93374984125251
 20
655.71732635213493
 11
518.93374984125251
 21
655.71732635213493
  0
LINE
  8
_0-0_計極細
  6
CONTINUOUS
 62
    2
 10
510.93374984125256
 20
660.71732635213493
 11
504.93374984125251
 21
660.71732635213493
  0
LINE
  8
_0-0_計極細
  6
CONTINUOUS
 62
    2
 10
510.93374984125256
 20
655.71732635213493
 11
504.93374984125251
 21
655.71732635213493
  0
LINE
  8
_0-0_計極細
  6
CONTINUOUS
 62
    2
 10
496.93374984125256
 20
660.71732635213493
 11
490.93374984125256
 21
660.71732635213493
  0
LINE
  8
_0-0_計極細
  6
CONTINUOUS
 62
    2
 10
496.93374984125256
 20
655.71732635213493
 11
490.93374984125256
 21
655.71732635213493
  0
LINE
  8
_0-0_計極細
  6
CONTINUOUS
 62
    2
 10
482.93374984125251
 20
660.71732635213493
 11
476.93374984125256
 21
660.71732635213493
  0
LINE
  8
_0-0_計極細
  6
CONTINUOUS
 62
    2
 10
482.93374984125251
 20
655.71732635213493
 11
476.93374984125256
 21
655.71732635213493
  0
LINE
  8
_0-0_計極細
  6
CONTINUOUS
 62
    2
 10
468.93374984125251
 20
660.71732635213493
 11
462.93374984125251
 21
660.71732635213493
  0
LINE
  8
_0-0_計極細
  6
CONTINUOUS
 62
    2
 10
468.93374984125251
 20
655.71732635213493
 11
462.93374984125251
 21
655.71732635213493
  0
LINE
  8
_0-0_計極細
  6
CONTINUOUS
 62
    2
 10
454.93374984125251
 20
660.71732635213493
 11
448.93374984125251
 21
660.71732635213493
  0
LINE
  8
_0-0_計極細
  6
CONTINUOUS
 62
    2
 10
454.93374984125251
 20
655.71732635213493
 11
448.93374984125251
 21
655.71732635213493
  0
LINE
  8
_0-0_計極細
  6
CONTINUOUS
 62
    2
 10
440.93374984125256
 20
660.71732635213493
 11
434.93374984125251
 21
660.71732635213493
  0
LINE
  8
_0-0_計極細
  6
CONTINUOUS
 62
    2
 10
440.93374984125256
 20
655.71732635213493
 11
434.93374984125251
 21
655.71732635213493
  0
LINE
  8
_0-0_計極細
  6
CONTINUOUS
 62
    2
 10
426.93374984125256
 20
660.71732635213493
 11
420.93374984125234
 21
660.71732635213493
  0
LINE
  8
_0-0_計極細
  6
CONTINUOUS
 62
    2
 10
426.93374984125256
 20
655.71732635213493
 11
420.93374984125234
 21
655.71732635213493
  0
LINE
  8
_0-0_計極細
  6
CONTINUOUS
 62
    2
 10
412.93374984125228
 20
660.71732635213493
 11
406.93374984125228
 21
660.71732635213493
  0
LINE
  8
_0-0_計極細
  6
CONTINUOUS
 62
    2
 10
412.93374984125228
 20
655.71732635213493
 11
406.93374984125228
 21
655.71732635213493
  0
LINE
  8
_0-0_計極細
  6
CONTINUOUS
 62
    2
 10
398.93374984125217
 20
660.71732635213493
 11
392.93374984125222
 21
660.71732635213493
  0
LINE
  8
_0-0_計極細
  6
CONTINUOUS
 62
    2
 10
398.93374984125217
 20
655.71732635213493
 11
392.93374984125222
 21
655.71732635213493
  0
LINE
  8
_0-0_計極細
  6
CONTINUOUS
 62
    2
 10
384.93374984125217
 20
660.71732635213493
 11
378.93374984125217
 21
660.71732635213493
  0
LINE
  8
_0-0_計極細
  6
CONTINUOUS
 62
    2
 10
384.93374984125217
 20
655.71732635213493
 11
378.93374984125217
 21
655.71732635213493
  0
LINE
  8
_0-0_計極細
  6
CONTINUOUS
 62
    2
 10
370.93374984125217
 20
660.71732635213493
 11
364.93374984125217
 21
660.71732635213493
  0
LINE
  8
_0-0_計極細
  6
CONTINUOUS
 62
    2
 10
370.93374984125217
 20
655.71732635213493
 11
364.93374984125217
 21
655.71732635213493
  0
LINE
  8
_0-0_計極細
  6
CONTINUOUS
 62
    2
 10
356.93374984125222
 20
660.71732635213493
 11
350.93374984125217
 21
660.71732635213493
  0
LINE
  8
_0-0_計極細
  6
CONTINUOUS
 62
    2
 10
356.93374984125222
 20
655.71732635213493
 11
350.93374984125217
 21
655.71732635213493
  0
LINE
  8
_0-0_計極細
  6
CONTINUOUS
 62
    2
 10
342.93374984125217
 20
660.71732635213493
 11
336.93374984125222
 21
660.71732635213493
  0
LINE
  8
_0-0_計極細
  6
CONTINUOUS
 62
    2
 10
342.93374984125217
 20
655.71732635213493
 11
336.93374984125222
 21
655.71732635213493
  0
LINE
  8
_0-0_計極細
  6
CONTINUOUS
 62
    2
 10
328.93374984125217
 20
660.71732635213493
 11
322.93374984125217
 21
660.71732635213493
  0
LINE
  8
_0-0_計極細
  6
CONTINUOUS
 62
    2
 10
328.93374984125217
 20
655.71732635213493
 11
322.93374984125217
 21
655.71732635213493
  0
LINE
  8
_0-0_計極細
  6
CONTINUOUS
 62
    2
 10
314.93374984125217
 20
660.71732635213493
 11
308.93374984125217
 21
660.71732635213493
  0
LINE
  8
_0-0_計極細
  6
CONTINUOUS
 62
    2
 10
314.93374984125217
 20
655.71732635213493
 11
308.93374984125217
 21
655.71732635213493
  0
LINE
  8
_0-0_計極細
  6
CONTINUOUS
 62
    2
 10
300.93374984125217
 20
660.71732635213493
 11
294.93374984125217
 21
660.71732635213493
  0
LINE
  8
_0-0_計極細
  6
CONTINUOUS
 62
    2
 10
300.93374984125217
 20
655.71732635213493
 11
294.93374984125217
 21
655.71732635213493
  0
LINE
  8
_0-0_計極細
  6
CONTINUOUS
 62
    2
 10
286.93374984125217
 20
660.71732635213493
 11
280.93374984125217
 21
660.71732635213493
  0
LINE
  8
_0-0_計極細
  6
CONTINUOUS
 62
    2
 10
286.93374984125217
 20
655.71732635213493
 11
280.93374984125217
 21
655.71732635213493
  0
LINE
  8
_0-0_計極細
  6
CONTINUOUS
 62
    2
 10
272.93374984125222
 20
660.71732635213493
 11
266.93374984125217
 21
660.71732635213493
  0
LINE
  8
_0-0_計極細
  6
CONTINUOUS
 62
    2
 10
272.93374984125222
 20
655.71732635213493
 11
266.93374984125217
 21
655.71732635213493
  0
LINE
  8
_0-0_計極細
  6
CONTINUOUS
 62
    2
 10
258.93374984125217
 20
660.71732635213493
 11
252.93374984125222
 21
660.71732635213493
  0
LINE
  8
_0-0_計極細
  6
CONTINUOUS
 62
    2
 10
258.93374984125217
 20
655.71732635213493
 11
252.93374984125222
 21
655.71732635213493
  0
LINE
  8
_0-0_計極細
  6
CONTINUOUS
 62
    2
 10
244.93374984125217
 20
660.71732635213493
 11
238.93374984125217
 21
660.71732635213493
  0
LINE
  8
_0-0_計極細
  6
CONTINUOUS
 62
    2
 10
244.93374984125217
 20
655.71732635213493
 11
238.93374984125217
 21
655.71732635213493
  0
LINE
  8
_0-1_計細線
  6
CONTINUOUS
 62
    3
 10
230.93374984125219
 20
808.21732635213402
 11
200.93374984125219
 21
808.21732635213402
  0
LINE
  8
_0-1_計細線
  6
CONTINUOUS
 62
    3
 10
1248.9337498412515
 20
808.21732635213323
 11
1218.9337498412515
 21
808.21732635213323
  0
LINE
  8
_0-1_計細線
  6
CONTINUOUS
 62
    3
 10
199.54663271749425
 20
835.21732635213641
 11
1247.5466327174936
 21
835.21732635213539
  0
LINE
  8
_0-1_計細線
  6
CONTINUOUS
 62
    3
 10
200.93374984125219
 20
838.2173263521363
 11
1248.9337498412515
 21
838.2173263521355
  0
ARC
  8
_0-1_計細線
  6
CONTINUOUS
 62
    3
 10
188.65075459112333
 20
815.71732635213448
 40
14.391732776656191
 50
328.59175045525751
 51
31.40824954474429
  0
ARC
  8
_0-1_計細線
  6
CONTINUOUS
 62
    3
 10
213.21674509137964
 20
830.71732635213493
 40
14.391732776655743
 50
148.59175045525689
 51
211.40824954473871
  0
ARC
  8
_0-1_計細線
  6
CONTINUOUS
 62
    3
 10
1236.6507545911236
 20
815.71732635213448
 40
14.391732776656227
 50
328.59175045525808
 51
31.40824954474434
  0
ARC
  8
_0-1_計細線
  6
CONTINUOUS
 62
    3
 10
1261.2167450913794
 20
830.7173263521355
 40
14.391732776655658
 50
148.59175045525842
 51
211.40824954474121
  0
LINE
  8
_0-1_計細線
  6
CONTINUOUS
 62
    3
 10
230.93374984125219
 20
830.21732635213539
 11
238.93374984125217
 21
830.21732635213539
  0
LINE
  8
_0-1_計細線
  6
CONTINUOUS
 62
    3
 10
244.93374984125217
 20
830.21732635213539
 11
252.93374984125222
 21
830.21732635213539
  0
LINE
  8
_0-1_計細線
  6
CONTINUOUS
 62
    3
 10
258.93374984125217
 20
830.21732635213539
 11
266.93374984125217
 21
830.21732635213539
  0
LINE
  8
_0-1_計細線
  6
CONTINUOUS
 62
    3
 10
272.93374984125222
 20
830.21732635213539
 11
280.93374984125217
 21
830.21732635213539
  0
LINE
  8
_0-1_計細線
  6
CONTINUOUS
 62
    3
 10
286.93374984125217
 20
830.21732635213539
 11
294.93374984125217
 21
830.21732635213539
  0
LINE
  8
_0-1_計細線
  6
CONTINUOUS
 62
    3
 10
300.93374984125217
 20
830.21732635213539
 11
308.93374984125217
 21
830.21732635213539
  0
LINE
  8
_0-1_計細線
  6
CONTINUOUS
 62
    3
 10
314.93374984125217
 20
830.21732635213539
 11
322.93374984125217
 21
830.21732635213539
  0
LINE
  8
_0-1_計細線
  6
CONTINUOUS
 62
    3
 10
328.93374984125217
 20
830.21732635213539
 11
336.93374984125222
 21
830.21732635213539
  0
LINE
  8
_0-1_計細線
  6
CONTINUOUS
 62
    3
 10
342.93374984125217
 20
830.21732635213539
 11
350.93374984125217
 21
830.21732635213539
  0
LINE
  8
_0-1_計細線
  6
CONTINUOUS
 62
    3
 10
356.93374984125222
 20
830.21732635213539
 11
364.93374984125217
 21
830.21732635213539
  0
LINE
  8
_0-1_計細線
  6
CONTINUOUS
 62
    3
 10
370.93374984125217
 20
830.21732635213539
 11
378.93374984125217
 21
830.21732635213539
  0
LINE
  8
_0-1_計細線
  6
CONTINUOUS
 62
    3
 10
384.93374984125217
 20
830.21732635213539
 11
392.93374984125222
 21
830.21732635213539
  0
LINE
  8
_0-1_計細線
  6
CONTINUOUS
 62
    3
 10
398.93374984125217
 20
830.21732635213539
 11
406.93374984125228
 21
830.21732635213539
  0
LINE
  8
_0-1_計細線
  6
CONTINUOUS
 62
    3
 10
412.93374984125228
 20
830.21732635213539
 11
420.93374984125234
 21
830.21732635213539
  0
LINE
  8
_0-1_計細線
  6
CONTINUOUS
 62
    3
 10
426.93374984125256
 20
830.21732635213539
 11
434.93374984125251
 21
830.21732635213539
  0
LINE
  8
_0-1_計細線
  6
CONTINUOUS
 62
    3
 10
440.93374984125256
 20
830.21732635213539
 11
448.93374984125251
 21
830.21732635213539
  0
LINE
  8
_0-1_計細線
  6
CONTINUOUS
 62
    3
 10
454.93374984125251
 20
830.21732635213539
 11
462.93374984125251
 21
830.21732635213539
  0
LINE
  8
_0-1_計細線
  6
CONTINUOUS
 62
    3
 10
468.93374984125251
 20
830.21732635213539
 11
476.93374984125256
 21
830.21732635213539
  0
LINE
  8
_0-1_計細線
  6
CONTINUOUS
 62
    3
 10
482.93374984125251
 20
830.21732635213539
 11
490.93374984125256
 21
830.21732635213539
  0
LINE
  8
_0-1_計細線
  6
CONTINUOUS
 62
    3
 10
496.93374984125256
 20
830.21732635213539
 11
504.93374984125251
 21
830.21732635213539
  0
LINE
  8
_0-1_計細線
  6
CONTINUOUS
 62
    3
 10
510.93374984125256
 20
830.21732635213539
 11
518.93374984125251
 21
830.21732635213539
  0
LINE
  8
_0-1_計細線
  6
CONTINUOUS
 62
    3
 10
524.93374984125251
 20
830.21732635213539
 11
532.93374984125251
 21
830.21732635213539
  0
LINE
  8
_0-1_計細線
  6
CONTINUOUS
 62
    3
 10
538.93374984125251
 20
830.21732635213539
 11
546.93374984125262
 21
830.21732635213539
  0
LINE
  8
_0-1_計細線
  6
CONTINUOUS
 62
    3
 10
552.93374984125251
 20
830.21732635213539
 11
560.93374984125251
 21
830.21732635213539
  0
LINE
  8
_0-1_計細線
  6
CONTINUOUS
 62
    3
 10
566.93374984125262
 20
830.21732635213539
 11
574.93374984125251
 21
830.21732635213539
  0
LINE
  8
_0-1_計細線
  6
CONTINUOUS
 62
    3
 10
580.93374984125251
 20
830.21732635213539
 11
588.93374984125251
 21
830.21732635213539
  0
LINE
  8
_0-1_計細線
  6
CONTINUOUS
 62
    3
 10
594.93374984125251
 20
830.21732635213539
 11
602.93374984125251
 21
830.21732635213539
  0
LINE
  8
_0-1_計細線
  6
CONTINUOUS
 62
    3
 10
608.93374984125251
 20
830.21732635213539
 11
616.93374984125262
 21
830.21732635213539
  0
LINE
  8
_0-1_計細線
  6
CONTINUOUS
 62
    3
 10
622.93374984125251
 20
830.21732635213539
 11
630.93374984125251
 21
830.21732635213539
  0
LINE
  8
_0-1_計細線
  6
CONTINUOUS
 62
    3
 10
636.93374984125262
 20
830.21732635213539
 11
644.93374984125251
 21
830.21732635213539
  0
LINE
  8
_0-1_計細線
  6
CONTINUOUS
 62
    3
 10
650.93374984125251
 20
830.21732635213539
 11
658.93374984125262
 21
830.21732635213539
  0
LINE
  8
_0-1_計細線
  6
CONTINUOUS
 62
    3
 10
664.93374984125251
 20
830.21732635213539
 11
672.93374984125251
 21
830.21732635213539
  0
LINE
  8
_0-1_計細線
  6
CONTINUOUS
 62
    3
 10
678.93374984125262
 20
830.21732635213539
 11
686.93374984125262
 21
830.21732635213539
  0
LINE
  8
_0-1_計細線
  6
CONTINUOUS
 62
    3
 10
692.93374984125251
 20
830.21732635213539
 11
700.93374984125251
 21
830.21732635213539
  0
LINE
  8
_0-1_計細線
  6
CONTINUOUS
 62
    3
 10
706.93374984125262
 20
830.21732635213539
 11
714.93374984125251
 21
830.21732635213539
  0
LINE
  8
_0-1_計細線
  6
CONTINUOUS
 62
    3
 10
720.93374984125251
 20
830.21732635213539
 11
728.93374984125262
 21
830.21732635213539
  0
LINE
  8
_0-1_計細線
  6
CONTINUOUS
 62
    3
 10
734.93374984125251
 20
830.21732635213539
 11
742.93374984125251
 21
830.21732635213539
  0
LINE
  8
_0-1_計細線
  6
CONTINUOUS
 62
    3
 10
748.93374984125262
 20
830.21732635213539
 11
756.93374984125262
 21
830.21732635213539
  0
LINE
  8
_0-1_計細線
  6
CONTINUOUS
 62
    3
 10
762.93374984125251
 20
830.21732635213539
 11
770.93374984125262
 21
830.21732635213539
  0
LINE
  8
_0-1_計細線
  6
CONTINUOUS
 62
    3
 10
776.93374984125262
 20
830.21732635213539
 11
784.93374984125251
 21
830.21732635213539
  0
LINE
  8
_0-1_計細線
  6
CONTINUOUS
 62
    3
 10
790.93374984125262
 20
830.21732635213539
 11
798.93374984125262
 21
830.21732635213539
  0
LINE
  8
_0-1_計細線
  6
CONTINUOUS
 62
    3
 10
804.93374984125251
 20
830.21732635213539
 11
812.93374984125251
 21
830.21732635213539
  0
LINE
  8
_0-1_計細線
  6
CONTINUOUS
 62
    3
 10
818.93374984125262
 20
830.21732635213539
 11
826.93374984125262
 21
830.21732635213539
  0
LINE
  8
_0-1_計細線
  6
CONTINUOUS
 62
    3
 10
832.93374984125251
 20
830.21732635213539
 11
840.93374984125262
 21
830.21732635213539
  0
LINE
  8
_0-1_計細線
  6
CONTINUOUS
 62
    3
 10
846.93374984125262
 20
830.21732635213539
 11
854.93374984125251
 21
830.21732635213539
  0
LINE
  8
_0-1_計細線
  6
CONTINUOUS
 62
    3
 10
860.93374984125262
 20
830.21732635213539
 11
868.93374984125262
 21
830.21732635213539
  0
LINE
  8
_0-1_計細線
  6
CONTINUOUS
 62
    3
 10
874.93374984125251
 20
830.21732635213539
 11
882.93374984125251
 21
830.21732635213539
  0
LINE
  8
_0-1_計細線
  6
CONTINUOUS
 62
    3
 10
888.93374984125262
 20
830.21732635213539
 11
896.93374984125262
 21
830.21732635213539
  0
LINE
  8
_0-1_計細線
  6
CONTINUOUS
 62
    3
 10
902.93374984125251
 20
830.21732635213539
 11
910.93374984125262
 21
830.21732635213539
  0
LINE
  8
_0-1_計細線
  6
CONTINUOUS
 62
    3
 10
916.93374984125262
 20
830.21732635213539
 11
924.93374984125251
 21
830.21732635213539
  0
LINE
  8
_0-1_計細線
  6
CONTINUOUS
 62
    3
 10
930.93374984125262
 20
830.21732635213539
 11
938.93374984125262
 21
830.21732635213539
  0
LINE
  8
_0-1_計細線
  6
CONTINUOUS
 62
    3
 10
944.93374984125251
 20
830.21732635213539
 11
952.93374984125251
 21
830.21732635213539
  0
LINE
  8
_0-1_計細線
  6
CONTINUOUS
 62
    3
 10
958.93374984125262
 20
830.21732635213539
 11
966.93374984125262
 21
830.21732635213539
  0
LINE
  8
_0-1_計細線
  6
CONTINUOUS
 62
    3
 10
972.93374984125251
 20
830.21732635213539
 11
980.93374984125262
 21
830.21732635213539
  0
LINE
  8
_0-1_計細線
  6
CONTINUOUS
 62
    3
 10
986.93374984125262
 20
830.21732635213539
 11
994.93374984125251
 21
830.21732635213539
  0
LINE
  8
_0-1_計細線
  6
CONTINUOUS
 62
    3
 10
1000.9337498412526
 20
830.21732635213539
 11
1008.9337498412526
 21
830.21732635213539
  0
LINE
  8
_0-1_計細線
  6
CONTINUOUS
 62
    3
 10
1014.9337498412525
 20
830.21732635213539
 11
1022.9337498412525
 21
830.21732635213539
  0
LINE
  8
_0-1_計細線
  6
CONTINUOUS
 62
    3
 10
1028.9337498412524
 20
830.21732635213539
 11
1036.9337498412524
 21
830.21732635213539
  0
LINE
  8
_0-1_計細線
  6
CONTINUOUS
 62
    3
 10
1042.9337498412524
 20
830.21732635213539
 11
1050.9337498412524
 21
830.21732635213539
  0
LINE
  8
_0-1_計細線
  6
CONTINUOUS
 62
    3
 10
1056.9337498412524
 20
830.21732635213539
 11
1064.9337498412524
 21
830.21732635213539
  0
LINE
  8
_0-1_計細線
  6
CONTINUOUS
 62
    3
 10
1070.9337498412524
 20
830.21732635213539
 11
1078.9337498412524
 21
830.21732635213539
  0
LINE
  8
_0-1_計細線
  6
CONTINUOUS
 62
    3
 10
1084.9337498412524
 20
830.21732635213539
 11
1092.9337498412524
 21
830.21732635213539
  0
LINE
  8
_0-1_計細線
  6
CONTINUOUS
 62
    3
 10
1098.9337498412524
 20
830.21732635213539
 11
1106.9337498412524
 21
830.21732635213539
  0
LINE
  8
_0-1_計細線
  6
CONTINUOUS
 62
    3
 10
1112.9337498412524
 20
830.21732635213539
 11
1120.9337498412524
 21
830.21732635213539
  0
LINE
  8
_0-1_計細線
  6
CONTINUOUS
 62
    3
 10
1126.9337498412515
 20
830.21732635213539
 11
1134.9337498412515
 21
830.21732635213539
  0
LINE
  8
_0-1_計細線
  6
CONTINUOUS
 62
    3
 10
1140.9337498412515
 20
830.21732635213539
 11
1148.9337498412515
 21
830.21732635213539
  0
LINE
  8
_0-1_計細線
  6
CONTINUOUS
 62
    3
 10
1154.9337498412515
 20
830.21732635213539
 11
1162.9337498412515
 21
830.21732635213539
  0
LINE
  8
_0-1_計細線
  6
CONTINUOUS
 62
    3
 10
1168.9337498412515
 20
830.21732635213539
 11
1176.9337498412515
 21
830.21732635213539
  0
LINE
  8
_0-1_計細線
  6
CONTINUOUS
 62
    3
 10
1182.9337498412515
 20
830.21732635213539
 11
1190.9337498412515
 21
830.21732635213539
  0
LINE
  8
_0-1_計細線
  6
CONTINUOUS
 62
    3
 10
1196.9337498412515
 20
830.21732635213539
 11
1204.9337498412515
 21
830.21732635213539
  0
LINE
  8
_0-1_計細線
  6
CONTINUOUS
 62
    3
 10
1210.9337498412515
 20
830.21732635213539
 11
1218.9337498412515
 21
830.21732635213539
  0
LINE
  8
_0-1_計細線
  6
CONTINUOUS
 62
    3
 10
1218.9337498412515
 20
830.21732635213539
 11
1218.9337498412515
 21
833.2173263521355
  0
LINE
  8
_0-1_計細線
  6
CONTINUOUS
 62
    3
 10
230.93374984125219
 20
830.21732635213539
 11
1218.9337498412515
 21
830.21732635213539
  0
LINE
  8
_0-1_計細線
  6
CONTINUOUS
 62
    3
 10
230.93374984125219
 20
833.2173263521355
 11
230.93374984125219
 21
830.21732635213539
  0
LINE
  8
_0-1_計細線
  6
CONTINUOUS
 62
    3
 10
1218.9337498412515
 20
833.2173263521355
 11
230.93374984125219
 21
833.2173263521355
  0
LINE
  8
_0-0_計極細
  6
CONTINUOUS
 62
    2
 10
1210.9337498412515
 20
810.7173263521355
 11
1204.9337498412515
 21
810.7173263521355
  0
LINE
  8
_0-0_計極細
  6
CONTINUOUS
 62
    2
 10
1210.9337498412515
 20
805.71732635213402
 11
1204.9337498412515
 21
805.71732635213402
  0
LINE
  8
_0-0_計極細
  6
CONTINUOUS
 62
    2
 10
1196.9337498412515
 20
810.7173263521355
 11
1190.9337498412515
 21
810.7173263521355
  0
LINE
  8
_0-0_計極細
  6
CONTINUOUS
 62
    2
 10
1196.9337498412515
 20
805.71732635213402
 11
1190.9337498412515
 21
805.71732635213402
  0
LINE
  8
_0-0_計極細
  6
CONTINUOUS
 62
    2
 10
1182.9337498412515
 20
810.7173263521355
 11
1176.9337498412515
 21
810.7173263521355
  0
LINE
  8
_0-0_計極細
  6
CONTINUOUS
 62
    2
 10
1182.9337498412515
 20
805.71732635213402
 11
1176.9337498412515
 21
805.71732635213402
  0
LINE
  8
_0-0_計極細
  6
CONTINUOUS
 62
    2
 10
1168.9337498412515
 20
810.7173263521355
 11
1162.9337498412515
 21
810.7173263521355
  0
LINE
  8
_0-0_計極細
  6
CONTINUOUS
 62
    2
 10
1168.9337498412515
 20
805.71732635213402
 11
1162.9337498412515
 21
805.71732635213402
  0
LINE
  8
_0-0_計極細
  6
CONTINUOUS
 62
    2
 10
1154.9337498412515
 20
810.7173263521355
 11
1148.9337498412515
 21
810.7173263521355
  0
LINE
  8
_0-0_計極細
  6
CONTINUOUS
 62
    2
 10
1154.9337498412515
 20
805.71732635213402
 11
1148.9337498412515
 21
805.71732635213402
  0
LINE
  8
_0-0_計極細
  6
CONTINUOUS
 62
    2
 10
1140.9337498412515
 20
810.7173263521355
 11
1134.9337498412515
 21
810.7173263521355
  0
LINE
  8
_0-0_計極細
  6
CONTINUOUS
 62
    2
 10
1140.9337498412515
 20
805.71732635213402
 11
1134.9337498412515
 21
805.71732635213402
  0
LINE
  8
_0-0_計極細
  6
CONTINUOUS
 62
    2
 10
1126.9337498412515
 20
810.7173263521355
 11
1120.9337498412524
 21
810.7173263521355
  0
LINE
  8
_0-0_計極細
  6
CONTINUOUS
 62
    2
 10
1126.9337498412515
 20
805.71732635213402
 11
1120.9337498412524
 21
805.71732635213402
  0
LINE
  8
_0-0_計極細
  6
CONTINUOUS
 62
    2
 10
1112.9337498412524
 20
810.7173263521355
 11
1106.9337498412524
 21
810.7173263521355
  0
LINE
  8
_0-0_計極細
  6
CONTINUOUS
 62
    2
 10
1112.9337498412524
 20
805.71732635213402
 11
1106.9337498412524
 21
805.71732635213402
  0
LINE
  8
_0-0_計極細
  6
CONTINUOUS
 62
    2
 10
1098.9337498412524
 20
810.7173263521355
 11
1092.9337498412524
 21
810.7173263521355
  0
LINE
  8
_0-0_計極細
  6
CONTINUOUS
 62
    2
 10
1098.9337498412524
 20
805.71732635213402
 11
1092.9337498412524
 21
805.71732635213402
  0
LINE
  8
_0-0_計極細
  6
CONTINUOUS
 62
    2
 10
1084.9337498412524
 20
810.7173263521355
 11
1078.9337498412524
 21
810.7173263521355
  0
LINE
  8
_0-0_計極細
  6
CONTINUOUS
 62
    2
 10
1084.9337498412524
 20
805.71732635213402
 11
1078.9337498412524
 21
805.71732635213402
  0
LINE
  8
_0-0_計極細
  6
CONTINUOUS
 62
    2
 10
1070.9337498412524
 20
810.7173263521355
 11
1064.9337498412524
 21
810.7173263521355
  0
LINE
  8
_0-0_計極細
  6
CONTINUOUS
 62
    2
 10
1070.9337498412524
 20
805.71732635213402
 11
1064.9337498412524
 21
805.71732635213402
  0
LINE
  8
_0-0_計極細
  6
CONTINUOUS
 62
    2
 10
1056.9337498412524
 20
810.7173263521355
 11
1050.9337498412524
 21
810.7173263521355
  0
LINE
  8
_0-0_計極細
  6
CONTINUOUS
 62
    2
 10
1056.9337498412524
 20
805.71732635213402
 11
1050.9337498412524
 21
805.71732635213402
  0
LINE
  8
_0-0_計極細
  6
CONTINUOUS
 62
    2
 10
1042.9337498412524
 20
810.7173263521355
 11
1036.9337498412524
 21
810.7173263521355
  0
LINE
  8
_0-0_計極細
  6
CONTINUOUS
 62
    2
 10
1042.9337498412524
 20
805.71732635213402
 11
1036.9337498412524
 21
805.71732635213402
  0
LINE
  8
_0-0_計極細
  6
CONTINUOUS
 62
    2
 10
1028.9337498412524
 20
810.7173263521355
 11
1022.9337498412525
 21
810.7173263521355
  0
LINE
  8
_0-0_計極細
  6
CONTINUOUS
 62
    2
 10
1028.9337498412524
 20
805.71732635213402
 11
1022.9337498412525
 21
805.71732635213402
  0
LINE
  8
_0-0_計極細
  6
CONTINUOUS
 62
    2
 10
1014.9337498412525
 20
810.7173263521355
 11
1008.9337498412526
 21
810.7173263521355
  0
LINE
  8
_0-0_計極細
  6
CONTINUOUS
 62
    2
 10
1014.9337498412525
 20
805.71732635213402
 11
1008.9337498412526
 21
805.71732635213402
  0
LINE
  8
_0-0_計極細
  6
CONTINUOUS
 62
    2
 10
1000.9337498412526
 20
810.7173263521355
 11
994.93374984125251
 21
810.7173263521355
  0
LINE
  8
_0-0_計極細
  6
CONTINUOUS
 62
    2
 10
1000.9337498412526
 20
805.71732635213402
 11
994.93374984125251
 21
805.71732635213402
  0
LINE
  8
_0-0_計極細
  6
CONTINUOUS
 62
    2
 10
986.93374984125262
 20
810.7173263521355
 11
980.93374984125262
 21
810.7173263521355
  0
LINE
  8
_0-0_計極細
  6
CONTINUOUS
 62
    2
 10
986.93374984125262
 20
805.71732635213402
 11
980.93374984125262
 21
805.71732635213402
  0
LINE
  8
_0-0_計極細
  6
CONTINUOUS
 62
    2
 10
972.93374984125251
 20
810.7173263521355
 11
966.93374984125262
 21
810.7173263521355
  0
LINE
  8
_0-0_計極細
  6
CONTINUOUS
 62
    2
 10
972.93374984125251
 20
805.71732635213402
 11
966.93374984125262
 21
805.71732635213402
  0
LINE
  8
_0-0_計極細
  6
CONTINUOUS
 62
    2
 10
958.93374984125262
 20
810.7173263521355
 11
952.93374984125251
 21
810.7173263521355
  0
LINE
  8
_0-0_計極細
  6
CONTINUOUS
 62
    2
 10
958.93374984125262
 20
805.71732635213402
 11
952.93374984125251
 21
805.71732635213402
  0
LINE
  8
_0-0_計極細
  6
CONTINUOUS
 62
    2
 10
944.93374984125251
 20
810.7173263521355
 11
938.93374984125262
 21
810.7173263521355
  0
LINE
  8
_0-0_計極細
  6
CONTINUOUS
 62
    2
 10
944.93374984125251
 20
805.71732635213402
 11
938.93374984125262
 21
805.71732635213402
  0
LINE
  8
_0-0_計極細
  6
CONTINUOUS
 62
    2
 10
930.93374984125262
 20
810.7173263521355
 11
924.93374984125251
 21
810.7173263521355
  0
LINE
  8
_0-0_計極細
  6
CONTINUOUS
 62
    2
 10
930.93374984125262
 20
805.71732635213402
 11
924.93374984125251
 21
805.71732635213402
  0
LINE
  8
_0-0_計極細
  6
CONTINUOUS
 62
    2
 10
916.93374984125262
 20
810.7173263521355
 11
910.93374984125262
 21
810.7173263521355
  0
LINE
  8
_0-0_計極細
  6
CONTINUOUS
 62
    2
 10
916.93374984125262
 20
805.71732635213402
 11
910.93374984125262
 21
805.71732635213402
  0
LINE
  8
_0-0_計極細
  6
CONTINUOUS
 62
    2
 10
902.93374984125251
 20
810.7173263521355
 11
896.93374984125262
 21
810.7173263521355
  0
LINE
  8
_0-0_計極細
  6
CONTINUOUS
 62
    2
 10
902.93374984125251
 20
805.71732635213402
 11
896.93374984125262
 21
805.71732635213402
  0
LINE
  8
_0-0_計極細
  6
CONTINUOUS
 62
    2
 10
888.93374984125262
 20
810.7173263521355
 11
882.93374984125251
 21
810.7173263521355
  0
LINE
  8
_0-0_計極細
  6
CONTINUOUS
 62
    2
 10
888.93374984125262
 20
805.71732635213402
 11
882.93374984125251
 21
805.71732635213402
  0
LINE
  8
_0-0_計極細
  6
CONTINUOUS
 62
    2
 10
874.93374984125251
 20
810.7173263521355
 11
868.93374984125262
 21
810.7173263521355
  0
LINE
  8
_0-0_計極細
  6
CONTINUOUS
 62
    2
 10
874.93374984125251
 20
805.71732635213402
 11
868.93374984125262
 21
805.71732635213402
  0
LINE
  8
_0-0_計極細
  6
CONTINUOUS
 62
    2
 10
860.93374984125262
 20
810.7173263521355
 11
854.93374984125251
 21
810.7173263521355
  0
LINE
  8
_0-0_計極細
  6
CONTINUOUS
 62
    2
 10
860.93374984125262
 20
805.71732635213402
 11
854.93374984125251
 21
805.71732635213402
  0
LINE
  8
_0-0_計極細
  6
CONTINUOUS
 62
    2
 10
846.93374984125262
 20
810.7173263521355
 11
840.93374984125262
 21
810.7173263521355
  0
LINE
  8
_0-0_計極細
  6
CONTINUOUS
 62
    2
 10
846.93374984125262
 20
805.71732635213402
 11
840.93374984125262
 21
805.71732635213402
  0
LINE
  8
_0-0_計極細
  6
CONTINUOUS
 62
    2
 10
832.93374984125251
 20
810.7173263521355
 11
826.93374984125262
 21
810.7173263521355
  0
LINE
  8
_0-0_計極細
  6
CONTINUOUS
 62
    2
 10
832.93374984125251
 20
805.71732635213402
 11
826.93374984125262
 21
805.71732635213402
  0
LINE
  8
_0-0_計極細
  6
CONTINUOUS
 62
    2
 10
818.93374984125262
 20
810.7173263521355
 11
812.93374984125251
 21
810.7173263521355
  0
LINE
  8
_0-0_計極細
  6
CONTINUOUS
 62
    2
 10
818.93374984125262
 20
805.71732635213402
 11
812.93374984125251
 21
805.71732635213402
  0
LINE
  8
_0-0_計極細
  6
CONTINUOUS
 62
    2
 10
804.93374984125251
 20
810.7173263521355
 11
798.93374984125262
 21
810.7173263521355
  0
LINE
  8
_0-0_計極細
  6
CONTINUOUS
 62
    2
 10
804.93374984125251
 20
805.71732635213402
 11
798.93374984125262
 21
805.71732635213402
  0
LINE
  8
_0-0_計極細
  6
CONTINUOUS
 62
    2
 10
790.93374984125262
 20
810.7173263521355
 11
784.93374984125251
 21
810.7173263521355
  0
LINE
  8
_0-0_計極細
  6
CONTINUOUS
 62
    2
 10
790.93374984125262
 20
805.71732635213402
 11
784.93374984125251
 21
805.71732635213402
  0
LINE
  8
_0-0_計極細
  6
CONTINUOUS
 62
    2
 10
776.93374984125262
 20
810.7173263521355
 11
770.93374984125262
 21
810.7173263521355
  0
LINE
  8
_0-0_計極細
  6
CONTINUOUS
 62
    2
 10
776.93374984125262
 20
805.71732635213402
 11
770.93374984125262
 21
805.71732635213402
  0
LINE
  8
_0-0_計極細
  6
CONTINUOUS
 62
    2
 10
762.93374984125251
 20
810.7173263521355
 11
756.93374984125262
 21
810.7173263521355
  0
LINE
  8
_0-0_計極細
  6
CONTINUOUS
 62
    2
 10
762.93374984125251
 20
805.71732635213402
 11
756.93374984125262
 21
805.71732635213402
  0
LINE
  8
_0-0_計極細
  6
CONTINUOUS
 62
    2
 10
748.93374984125262
 20
810.7173263521355
 11
742.93374984125251
 21
810.7173263521355
  0
LINE
  8
_0-0_計極細
  6
CONTINUOUS
 62
    2
 10
748.93374984125262
 20
805.71732635213402
 11
742.93374984125251
 21
805.71732635213402
  0
LINE
  8
_0-0_計極細
  6
CONTINUOUS
 62
    2
 10
734.93374984125251
 20
810.7173263521355
 11
728.93374984125262
 21
810.7173263521355
  0
LINE
  8
_0-0_計極細
  6
CONTINUOUS
 62
    2
 10
734.93374984125251
 20
805.71732635213402
 11
728.93374984125262
 21
805.71732635213402
  0
LINE
  8
_0-0_計極細
  6
CONTINUOUS
 62
    2
 10
720.93374984125251
 20
810.7173263521355
 11
714.93374984125251
 21
810.7173263521355
  0
LINE
  8
_0-0_計極細
  6
CONTINUOUS
 62
    2
 10
720.93374984125251
 20
805.71732635213402
 11
714.93374984125251
 21
805.71732635213402
  0
LINE
  8
_0-0_計極細
  6
CONTINUOUS
 62
    2
 10
706.93374984125262
 20
810.7173263521355
 11
700.93374984125251
 21
810.7173263521355
  0
LINE
  8
_0-0_計極細
  6
CONTINUOUS
 62
    2
 10
706.93374984125262
 20
805.71732635213402
 11
700.93374984125251
 21
805.71732635213402
  0
LINE
  8
_0-0_計極細
  6
CONTINUOUS
 62
    2
 10
692.93374984125251
 20
810.7173263521355
 11
686.93374984125262
 21
810.7173263521355
  0
LINE
  8
_0-0_計極細
  6
CONTINUOUS
 62
    2
 10
692.93374984125251
 20
805.71732635213402
 11
686.93374984125262
 21
805.71732635213402
  0
LINE
  8
_0-0_計極細
  6
CONTINUOUS
 62
    2
 10
678.93374984125262
 20
810.7173263521355
 11
672.93374984125251
 21
810.7173263521355
  0
LINE
  8
_0-0_計極細
  6
CONTINUOUS
 62
    2
 10
678.93374984125262
 20
805.71732635213402
 11
672.93374984125251
 21
805.71732635213402
  0
LINE
  8
_0-0_計極細
  6
CONTINUOUS
 62
    2
 10
664.93374984125251
 20
810.7173263521355
 11
658.93374984125262
 21
810.7173263521355
  0
LINE
  8
_0-0_計極細
  6
CONTINUOUS
 62
    2
 10
664.93374984125251
 20
805.71732635213402
 11
658.93374984125262
 21
805.71732635213402
  0
LINE
  8
_0-0_計極細
  6
CONTINUOUS
 62
    2
 10
650.93374984125251
 20
810.7173263521355
 11
644.93374984125251
 21
810.7173263521355
  0
LINE
  8
_0-0_計極細
  6
CONTINUOUS
 62
    2
 10
650.93374984125251
 20
805.71732635213402
 11
644.93374984125251
 21
805.71732635213402
  0
LINE
  8
_0-0_計極細
  6
CONTINUOUS
 62
    2
 10
636.93374984125262
 20
810.7173263521355
 11
630.93374984125251
 21
810.7173263521355
  0
LINE
  8
_0-0_計極細
  6
CONTINUOUS
 62
    2
 10
636.93374984125262
 20
805.71732635213402
 11
630.93374984125251
 21
805.71732635213402
  0
LINE
  8
_0-0_計極細
  6
CONTINUOUS
 62
    2
 10
622.93374984125251
 20
810.7173263521355
 11
616.93374984125262
 21
810.7173263521355
  0
LINE
  8
_0-0_計極細
  6
CONTINUOUS
 62
    2
 10
622.93374984125251
 20
805.71732635213402
 11
616.93374984125262
 21
805.71732635213402
  0
LINE
  8
_0-0_計極細
  6
CONTINUOUS
 62
    2
 10
608.93374984125251
 20
810.7173263521355
 11
602.93374984125251
 21
810.7173263521355
  0
LINE
  8
_0-0_計極細
  6
CONTINUOUS
 62
    2
 10
608.93374984125251
 20
805.71732635213402
 11
602.93374984125251
 21
805.71732635213402
  0
LINE
  8
_0-0_計極細
  6
CONTINUOUS
 62
    2
 10
594.93374984125251
 20
810.7173263521355
 11
588.93374984125251
 21
810.7173263521355
  0
LINE
  8
_0-0_計極細
  6
CONTINUOUS
 62
    2
 10
594.93374984125251
 20
805.71732635213402
 11
588.93374984125251
 21
805.71732635213402
  0
LINE
  8
_0-0_計極細
  6
CONTINUOUS
 62
    2
 10
580.93374984125251
 20
810.7173263521355
 11
574.93374984125251
 21
810.7173263521355
  0
LINE
  8
_0-0_計極細
  6
CONTINUOUS
 62
    2
 10
580.93374984125251
 20
805.71732635213402
 11
574.93374984125251
 21
805.71732635213402
  0
LINE
  8
_0-0_計極細
  6
CONTINUOUS
 62
    2
 10
566.93374984125262
 20
810.7173263521355
 11
560.93374984125251
 21
810.7173263521355
  0
LINE
  8
_0-0_計極細
  6
CONTINUOUS
 62
    2
 10
566.93374984125262
 20
805.71732635213402
 11
560.93374984125251
 21
805.71732635213402
  0
LINE
  8
_0-0_計極細
  6
CONTINUOUS
 62
    2
 10
552.93374984125251
 20
810.7173263521355
 11
546.93374984125262
 21
810.7173263521355
  0
LINE
  8
_0-0_計極細
  6
CONTINUOUS
 62
    2
 10
552.93374984125251
 20
805.71732635213402
 11
546.93374984125262
 21
805.71732635213402
  0
LINE
  8
_0-0_計極細
  6
CONTINUOUS
 62
    2
 10
538.93374984125251
 20
810.7173263521355
 11
532.93374984125251
 21
810.7173263521355
  0
LINE
  8
_0-0_計極細
  6
CONTINUOUS
 62
    2
 10
538.93374984125251
 20
805.71732635213402
 11
532.93374984125251
 21
805.71732635213402
  0
LINE
  8
_0-0_計極細
  6
CONTINUOUS
 62
    2
 10
524.93374984125251
 20
810.7173263521355
 11
518.93374984125251
 21
810.7173263521355
  0
LINE
  8
_0-0_計極細
  6
CONTINUOUS
 62
    2
 10
524.93374984125251
 20
805.71732635213402
 11
518.93374984125251
 21
805.71732635213402
  0
LINE
  8
_0-0_計極細
  6
CONTINUOUS
 62
    2
 10
510.93374984125256
 20
810.7173263521355
 11
504.93374984125251
 21
810.7173263521355
  0
LINE
  8
_0-0_計極細
  6
CONTINUOUS
 62
    2
 10
510.93374984125256
 20
805.71732635213402
 11
504.93374984125251
 21
805.71732635213402
  0
LINE
  8
_0-0_計極細
  6
CONTINUOUS
 62
    2
 10
496.93374984125256
 20
810.7173263521355
 11
490.93374984125256
 21
810.7173263521355
  0
LINE
  8
_0-0_計極細
  6
CONTINUOUS
 62
    2
 10
496.93374984125256
 20
805.71732635213402
 11
490.93374984125256
 21
805.71732635213402
  0
LINE
  8
_0-0_計極細
  6
CONTINUOUS
 62
    2
 10
482.93374984125251
 20
810.7173263521355
 11
476.93374984125256
 21
810.7173263521355
  0
LINE
  8
_0-0_計極細
  6
CONTINUOUS
 62
    2
 10
482.93374984125251
 20
805.71732635213402
 11
476.93374984125256
 21
805.71732635213402
  0
LINE
  8
_0-0_計極細
  6
CONTINUOUS
 62
    2
 10
468.93374984125251
 20
810.7173263521355
 11
462.93374984125251
 21
810.7173263521355
  0
LINE
  8
_0-0_計極細
  6
CONTINUOUS
 62
    2
 10
468.93374984125251
 20
805.71732635213402
 11
462.93374984125251
 21
805.71732635213402
  0
LINE
  8
_0-0_計極細
  6
CONTINUOUS
 62
    2
 10
454.93374984125251
 20
810.7173263521355
 11
448.93374984125251
 21
810.7173263521355
  0
LINE
  8
_0-0_計極細
  6
CONTINUOUS
 62
    2
 10
454.93374984125251
 20
805.71732635213402
 11
448.93374984125251
 21
805.71732635213402
  0
LINE
  8
_0-0_計極細
  6
CONTINUOUS
 62
    2
 10
440.93374984125256
 20
810.7173263521355
 11
434.93374984125251
 21
810.7173263521355
  0
LINE
  8
_0-0_計極細
  6
CONTINUOUS
 62
    2
 10
440.93374984125256
 20
805.71732635213402
 11
434.93374984125251
 21
805.71732635213402
  0
LINE
  8
_0-0_計極細
  6
CONTINUOUS
 62
    2
 10
426.93374984125256
 20
810.7173263521355
 11
420.93374984125234
 21
810.7173263521355
  0
LINE
  8
_0-0_計極細
  6
CONTINUOUS
 62
    2
 10
426.93374984125256
 20
805.71732635213402
 11
420.93374984125234
 21
805.71732635213402
  0
LINE
  8
_0-0_計極細
  6
CONTINUOUS
 62
    2
 10
412.93374984125228
 20
810.7173263521355
 11
406.93374984125228
 21
810.7173263521355
  0
LINE
  8
_0-0_計極細
  6
CONTINUOUS
 62
    2
 10
412.93374984125228
 20
805.71732635213402
 11
406.93374984125228
 21
805.71732635213402
  0
LINE
  8
_0-0_計極細
  6
CONTINUOUS
 62
    2
 10
398.93374984125217
 20
810.7173263521355
 11
392.93374984125222
 21
810.7173263521355
  0
LINE
  8
_0-0_計極細
  6
CONTINUOUS
 62
    2
 10
398.93374984125217
 20
805.71732635213402
 11
392.93374984125222
 21
805.71732635213402
  0
LINE
  8
_0-0_計極細
  6
CONTINUOUS
 62
    2
 10
384.93374984125217
 20
810.7173263521355
 11
378.93374984125217
 21
810.7173263521355
  0
LINE
  8
_0-0_計極細
  6
CONTINUOUS
 62
    2
 10
384.93374984125217
 20
805.71732635213402
 11
378.93374984125217
 21
805.71732635213402
  0
LINE
  8
_0-0_計極細
  6
CONTINUOUS
 62
    2
 10
370.93374984125217
 20
810.7173263521355
 11
364.93374984125217
 21
810.7173263521355
  0
LINE
  8
_0-0_計極細
  6
CONTINUOUS
 62
    2
 10
370.93374984125217
 20
805.71732635213402
 11
364.93374984125217
 21
805.71732635213402
  0
LINE
  8
_0-0_計極細
  6
CONTINUOUS
 62
    2
 10
356.93374984125222
 20
810.7173263521355
 11
350.93374984125217
 21
810.7173263521355
  0
LINE
  8
_0-0_計極細
  6
CONTINUOUS
 62
    2
 10
356.93374984125222
 20
805.71732635213402
 11
350.93374984125217
 21
805.71732635213402
  0
LINE
  8
_0-0_計極細
  6
CONTINUOUS
 62
    2
 10
342.93374984125217
 20
810.7173263521355
 11
336.93374984125222
 21
810.7173263521355
  0
LINE
  8
_0-0_計極細
  6
CONTINUOUS
 62
    2
 10
342.93374984125217
 20
805.71732635213402
 11
336.93374984125222
 21
805.71732635213402
  0
LINE
  8
_0-0_計極細
  6
CONTINUOUS
 62
    2
 10
328.93374984125217
 20
810.7173263521355
 11
322.93374984125217
 21
810.7173263521355
  0
LINE
  8
_0-0_計極細
  6
CONTINUOUS
 62
    2
 10
328.93374984125217
 20
805.71732635213402
 11
322.93374984125217
 21
805.71732635213402
  0
LINE
  8
_0-0_計極細
  6
CONTINUOUS
 62
    2
 10
314.93374984125217
 20
810.7173263521355
 11
308.93374984125217
 21
810.7173263521355
  0
LINE
  8
_0-0_計極細
  6
CONTINUOUS
 62
    2
 10
314.93374984125217
 20
805.71732635213402
 11
308.93374984125217
 21
805.71732635213402
  0
LINE
  8
_0-0_計極細
  6
CONTINUOUS
 62
    2
 10
300.93374984125217
 20
810.7173263521355
 11
294.93374984125217
 21
810.7173263521355
  0
LINE
  8
_0-0_計極細
  6
CONTINUOUS
 62
    2
 10
300.93374984125217
 20
805.71732635213402
 11
294.93374984125217
 21
805.71732635213402
  0
LINE
  8
_0-0_計極細
  6
CONTINUOUS
 62
    2
 10
286.93374984125217
 20
810.7173263521355
 11
280.93374984125217
 21
810.7173263521355
  0
LINE
  8
_0-0_計極細
  6
CONTINUOUS
 62
    2
 10
286.93374984125217
 20
805.71732635213402
 11
280.93374984125217
 21
805.71732635213402
  0
LINE
  8
_0-0_計極細
  6
CONTINUOUS
 62
    2
 10
272.93374984125222
 20
810.7173263521355
 11
266.93374984125217
 21
810.7173263521355
  0
LINE
  8
_0-0_計極細
  6
CONTINUOUS
 62
    2
 10
272.93374984125222
 20
805.71732635213402
 11
266.93374984125217
 21
805.71732635213402
  0
LINE
  8
_0-0_計極細
  6
CONTINUOUS
 62
    2
 10
258.93374984125217
 20
810.7173263521355
 11
252.93374984125222
 21
810.7173263521355
  0
LINE
  8
_0-0_計極細
  6
CONTINUOUS
 62
    2
 10
258.93374984125217
 20
805.71732635213402
 11
252.93374984125222
 21
805.71732635213402
  0
LINE
  8
_0-0_計極細
  6
CONTINUOUS
 62
    2
 10
244.93374984125217
 20
810.7173263521355
 11
238.93374984125217
 21
810.7173263521355
  0
LINE
  8
_0-0_計極細
  6
CONTINUOUS
 62
    2
 10
244.93374984125217
 20
805.71732635213402
 11
238.93374984125217
 21
805.71732635213402
  0
LINE
  8
_0-5_寸法線
  6
CONTINUOUS
 62
    7
 10
230.93374984125219
 20
848.2173263521355
 11
230.93374984125219
 21
893.2173263521355
  0
LINE
  8
_0-5_寸法線
  6
CONTINUOUS
 62
    7
 10
230.93374984125219
 20
888.2173263521355
 11
240.59300810414285
 21
890.80551680316057
  0
LINE
  8
_0-5_寸法線
  6
CONTINUOUS
 62
    7
 10
230.93374984125219
 20
888.2173263521355
 11
240.59300810414285
 21
885.6291359011102
  0
LINE
  8
_0-5_寸法線
  6
CONTINUOUS
 62
    7
 10
1218.9337498412524
 20
848.2173263521355
 11
1218.9337498412524
 21
893.2173263521355
  0
LINE
  8
_0-5_寸法線
  6
CONTINUOUS
 62
    7
 10
1218.9337498412524
 20
888.2173263521355
 11
1209.2744915783619
 21
885.6291359011102
  0
LINE
  8
_0-5_寸法線
  6
CONTINUOUS
 62
    7
 10
1218.9337498412524
 20
888.2173263521355
 11
1209.2744915783619
 21
890.80551680316057
  0
LINE
  8
_0-5_寸法線
  6
CONTINUOUS
 62
    7
 10
230.93374984125219
 20
888.2173263521355
 11
1218.9337498412524
 21
888.2173263521355
  0
TEXT
  8
_0-5_寸法線
 62
    7
 10
713.68374984125251
 20
888.2173263521355
 40
15
 41
1
 50
0
  1
988
  0
LINE
  8
_0-1_計細線
  6
CONTINUOUS
 62
    3
 10
230.93374984125219
 20
508.21732635213544
 11
200.93374984125219
 21
508.21732635213544
  0
LINE
  8
_0-1_計細線
  6
CONTINUOUS
 62
    3
 10
1248.9337498412515
 20
508.21732635213544
 11
1218.9337498412515
 21
508.21732635213544
  0
LINE
  8
_0-1_計細線
  6
CONTINUOUS
 62
    3
 10
202.32086696501057
 20
481.21732635213675
 11
1250.3208669650112
 21
481.21732635213539
  0
LINE
  8
_0-1_計細線
  6
CONTINUOUS
 62
    3
 10
200.93374984125219
 20
478.21732635213675
 11
1248.9337498412515
 21
478.21732635213544
  0
ARC
  8
_0-1_計細線
  6
CONTINUOUS
 62
    3
 10
188.65075459112381
 20
485.71732635213544
 40
14.391732776655759
 50
328.59175045525654
 51
31.408249544743729
  0
ARC
  8
_0-1_計細線
  6
CONTINUOUS
 62
    3
 10
213.21674509137964
 20
500.71732635213544
 40
14.391732776655743
 50
148.59175045525842
 51
211.40824954474027
  0
ARC
  8
_0-1_計細線
  6
CONTINUOUS
 62
    3
 10
1236.6507545911236
 20
485.71732635213544
 40
14.391732776655772
 50
328.59175045525654
 51
31.408249544741235
  0
ARC
  8
_0-1_計細線
  6
CONTINUOUS
 62
    3
 10
1261.2167450913794
 20
500.71732635213544
 40
14.391732776655658
 50
148.59175045525842
 51
211.40824954474121
  0
LINE
  8
_0-1_計細線
  6
CONTINUOUS
 62
    3
 10
238.93374984125217
 20
486.21732635213539
 11
230.93374984125219
 21
486.21732635213539
  0
LINE
  8
_0-1_計細線
  6
CONTINUOUS
 62
    3
 10
252.93374984125222
 20
486.21732635213539
 11
244.93374984125217
 21
486.21732635213539
  0
LINE
  8
_0-1_計細線
  6
CONTINUOUS
 62
    3
 10
266.93374984125217
 20
486.21732635213539
 11
258.93374984125217
 21
486.21732635213539
  0
LINE
  8
_0-1_計細線
  6
CONTINUOUS
 62
    3
 10
280.93374984125217
 20
486.21732635213539
 11
272.93374984125222
 21
486.21732635213539
  0
LINE
  8
_0-1_計細線
  6
CONTINUOUS
 62
    3
 10
294.93374984125217
 20
486.21732635213539
 11
286.93374984125217
 21
486.21732635213539
  0
LINE
  8
_0-1_計細線
  6
CONTINUOUS
 62
    3
 10
308.93374984125217
 20
486.21732635213539
 11
300.93374984125217
 21
486.21732635213539
  0
LINE
  8
_0-1_計細線
  6
CONTINUOUS
 62
    3
 10
322.93374984125217
 20
486.21732635213539
 11
314.93374984125217
 21
486.21732635213539
  0
LINE
  8
_0-1_計細線
  6
CONTINUOUS
 62
    3
 10
336.93374984125222
 20
486.21732635213539
 11
328.93374984125217
 21
486.21732635213539
  0
LINE
  8
_0-1_計細線
  6
CONTINUOUS
 62
    3
 10
350.93374984125217
 20
486.21732635213539
 11
342.93374984125217
 21
486.21732635213539
  0
LINE
  8
_0-1_計細線
  6
CONTINUOUS
 62
    3
 10
364.93374984125217
 20
486.21732635213539
 11
356.93374984125222
 21
486.21732635213539
  0
LINE
  8
_0-1_計細線
  6
CONTINUOUS
 62
    3
 10
378.93374984125217
 20
486.21732635213539
 11
370.93374984125217
 21
486.21732635213539
  0
LINE
  8
_0-1_計細線
  6
CONTINUOUS
 62
    3
 10
392.93374984125222
 20
486.21732635213539
 11
384.93374984125217
 21
486.21732635213539
  0
LINE
  8
_0-1_計細線
  6
CONTINUOUS
 62
    3
 10
406.93374984125228
 20
486.21732635213539
 11
398.93374984125217
 21
486.21732635213539
  0
LINE
  8
_0-1_計細線
  6
CONTINUOUS
 62
    3
 10
420.93374984125234
 20
486.21732635213539
 11
412.93374984125228
 21
486.21732635213539
  0
LINE
  8
_0-1_計細線
  6
CONTINUOUS
 62
    3
 10
434.93374984125251
 20
486.21732635213539
 11
426.93374984125256
 21
486.21732635213539
  0
LINE
  8
_0-1_計細線
  6
CONTINUOUS
 62
    3
 10
448.93374984125251
 20
486.21732635213539
 11
440.93374984125256
 21
486.21732635213539
  0
LINE
  8
_0-1_計細線
  6
CONTINUOUS
 62
    3
 10
462.93374984125251
 20
486.21732635213539
 11
454.93374984125251
 21
486.21732635213539
  0
LINE
  8
_0-1_計細線
  6
CONTINUOUS
 62
    3
 10
476.93374984125256
 20
486.21732635213539
 11
468.93374984125251
 21
486.21732635213539
  0
LINE
  8
_0-1_計細線
  6
CONTINUOUS
 62
    3
 10
490.93374984125256
 20
486.21732635213539
 11
482.93374984125251
 21
486.21732635213539
  0
LINE
  8
_0-1_計細線
  6
CONTINUOUS
 62
    3
 10
504.93374984125251
 20
486.21732635213539
 11
496.93374984125256
 21
486.21732635213539
  0
LINE
  8
_0-1_計細線
  6
CONTINUOUS
 62
    3
 10
518.93374984125251
 20
486.21732635213539
 11
510.93374984125256
 21
486.21732635213539
  0
LINE
  8
_0-1_計細線
  6
CONTINUOUS
 62
    3
 10
532.93374984125251
 20
486.21732635213539
 11
524.93374984125251
 21
486.21732635213539
  0
LINE
  8
_0-1_計細線
  6
CONTINUOUS
 62
    3
 10
546.93374984125262
 20
486.21732635213539
 11
538.93374984125251
 21
486.21732635213539
  0
LINE
  8
_0-1_計細線
  6
CONTINUOUS
 62
    3
 10
560.93374984125251
 20
486.21732635213539
 11
552.93374984125251
 21
486.21732635213539
  0
LINE
  8
_0-1_計細線
  6
CONTINUOUS
 62
    3
 10
574.93374984125251
 20
486.21732635213539
 11
566.93374984125262
 21
486.21732635213539
  0
LINE
  8
_0-1_計細線
  6
CONTINUOUS
 62
    3
 10
588.93374984125251
 20
486.21732635213539
 11
580.93374984125251
 21
486.21732635213539
  0
LINE
  8
_0-1_計細線
  6
CONTINUOUS
 62
    3
 10
602.93374984125251
 20
486.21732635213539
 11
594.93374984125251
 21
486.21732635213539
  0
LINE
  8
_0-1_計細線
  6
CONTINUOUS
 62
    3
 10
616.93374984125262
 20
486.21732635213539
 11
608.93374984125251
 21
486.21732635213539
  0
LINE
  8
_0-1_計細線
  6
CONTINUOUS
 62
    3
 10
630.93374984125251
 20
486.21732635213539
 11
622.93374984125251
 21
486.21732635213539
  0
LINE
  8
_0-1_計細線
  6
CONTINUOUS
 62
    3
 10
644.93374984125251
 20
486.21732635213539
 11
636.93374984125262
 21
486.21732635213539
  0
LINE
  8
_0-1_計細線
  6
CONTINUOUS
 62
    3
 10
658.93374984125262
 20
486.21732635213539
 11
650.93374984125251
 21
486.21732635213539
  0
LINE
  8
_0-1_計細線
  6
CONTINUOUS
 62
    3
 10
672.93374984125251
 20
486.21732635213539
 11
664.93374984125251
 21
486.21732635213539
  0
LINE
  8
_0-1_計細線
  6
CONTINUOUS
 62
    3
 10
686.93374984125262
 20
486.21732635213539
 11
678.93374984125262
 21
486.21732635213539
  0
LINE
  8
_0-1_計細線
  6
CONTINUOUS
 62
    3
 10
700.93374984125251
 20
486.21732635213539
 11
692.93374984125251
 21
486.21732635213539
  0
LINE
  8
_0-1_計細線
  6
CONTINUOUS
 62
    3
 10
714.93374984125251
 20
486.21732635213539
 11
706.93374984125262
 21
486.21732635213539
  0
LINE
  8
_0-1_計細線
  6
CONTINUOUS
 62
    3
 10
728.93374984125262
 20
486.21732635213539
 11
720.93374984125251
 21
486.21732635213539
  0
LINE
  8
_0-1_計細線
  6
CONTINUOUS
 62
    3
 10
742.93374984125251
 20
486.21732635213539
 11
734.93374984125251
 21
486.21732635213539
  0
LINE
  8
_0-1_計細線
  6
CONTINUOUS
 62
    3
 10
756.93374984125262
 20
486.21732635213539
 11
748.93374984125262
 21
486.21732635213539
  0
LINE
  8
_0-1_計細線
  6
CONTINUOUS
 62
    3
 10
770.93374984125262
 20
486.21732635213539
 11
762.93374984125251
 21
486.21732635213539
  0
LINE
  8
_0-1_計細線
  6
CONTINUOUS
 62
    3
 10
784.93374984125251
 20
486.21732635213539
 11
776.93374984125262
 21
486.21732635213539
  0
LINE
  8
_0-1_計細線
  6
CONTINUOUS
 62
    3
 10
798.93374984125262
 20
486.21732635213539
 11
790.93374984125262
 21
486.21732635213539
  0
LINE
  8
_0-1_計細線
  6
CONTINUOUS
 62
    3
 10
812.93374984125251
 20
486.21732635213539
 11
804.93374984125251
 21
486.21732635213539
  0
LINE
  8
_0-1_計細線
  6
CONTINUOUS
 62
    3
 10
826.93374984125262
 20
486.21732635213539
 11
818.93374984125262
 21
486.21732635213539
  0
LINE
  8
_0-1_計細線
  6
CONTINUOUS
 62
    3
 10
840.93374984125262
 20
486.21732635213539
 11
832.93374984125251
 21
486.21732635213539
  0
LINE
  8
_0-1_計細線
  6
CONTINUOUS
 62
    3
 10
854.93374984125251
 20
486.21732635213539
 11
846.93374984125262
 21
486.21732635213539
  0
LINE
  8
_0-1_計細線
  6
CONTINUOUS
 62
    3
 10
868.93374984125262
 20
486.21732635213539
 11
860.93374984125262
 21
486.21732635213539
  0
LINE
  8
_0-1_計細線
  6
CONTINUOUS
 62
    3
 10
882.93374984125251
 20
486.21732635213539
 11
874.93374984125251
 21
486.21732635213539
  0
LINE
  8
_0-1_計細線
  6
CONTINUOUS
 62
    3
 10
896.93374984125262
 20
486.21732635213539
 11
888.93374984125262
 21
486.21732635213539
  0
LINE
  8
_0-1_計細線
  6
CONTINUOUS
 62
    3
 10
910.93374984125262
 20
486.21732635213539
 11
902.93374984125251
 21
486.21732635213539
  0
LINE
  8
_0-1_計細線
  6
CONTINUOUS
 62
    3
 10
924.93374984125251
 20
486.21732635213539
 11
916.93374984125262
 21
486.21732635213539
  0
LINE
  8
_0-1_計細線
  6
CONTINUOUS
 62
    3
 10
938.93374984125262
 20
486.21732635213539
 11
930.93374984125262
 21
486.21732635213539
  0
LINE
  8
_0-1_計細線
  6
CONTINUOUS
 62
    3
 10
952.93374984125251
 20
486.21732635213539
 11
944.93374984125251
 21
486.21732635213539
  0
LINE
  8
_0-1_計細線
  6
CONTINUOUS
 62
    3
 10
966.93374984125262
 20
486.21732635213539
 11
958.93374984125262
 21
486.21732635213539
  0
LINE
  8
_0-1_計細線
  6
CONTINUOUS
 62
    3
 10
980.93374984125262
 20
486.21732635213539
 11
972.93374984125251
 21
486.21732635213539
  0
LINE
  8
_0-1_計細線
  6
CONTINUOUS
 62
    3
 10
994.93374984125251
 20
486.21732635213539
 11
986.93374984125262
 21
486.21732635213539
  0
LINE
  8
_0-1_計細線
  6
CONTINUOUS
 62
    3
 10
1008.9337498412526
 20
486.21732635213539
 11
1000.9337498412526
 21
486.21732635213539
  0
LINE
  8
_0-1_計細線
  6
CONTINUOUS
 62
    3
 10
1022.9337498412525
 20
486.21732635213539
 11
1014.9337498412525
 21
486.21732635213539
  0
LINE
  8
_0-1_計細線
  6
CONTINUOUS
 62
    3
 10
1036.9337498412524
 20
486.21732635213539
 11
1028.9337498412524
 21
486.21732635213539
  0
LINE
  8
_0-1_計細線
  6
CONTINUOUS
 62
    3
 10
1050.9337498412524
 20
486.21732635213539
 11
1042.9337498412524
 21
486.21732635213539
  0
LINE
  8
_0-1_計細線
  6
CONTINUOUS
 62
    3
 10
1064.9337498412524
 20
486.21732635213539
 11
1056.9337498412524
 21
486.21732635213539
  0
LINE
  8
_0-1_計細線
  6
CONTINUOUS
 62
    3
 10
1078.9337498412524
 20
486.21732635213539
 11
1070.9337498412524
 21
486.21732635213539
  0
LINE
  8
_0-1_計細線
  6
CONTINUOUS
 62
    3
 10
1092.9337498412524
 20
486.21732635213539
 11
1084.9337498412524
 21
486.21732635213539
  0
LINE
  8
_0-1_計細線
  6
CONTINUOUS
 62
    3
 10
1106.9337498412524
 20
486.21732635213539
 11
1098.9337498412524
 21
486.21732635213539
  0
LINE
  8
_0-1_計細線
  6
CONTINUOUS
 62
    3
 10
1120.9337498412524
 20
486.21732635213539
 11
1112.9337498412524
 21
486.21732635213539
  0
LINE
  8
_0-1_計細線
  6
CONTINUOUS
 62
    3
 10
1134.9337498412515
 20
486.21732635213539
 11
1126.9337498412515
 21
486.21732635213539
  0
LINE
  8
_0-1_計細線
  6
CONTINUOUS
 62
    3
 10
1148.9337498412515
 20
486.21732635213539
 11
1140.9337498412515
 21
486.21732635213539
  0
LINE
  8
_0-1_計細線
  6
CONTINUOUS
 62
    3
 10
1162.9337498412515
 20
486.21732635213539
 11
1154.9337498412515
 21
486.21732635213539
  0
LINE
  8
_0-1_計細線
  6
CONTINUOUS
 62
    3
 10
1176.9337498412515
 20
486.21732635213539
 11
1168.9337498412515
 21
486.21732635213539
  0
LINE
  8
_0-1_計細線
  6
CONTINUOUS
 62
    3
 10
1190.9337498412515
 20
486.21732635213539
 11
1182.9337498412515
 21
486.21732635213539
  0
LINE
  8
_0-1_計細線
  6
CONTINUOUS
 62
    3
 10
1204.9337498412515
 20
486.21732635213539
 11
1196.9337498412515
 21
486.21732635213539
  0
LINE
  8
_0-1_計細線
  6
CONTINUOUS
 62
    3
 10
1218.9337498412515
 20
486.21732635213539
 11
1210.9337498412515
 21
486.21732635213539
  0
LINE
  8
_0-1_計細線
  6
CONTINUOUS
 62
    3
 10
1218.9337498412515
 20
483.21732635213544
 11
1218.9337498412515
 21
486.21732635213539
  0
LINE
  8
_0-1_計細線
  6
CONTINUOUS
 62
    3
 10
230.93374984125219
 20
483.21732635213544
 11
1218.9337498412515
 21
483.21732635213544
  0
LINE
  8
_0-1_計細線
  6
CONTINUOUS
 62
    3
 10
230.93374984125219
 20
486.21732635213539
 11
230.93374984125219
 21
483.21732635213544
  0
LINE
  8
_0-1_計細線
  6
CONTINUOUS
 62
    3
 10
1218.9337498412515
 20
486.21732635213539
 11
230.93374984125219
 21
486.21732635213539
  0
LINE
  8
_0-0_計極細
  6
CONTINUOUS
 62
    2
 10
1210.9337498412515
 20
510.71732635213544
 11
1204.9337498412515
 21
510.71732635213544
  0
LINE
  8
_0-0_計極細
  6
CONTINUOUS
 62
    2
 10
1210.9337498412515
 20
505.71732635213544
 11
1204.9337498412515
 21
505.71732635213544
  0
LINE
  8
_0-0_計極細
  6
CONTINUOUS
 62
    2
 10
1196.9337498412515
 20
510.71732635213544
 11
1190.9337498412515
 21
510.71732635213544
  0
LINE
  8
_0-0_計極細
  6
CONTINUOUS
 62
    2
 10
1196.9337498412515
 20
505.71732635213544
 11
1190.9337498412515
 21
505.71732635213544
  0
LINE
  8
_0-0_計極細
  6
CONTINUOUS
 62
    2
 10
1182.9337498412515
 20
510.71732635213544
 11
1176.9337498412515
 21
510.71732635213544
  0
LINE
  8
_0-0_計極細
  6
CONTINUOUS
 62
    2
 10
1182.9337498412515
 20
505.71732635213544
 11
1176.9337498412515
 21
505.71732635213544
  0
LINE
  8
_0-0_計極細
  6
CONTINUOUS
 62
    2
 10
1168.9337498412515
 20
510.71732635213544
 11
1162.9337498412515
 21
510.71732635213544
  0
LINE
  8
_0-0_計極細
  6
CONTINUOUS
 62
    2
 10
1168.9337498412515
 20
505.71732635213544
 11
1162.9337498412515
 21
505.71732635213544
  0
LINE
  8
_0-0_計極細
  6
CONTINUOUS
 62
    2
 10
1154.9337498412515
 20
510.71732635213544
 11
1148.9337498412515
 21
510.71732635213544
  0
LINE
  8
_0-0_計極細
  6
CONTINUOUS
 62
    2
 10
1154.9337498412515
 20
505.71732635213544
 11
1148.9337498412515
 21
505.71732635213544
  0
LINE
  8
_0-0_計極細
  6
CONTINUOUS
 62
    2
 10
1140.9337498412515
 20
510.71732635213544
 11
1134.9337498412515
 21
510.71732635213544
  0
LINE
  8
_0-0_計極細
  6
CONTINUOUS
 62
    2
 10
1140.9337498412515
 20
505.71732635213544
 11
1134.9337498412515
 21
505.71732635213544
  0
LINE
  8
_0-0_計極細
  6
CONTINUOUS
 62
    2
 10
1126.9337498412515
 20
510.71732635213544
 11
1120.9337498412524
 21
510.71732635213544
  0
LINE
  8
_0-0_計極細
  6
CONTINUOUS
 62
    2
 10
1126.9337498412515
 20
505.71732635213544
 11
1120.9337498412524
 21
505.71732635213544
  0
LINE
  8
_0-0_計極細
  6
CONTINUOUS
 62
    2
 10
1112.9337498412524
 20
510.71732635213544
 11
1106.9337498412524
 21
510.71732635213544
  0
LINE
  8
_0-0_計極細
  6
CONTINUOUS
 62
    2
 10
1112.9337498412524
 20
505.71732635213544
 11
1106.9337498412524
 21
505.71732635213544
  0
LINE
  8
_0-0_計極細
  6
CONTINUOUS
 62
    2
 10
1098.9337498412524
 20
510.71732635213544
 11
1092.9337498412524
 21
510.71732635213544
  0
LINE
  8
_0-0_計極細
  6
CONTINUOUS
 62
    2
 10
1098.9337498412524
 20
505.71732635213544
 11
1092.9337498412524
 21
505.71732635213544
  0
LINE
  8
_0-0_計極細
  6
CONTINUOUS
 62
    2
 10
1084.9337498412524
 20
510.71732635213544
 11
1078.9337498412524
 21
510.71732635213544
  0
LINE
  8
_0-0_計極細
  6
CONTINUOUS
 62
    2
 10
1084.9337498412524
 20
505.71732635213544
 11
1078.9337498412524
 21
505.71732635213544
  0
LINE
  8
_0-0_計極細
  6
CONTINUOUS
 62
    2
 10
1070.9337498412524
 20
510.71732635213544
 11
1064.9337498412524
 21
510.71732635213544
  0
LINE
  8
_0-0_計極細
  6
CONTINUOUS
 62
    2
 10
1070.9337498412524
 20
505.71732635213544
 11
1064.9337498412524
 21
505.71732635213544
  0
LINE
  8
_0-0_計極細
  6
CONTINUOUS
 62
    2
 10
1056.9337498412524
 20
510.71732635213544
 11
1050.9337498412524
 21
510.71732635213544
  0
LINE
  8
_0-0_計極細
  6
CONTINUOUS
 62
    2
 10
1056.9337498412524
 20
505.71732635213544
 11
1050.9337498412524
 21
505.71732635213544
  0
LINE
  8
_0-0_計極細
  6
CONTINUOUS
 62
    2
 10
1042.9337498412524
 20
510.71732635213544
 11
1036.9337498412524
 21
510.71732635213544
  0
LINE
  8
_0-0_計極細
  6
CONTINUOUS
 62
    2
 10
1042.9337498412524
 20
505.71732635213544
 11
1036.9337498412524
 21
505.71732635213544
  0
LINE
  8
_0-0_計極細
  6
CONTINUOUS
 62
    2
 10
1028.9337498412524
 20
510.71732635213544
 11
1022.9337498412525
 21
510.71732635213544
  0
LINE
  8
_0-0_計極細
  6
CONTINUOUS
 62
    2
 10
1028.9337498412524
 20
505.71732635213544
 11
1022.9337498412525
 21
505.71732635213544
  0
LINE
  8
_0-0_計極細
  6
CONTINUOUS
 62
    2
 10
1014.9337498412525
 20
510.71732635213544
 11
1008.9337498412526
 21
510.71732635213544
  0
LINE
  8
_0-0_計極細
  6
CONTINUOUS
 62
    2
 10
1014.9337498412525
 20
505.71732635213544
 11
1008.9337498412526
 21
505.71732635213544
  0
LINE
  8
_0-0_計極細
  6
CONTINUOUS
 62
    2
 10
1000.9337498412526
 20
510.71732635213544
 11
994.93374984125251
 21
510.71732635213544
  0
LINE
  8
_0-0_計極細
  6
CONTINUOUS
 62
    2
 10
1000.9337498412526
 20
505.71732635213544
 11
994.93374984125251
 21
505.71732635213544
  0
LINE
  8
_0-0_計極細
  6
CONTINUOUS
 62
    2
 10
986.93374984125262
 20
510.71732635213544
 11
980.93374984125262
 21
510.71732635213544
  0
LINE
  8
_0-0_計極細
  6
CONTINUOUS
 62
    2
 10
986.93374984125262
 20
505.71732635213544
 11
980.93374984125262
 21
505.71732635213544
  0
LINE
  8
_0-0_計極細
  6
CONTINUOUS
 62
    2
 10
972.93374984125251
 20
510.71732635213544
 11
966.93374984125262
 21
510.71732635213544
  0
LINE
  8
_0-0_計極細
  6
CONTINUOUS
 62
    2
 10
972.93374984125251
 20
505.71732635213544
 11
966.93374984125262
 21
505.71732635213544
  0
LINE
  8
_0-0_計極細
  6
CONTINUOUS
 62
    2
 10
958.93374984125262
 20
510.71732635213544
 11
952.93374984125251
 21
510.71732635213544
  0
LINE
  8
_0-0_計極細
  6
CONTINUOUS
 62
    2
 10
958.93374984125262
 20
505.71732635213544
 11
952.93374984125251
 21
505.71732635213544
  0
LINE
  8
_0-0_計極細
  6
CONTINUOUS
 62
    2
 10
944.93374984125251
 20
510.71732635213544
 11
938.93374984125262
 21
510.71732635213544
  0
LINE
  8
_0-0_計極細
  6
CONTINUOUS
 62
    2
 10
944.93374984125251
 20
505.71732635213544
 11
938.93374984125262
 21
505.71732635213544
  0
LINE
  8
_0-0_計極細
  6
CONTINUOUS
 62
    2
 10
930.93374984125262
 20
510.71732635213544
 11
924.93374984125251
 21
510.71732635213544
  0
LINE
  8
_0-0_計極細
  6
CONTINUOUS
 62
    2
 10
930.93374984125262
 20
505.71732635213544
 11
924.93374984125251
 21
505.71732635213544
  0
LINE
  8
_0-0_計極細
  6
CONTINUOUS
 62
    2
 10
916.93374984125262
 20
510.71732635213544
 11
910.93374984125262
 21
510.71732635213544
  0
LINE
  8
_0-0_計極細
  6
CONTINUOUS
 62
    2
 10
916.93374984125262
 20
505.71732635213544
 11
910.93374984125262
 21
505.71732635213544
  0
LINE
  8
_0-0_計極細
  6
CONTINUOUS
 62
    2
 10
902.93374984125251
 20
510.71732635213544
 11
896.93374984125262
 21
510.71732635213544
  0
LINE
  8
_0-0_計極細
  6
CONTINUOUS
 62
    2
 10
902.93374984125251
 20
505.71732635213544
 11
896.93374984125262
 21
505.71732635213544
  0
LINE
  8
_0-0_計極細
  6
CONTINUOUS
 62
    2
 10
888.93374984125262
 20
510.71732635213544
 11
882.93374984125251
 21
510.71732635213544
  0
LINE
  8
_0-0_計極細
  6
CONTINUOUS
 62
    2
 10
888.93374984125262
 20
505.71732635213544
 11
882.93374984125251
 21
505.71732635213544
  0
LINE
  8
_0-0_計極細
  6
CONTINUOUS
 62
    2
 10
874.93374984125251
 20
510.71732635213544
 11
868.93374984125262
 21
510.71732635213544
  0
LINE
  8
_0-0_計極細
  6
CONTINUOUS
 62
    2
 10
874.93374984125251
 20
505.71732635213544
 11
868.93374984125262
 21
505.71732635213544
  0
LINE
  8
_0-0_計極細
  6
CONTINUOUS
 62
    2
 10
860.93374984125262
 20
510.71732635213544
 11
854.93374984125251
 21
510.71732635213544
  0
LINE
  8
_0-0_計極細
  6
CONTINUOUS
 62
    2
 10
860.93374984125262
 20
505.71732635213544
 11
854.93374984125251
 21
505.71732635213544
  0
LINE
  8
_0-0_計極細
  6
CONTINUOUS
 62
    2
 10
846.93374984125262
 20
510.71732635213544
 11
840.93374984125262
 21
510.71732635213544
  0
LINE
  8
_0-0_計極細
  6
CONTINUOUS
 62
    2
 10
846.93374984125262
 20
505.71732635213544
 11
840.93374984125262
 21
505.71732635213544
  0
LINE
  8
_0-0_計極細
  6
CONTINUOUS
 62
    2
 10
832.93374984125251
 20
510.71732635213544
 11
826.93374984125262
 21
510.71732635213544
  0
LINE
  8
_0-0_計極細
  6
CONTINUOUS
 62
    2
 10
832.93374984125251
 20
505.71732635213544
 11
826.93374984125262
 21
505.71732635213544
  0
LINE
  8
_0-0_計極細
  6
CONTINUOUS
 62
    2
 10
818.93374984125262
 20
510.71732635213544
 11
812.93374984125251
 21
510.71732635213544
  0
LINE
  8
_0-0_計極細
  6
CONTINUOUS
 62
    2
 10
818.93374984125262
 20
505.71732635213544
 11
812.93374984125251
 21
505.71732635213544
  0
LINE
  8
_0-0_計極細
  6
CONTINUOUS
 62
    2
 10
804.93374984125251
 20
510.71732635213544
 11
798.93374984125262
 21
510.71732635213544
  0
LINE
  8
_0-0_計極細
  6
CONTINUOUS
 62
    2
 10
804.93374984125251
 20
505.71732635213544
 11
798.93374984125262
 21
505.71732635213544
  0
LINE
  8
_0-0_計極細
  6
CONTINUOUS
 62
    2
 10
790.93374984125262
 20
510.71732635213544
 11
784.93374984125251
 21
510.71732635213544
  0
LINE
  8
_0-0_計極細
  6
CONTINUOUS
 62
    2
 10
790.93374984125262
 20
505.71732635213544
 11
784.93374984125251
 21
505.71732635213544
  0
LINE
  8
_0-0_計極細
  6
CONTINUOUS
 62
    2
 10
776.93374984125262
 20
510.71732635213544
 11
770.93374984125262
 21
510.71732635213544
  0
LINE
  8
_0-0_計極細
  6
CONTINUOUS
 62
    2
 10
776.93374984125262
 20
505.71732635213544
 11
770.93374984125262
 21
505.71732635213544
  0
LINE
  8
_0-0_計極細
  6
CONTINUOUS
 62
    2
 10
762.93374984125251
 20
510.71732635213544
 11
756.93374984125262
 21
510.71732635213544
  0
LINE
  8
_0-0_計極細
  6
CONTINUOUS
 62
    2
 10
762.93374984125251
 20
505.71732635213544
 11
756.93374984125262
 21
505.71732635213544
  0
LINE
  8
_0-0_計極細
  6
CONTINUOUS
 62
    2
 10
748.93374984125262
 20
510.71732635213544
 11
742.93374984125251
 21
510.71732635213544
  0
LINE
  8
_0-0_計極細
  6
CONTINUOUS
 62
    2
 10
748.93374984125262
 20
505.71732635213544
 11
742.93374984125251
 21
505.71732635213544
  0
LINE
  8
_0-0_計極細
  6
CONTINUOUS
 62
    2
 10
734.93374984125251
 20
510.71732635213544
 11
728.93374984125262
 21
510.71732635213544
  0
LINE
  8
_0-0_計極細
  6
CONTINUOUS
 62
    2
 10
734.93374984125251
 20
505.71732635213544
 11
728.93374984125262
 21
505.71732635213544
  0
LINE
  8
_0-0_計極細
  6
CONTINUOUS
 62
    2
 10
720.93374984125251
 20
510.71732635213544
 11
714.93374984125251
 21
510.71732635213544
  0
LINE
  8
_0-0_計極細
  6
CONTINUOUS
 62
    2
 10
720.93374984125251
 20
505.71732635213544
 11
714.93374984125251
 21
505.71732635213544
  0
LINE
  8
_0-0_計極細
  6
CONTINUOUS
 62
    2
 10
706.93374984125262
 20
510.71732635213544
 11
700.93374984125251
 21
510.71732635213544
  0
LINE
  8
_0-0_計極細
  6
CONTINUOUS
 62
    2
 10
706.93374984125262
 20
505.71732635213544
 11
700.93374984125251
 21
505.71732635213544
  0
LINE
  8
_0-0_計極細
  6
CONTINUOUS
 62
    2
 10
692.93374984125251
 20
510.71732635213544
 11
686.93374984125262
 21
510.71732635213544
  0
LINE
  8
_0-0_計極細
  6
CONTINUOUS
 62
    2
 10
692.93374984125251
 20
505.71732635213544
 11
686.93374984125262
 21
505.71732635213544
  0
LINE
  8
_0-0_計極細
  6
CONTINUOUS
 62
    2
 10
678.93374984125262
 20
510.71732635213544
 11
672.93374984125251
 21
510.71732635213544
  0
LINE
  8
_0-0_計極細
  6
CONTINUOUS
 62
    2
 10
678.93374984125262
 20
505.71732635213544
 11
672.93374984125251
 21
505.71732635213544
  0
LINE
  8
_0-0_計極細
  6
CONTINUOUS
 62
    2
 10
664.93374984125251
 20
510.71732635213544
 11
658.93374984125262
 21
510.71732635213544
  0
LINE
  8
_0-0_計極細
  6
CONTINUOUS
 62
    2
 10
664.93374984125251
 20
505.71732635213544
 11
658.93374984125262
 21
505.71732635213544
  0
LINE
  8
_0-0_計極細
  6
CONTINUOUS
 62
    2
 10
650.93374984125251
 20
510.71732635213544
 11
644.93374984125251
 21
510.71732635213544
  0
LINE
  8
_0-0_計極細
  6
CONTINUOUS
 62
    2
 10
650.93374984125251
 20
505.71732635213544
 11
644.93374984125251
 21
505.71732635213544
  0
LINE
  8
_0-0_計極細
  6
CONTINUOUS
 62
    2
 10
636.93374984125262
 20
510.71732635213544
 11
630.93374984125251
 21
510.71732635213544
  0
LINE
  8
_0-0_計極細
  6
CONTINUOUS
 62
    2
 10
636.93374984125262
 20
505.71732635213544
 11
630.93374984125251
 21
505.71732635213544
  0
LINE
  8
_0-0_計極細
  6
CONTINUOUS
 62
    2
 10
622.93374984125251
 20
510.71732635213544
 11
616.93374984125262
 21
510.71732635213544
  0
LINE
  8
_0-0_計極細
  6
CONTINUOUS
 62
    2
 10
622.93374984125251
 20
505.71732635213544
 11
616.93374984125262
 21
505.71732635213544
  0
LINE
  8
_0-0_計極細
  6
CONTINUOUS
 62
    2
 10
608.93374984125251
 20
510.71732635213544
 11
602.93374984125251
 21
510.71732635213544
  0
LINE
  8
_0-0_計極細
  6
CONTINUOUS
 62
    2
 10
608.93374984125251
 20
505.71732635213544
 11
602.93374984125251
 21
505.71732635213544
  0
LINE
  8
_0-0_計極細
  6
CONTINUOUS
 62
    2
 10
594.93374984125251
 20
510.71732635213544
 11
588.93374984125251
 21
510.71732635213544
  0
LINE
  8
_0-0_計極細
  6
CONTINUOUS
 62
    2
 10
594.93374984125251
 20
505.71732635213544
 11
588.93374984125251
 21
505.71732635213544
  0
LINE
  8
_0-0_計極細
  6
CONTINUOUS
 62
    2
 10
580.93374984125251
 20
510.71732635213544
 11
574.93374984125251
 21
510.71732635213544
  0
LINE
  8
_0-0_計極細
  6
CONTINUOUS
 62
    2
 10
580.93374984125251
 20
505.71732635213544
 11
574.93374984125251
 21
505.71732635213544
  0
LINE
  8
_0-0_計極細
  6
CONTINUOUS
 62
    2
 10
566.93374984125262
 20
510.71732635213544
 11
560.93374984125251
 21
510.71732635213544
  0
LINE
  8
_0-0_計極細
  6
CONTINUOUS
 62
    2
 10
566.93374984125262
 20
505.71732635213544
 11
560.93374984125251
 21
505.71732635213544
  0
LINE
  8
_0-0_計極細
  6
CONTINUOUS
 62
    2
 10
552.93374984125251
 20
510.71732635213544
 11
546.93374984125262
 21
510.71732635213544
  0
LINE
  8
_0-0_計極細
  6
CONTINUOUS
 62
    2
 10
552.93374984125251
 20
505.71732635213544
 11
546.93374984125262
 21
505.71732635213544
  0
LINE
  8
_0-0_計極細
  6
CONTINUOUS
 62
    2
 10
538.93374984125251
 20
510.71732635213544
 11
532.93374984125251
 21
510.71732635213544
  0
LINE
  8
_0-0_計極細
  6
CONTINUOUS
 62
    2
 10
538.93374984125251
 20
505.71732635213544
 11
532.93374984125251
 21
505.71732635213544
  0
LINE
  8
_0-0_計極細
  6
CONTINUOUS
 62
    2
 10
524.93374984125251
 20
510.71732635213544
 11
518.93374984125251
 21
510.71732635213544
  0
LINE
  8
_0-0_計極細
  6
CONTINUOUS
 62
    2
 10
524.93374984125251
 20
505.71732635213544
 11
518.93374984125251
 21
505.71732635213544
  0
LINE
  8
_0-0_計極細
  6
CONTINUOUS
 62
    2
 10
510.93374984125256
 20
510.71732635213544
 11
504.93374984125251
 21
510.71732635213544
  0
LINE
  8
_0-0_計極細
  6
CONTINUOUS
 62
    2
 10
510.93374984125256
 20
505.71732635213544
 11
504.93374984125251
 21
505.71732635213544
  0
LINE
  8
_0-0_計極細
  6
CONTINUOUS
 62
    2
 10
496.93374984125256
 20
510.71732635213544
 11
490.93374984125256
 21
510.71732635213544
  0
LINE
  8
_0-0_計極細
  6
CONTINUOUS
 62
    2
 10
496.93374984125256
 20
505.71732635213544
 11
490.93374984125256
 21
505.71732635213544
  0
LINE
  8
_0-0_計極細
  6
CONTINUOUS
 62
    2
 10
482.93374984125251
 20
510.71732635213544
 11
476.93374984125256
 21
510.71732635213544
  0
LINE
  8
_0-0_計極細
  6
CONTINUOUS
 62
    2
 10
482.93374984125251
 20
505.71732635213544
 11
476.93374984125256
 21
505.71732635213544
  0
LINE
  8
_0-0_計極細
  6
CONTINUOUS
 62
    2
 10
468.93374984125251
 20
510.71732635213544
 11
462.93374984125251
 21
510.71732635213544
  0
LINE
  8
_0-0_計極細
  6
CONTINUOUS
 62
    2
 10
468.93374984125251
 20
505.71732635213544
 11
462.93374984125251
 21
505.71732635213544
  0
LINE
  8
_0-0_計極細
  6
CONTINUOUS
 62
    2
 10
454.93374984125251
 20
510.71732635213544
 11
448.93374984125251
 21
510.71732635213544
  0
LINE
  8
_0-0_計極細
  6
CONTINUOUS
 62
    2
 10
454.93374984125251
 20
505.71732635213544
 11
448.93374984125251
 21
505.71732635213544
  0
LINE
  8
_0-0_計極細
  6
CONTINUOUS
 62
    2
 10
440.93374984125256
 20
510.71732635213544
 11
434.93374984125251
 21
510.71732635213544
  0
LINE
  8
_0-0_計極細
  6
CONTINUOUS
 62
    2
 10
440.93374984125256
 20
505.71732635213544
 11
434.93374984125251
 21
505.71732635213544
  0
LINE
  8
_0-0_計極細
  6
CONTINUOUS
 62
    2
 10
426.93374984125256
 20
510.71732635213544
 11
420.93374984125234
 21
510.71732635213544
  0
LINE
  8
_0-0_計極細
  6
CONTINUOUS
 62
    2
 10
426.93374984125256
 20
505.71732635213544
 11
420.93374984125234
 21
505.71732635213544
  0
LINE
  8
_0-0_計極細
  6
CONTINUOUS
 62
    2
 10
412.93374984125228
 20
510.71732635213544
 11
406.93374984125228
 21
510.71732635213544
  0
LINE
  8
_0-0_計極細
  6
CONTINUOUS
 62
    2
 10
412.93374984125228
 20
505.71732635213544
 11
406.93374984125228
 21
505.71732635213544
  0
LINE
  8
_0-0_計極細
  6
CONTINUOUS
 62
    2
 10
398.93374984125217
 20
510.71732635213544
 11
392.93374984125222
 21
510.71732635213544
  0
LINE
  8
_0-0_計極細
  6
CONTINUOUS
 62
    2
 10
398.93374984125217
 20
505.71732635213544
 11
392.93374984125222
 21
505.71732635213544
  0
LINE
  8
_0-0_計極細
  6
CONTINUOUS
 62
    2
 10
384.93374984125217
 20
510.71732635213544
 11
378.93374984125217
 21
510.71732635213544
  0
LINE
  8
_0-0_計極細
  6
CONTINUOUS
 62
    2
 10
384.93374984125217
 20
505.71732635213544
 11
378.93374984125217
 21
505.71732635213544
  0
LINE
  8
_0-0_計極細
  6
CONTINUOUS
 62
    2
 10
370.93374984125217
 20
510.71732635213544
 11
364.93374984125217
 21
510.71732635213544
  0
LINE
  8
_0-0_計極細
  6
CONTINUOUS
 62
    2
 10
370.93374984125217
 20
505.71732635213544
 11
364.93374984125217
 21
505.71732635213544
  0
LINE
  8
_0-0_計極細
  6
CONTINUOUS
 62
    2
 10
356.93374984125222
 20
510.71732635213544
 11
350.93374984125217
 21
510.71732635213544
  0
LINE
  8
_0-0_計極細
  6
CONTINUOUS
 62
    2
 10
356.93374984125222
 20
505.71732635213544
 11
350.93374984125217
 21
505.71732635213544
  0
LINE
  8
_0-0_計極細
  6
CONTINUOUS
 62
    2
 10
342.93374984125217
 20
510.71732635213544
 11
336.93374984125222
 21
510.71732635213544
  0
LINE
  8
_0-0_計極細
  6
CONTINUOUS
 62
    2
 10
342.93374984125217
 20
505.71732635213544
 11
336.93374984125222
 21
505.71732635213544
  0
LINE
  8
_0-0_計極細
  6
CONTINUOUS
 62
    2
 10
328.93374984125217
 20
510.71732635213544
 11
322.93374984125217
 21
510.71732635213544
  0
LINE
  8
_0-0_計極細
  6
CONTINUOUS
 62
    2
 10
328.93374984125217
 20
505.71732635213544
 11
322.93374984125217
 21
505.71732635213544
  0
LINE
  8
_0-0_計極細
  6
CONTINUOUS
 62
    2
 10
314.93374984125217
 20
510.71732635213544
 11
308.93374984125217
 21
510.71732635213544
  0
LINE
  8
_0-0_計極細
  6
CONTINUOUS
 62
    2
 10
314.93374984125217
 20
505.71732635213544
 11
308.93374984125217
 21
505.71732635213544
  0
LINE
  8
_0-0_計極細
  6
CONTINUOUS
 62
    2
 10
300.93374984125217
 20
510.71732635213544
 11
294.93374984125217
 21
510.71732635213544
  0
LINE
  8
_0-0_計極細
  6
CONTINUOUS
 62
    2
 10
300.93374984125217
 20
505.71732635213544
 11
294.93374984125217
 21
505.71732635213544
  0
LINE
  8
_0-0_計極細
  6
CONTINUOUS
 62
    2
 10
286.93374984125217
 20
510.71732635213544
 11
280.93374984125217
 21
510.71732635213544
  0
LINE
  8
_0-0_計極細
  6
CONTINUOUS
 62
    2
 10
286.93374984125217
 20
505.71732635213544
 11
280.93374984125217
 21
505.71732635213544
  0
LINE
  8
_0-0_計極細
  6
CONTINUOUS
 62
    2
 10
272.93374984125222
 20
510.71732635213544
 11
266.93374984125217
 21
510.71732635213544
  0
LINE
  8
_0-0_計極細
  6
CONTINUOUS
 62
    2
 10
272.93374984125222
 20
505.71732635213544
 11
266.93374984125217
 21
505.71732635213544
  0
LINE
  8
_0-0_計極細
  6
CONTINUOUS
 62
    2
 10
258.93374984125217
 20
510.71732635213544
 11
252.93374984125222
 21
510.71732635213544
  0
LINE
  8
_0-0_計極細
  6
CONTINUOUS
 62
    2
 10
258.93374984125217
 20
505.71732635213544
 11
252.93374984125222
 21
505.71732635213544
  0
LINE
  8
_0-0_計極細
  6
CONTINUOUS
 62
    2
 10
244.93374984125217
 20
510.71732635213544
 11
238.93374984125217
 21
510.71732635213544
  0
LINE
  8
_0-0_計極細
  6
CONTINUOUS
 62
    2
 10
244.93374984125217
 20
505.71732635213544
 11
238.93374984125217
 21
505.71732635213544
  0
LINE
  8
_0-1_計細線
  6
CONTINUOUS
 62
    3
 10
238.93374984125217
 20
830.21732635213539
 11
238.93374984125217
 21
486.21732635213539
  0
LINE
  8
_0-1_計細線
  6
CONTINUOUS
 62
    3
 10
230.93374984125219
 20
486.21732635213539
 11
230.93374984125219
 21
830.21732635213539
  0
LINE
  8
_0-1_計細線
  6
CONTINUOUS
 62
    3
 10
252.93374984125222
 20
830.21732635213539
 11
252.93374984125222
 21
486.21732635213539
  0
LINE
  8
_0-1_計細線
  6
CONTINUOUS
 62
    3
 10
244.93374984125217
 20
486.21732635213539
 11
244.93374984125217
 21
830.21732635213539
  0
LINE
  8
_0-1_計細線
  6
CONTINUOUS
 62
    3
 10
266.93374984125217
 20
830.21732635213539
 11
266.93374984125217
 21
486.21732635213539
  0
LINE
  8
_0-1_計細線
  6
CONTINUOUS
 62
    3
 10
258.93374984125217
 20
486.21732635213539
 11
258.93374984125217
 21
830.21732635213539
  0
LINE
  8
_0-1_計細線
  6
CONTINUOUS
 62
    3
 10
280.93374984125217
 20
830.21732635213539
 11
280.93374984125217
 21
486.21732635213539
  0
LINE
  8
_0-1_計細線
  6
CONTINUOUS
 62
    3
 10
272.93374984125222
 20
486.21732635213539
 11
272.93374984125222
 21
830.21732635213539
  0
LINE
  8
_0-1_計細線
  6
CONTINUOUS
 62
    3
 10
294.93374984125217
 20
830.21732635213539
 11
294.93374984125217
 21
486.21732635213539
  0
LINE
  8
_0-1_計細線
  6
CONTINUOUS
 62
    3
 10
286.93374984125217
 20
486.21732635213539
 11
286.93374984125217
 21
830.21732635213539
  0
LINE
  8
_0-1_計細線
  6
CONTINUOUS
 62
    3
 10
308.93374984125217
 20
830.21732635213539
 11
308.93374984125217
 21
486.21732635213539
  0
LINE
  8
_0-1_計細線
  6
CONTINUOUS
 62
    3
 10
300.93374984125217
 20
486.21732635213539
 11
300.93374984125217
 21
830.21732635213539
  0
LINE
  8
_0-1_計細線
  6
CONTINUOUS
 62
    3
 10
322.93374984125217
 20
830.21732635213539
 11
322.93374984125217
 21
486.21732635213539
  0
LINE
  8
_0-1_計細線
  6
CONTINUOUS
 62
    3
 10
314.93374984125217
 20
486.21732635213539
 11
314.93374984125217
 21
830.21732635213539
  0
LINE
  8
_0-1_計細線
  6
CONTINUOUS
 62
    3
 10
336.93374984125222
 20
830.21732635213539
 11
336.93374984125222
 21
486.21732635213539
  0
LINE
  8
_0-1_計細線
  6
CONTINUOUS
 62
    3
 10
328.93374984125217
 20
486.21732635213539
 11
328.93374984125217
 21
830.21732635213539
  0
LINE
  8
_0-1_計細線
  6
CONTINUOUS
 62
    3
 10
350.93374984125217
 20
830.21732635213539
 11
350.93374984125217
 21
486.21732635213539
  0
LINE
  8
_0-1_計細線
  6
CONTINUOUS
 62
    3
 10
342.93374984125217
 20
486.21732635213539
 11
342.93374984125217
 21
830.21732635213539
  0
LINE
  8
_0-1_計細線
  6
CONTINUOUS
 62
    3
 10
364.93374984125217
 20
830.21732635213539
 11
364.93374984125217
 21
486.21732635213539
  0
LINE
  8
_0-1_計細線
  6
CONTINUOUS
 62
    3
 10
356.93374984125222
 20
486.21732635213539
 11
356.93374984125222
 21
830.21732635213539
  0
LINE
  8
_0-1_計細線
  6
CONTINUOUS
 62
    3
 10
378.93374984125217
 20
830.21732635213539
 11
378.93374984125217
 21
486.21732635213539
  0
LINE
  8
_0-1_計細線
  6
CONTINUOUS
 62
    3
 10
370.93374984125217
 20
486.21732635213539
 11
370.93374984125217
 21
830.21732635213539
  0
LINE
  8
_0-1_計細線
  6
CONTINUOUS
 62
    3
 10
392.93374984125222
 20
830.21732635213539
 11
392.93374984125222
 21
486.21732635213539
  0
LINE
  8
_0-1_計細線
  6
CONTINUOUS
 62
    3
 10
384.93374984125217
 20
486.21732635213539
 11
384.93374984125217
 21
830.21732635213539
  0
LINE
  8
_0-1_計細線
  6
CONTINUOUS
 62
    3
 10
406.93374984125228
 20
830.21732635213539
 11
406.93374984125228
 21
486.21732635213539
  0
LINE
  8
_0-1_計細線
  6
CONTINUOUS
 62
    3
 10
398.93374984125217
 20
486.21732635213539
 11
398.93374984125217
 21
830.21732635213539
  0
LINE
  8
_0-1_計細線
  6
CONTINUOUS
 62
    3
 10
420.93374984125234
 20
830.21732635213539
 11
420.93374984125234
 21
486.21732635213539
  0
LINE
  8
_0-1_計細線
  6
CONTINUOUS
 62
    3
 10
412.93374984125228
 20
486.21732635213539
 11
412.93374984125228
 21
830.21732635213539
  0
LINE
  8
_0-1_計細線
  6
CONTINUOUS
 62
    3
 10
434.93374984125251
 20
830.21732635213539
 11
434.93374984125251
 21
486.21732635213539
  0
LINE
  8
_0-1_計細線
  6
CONTINUOUS
 62
    3
 10
426.93374984125256
 20
486.21732635213539
 11
426.93374984125256
 21
830.21732635213539
  0
LINE
  8
_0-1_計細線
  6
CONTINUOUS
 62
    3
 10
448.93374984125251
 20
830.21732635213539
 11
448.93374984125251
 21
486.21732635213539
  0
LINE
  8
_0-1_計細線
  6
CONTINUOUS
 62
    3
 10
440.93374984125256
 20
486.21732635213539
 11
440.93374984125256
 21
830.21732635213539
  0
LINE
  8
_0-1_計細線
  6
CONTINUOUS
 62
    3
 10
462.93374984125251
 20
830.21732635213539
 11
462.93374984125251
 21
486.21732635213539
  0
LINE
  8
_0-1_計細線
  6
CONTINUOUS
 62
    3
 10
454.93374984125251
 20
486.21732635213539
 11
454.93374984125251
 21
830.21732635213539
  0
LINE
  8
_0-1_計細線
  6
CONTINUOUS
 62
    3
 10
476.93374984125256
 20
830.21732635213539
 11
476.93374984125256
 21
486.21732635213539
  0
LINE
  8
_0-1_計細線
  6
CONTINUOUS
 62
    3
 10
468.93374984125251
 20
486.21732635213539
 11
468.93374984125251
 21
830.21732635213539
  0
LINE
  8
_0-1_計細線
  6
CONTINUOUS
 62
    3
 10
490.93374984125256
 20
830.21732635213539
 11
490.93374984125256
 21
486.21732635213539
  0
LINE
  8
_0-1_計細線
  6
CONTINUOUS
 62
    3
 10
482.93374984125251
 20
486.21732635213539
 11
482.93374984125251
 21
830.21732635213539
  0
LINE
  8
_0-1_計細線
  6
CONTINUOUS
 62
    3
 10
504.93374984125251
 20
830.21732635213539
 11
504.93374984125251
 21
486.21732635213539
  0
LINE
  8
_0-1_計細線
  6
CONTINUOUS
 62
    3
 10
496.93374984125256
 20
486.21732635213539
 11
496.93374984125256
 21
830.21732635213539
  0
LINE
  8
_0-1_計細線
  6
CONTINUOUS
 62
    3
 10
518.93374984125251
 20
830.21732635213539
 11
518.93374984125251
 21
486.21732635213539
  0
LINE
  8
_0-1_計細線
  6
CONTINUOUS
 62
    3
 10
510.93374984125256
 20
486.21732635213539
 11
510.93374984125256
 21
830.21732635213539
  0
LINE
  8
_0-1_計細線
  6
CONTINUOUS
 62
    3
 10
532.93374984125251
 20
830.21732635213539
 11
532.93374984125251
 21
486.21732635213539
  0
LINE
  8
_0-1_計細線
  6
CONTINUOUS
 62
    3
 10
524.93374984125251
 20
486.21732635213539
 11
524.93374984125251
 21
830.21732635213539
  0
LINE
  8
_0-1_計細線
  6
CONTINUOUS
 62
    3
 10
546.93374984125262
 20
830.21732635213539
 11
546.93374984125262
 21
486.21732635213539
  0
LINE
  8
_0-1_計細線
  6
CONTINUOUS
 62
    3
 10
538.93374984125251
 20
486.21732635213539
 11
538.93374984125251
 21
830.21732635213539
  0
LINE
  8
_0-1_計細線
  6
CONTINUOUS
 62
    3
 10
560.93374984125251
 20
830.21732635213539
 11
560.93374984125251
 21
486.21732635213539
  0
LINE
  8
_0-1_計細線
  6
CONTINUOUS
 62
    3
 10
552.93374984125251
 20
486.21732635213539
 11
552.93374984125251
 21
830.21732635213539
  0
LINE
  8
_0-1_計細線
  6
CONTINUOUS
 62
    3
 10
574.93374984125251
 20
830.21732635213539
 11
574.93374984125251
 21
486.21732635213539
  0
LINE
  8
_0-1_計細線
  6
CONTINUOUS
 62
    3
 10
566.93374984125262
 20
486.21732635213539
 11
566.93374984125262
 21
830.21732635213539
  0
LINE
  8
_0-1_計細線
  6
CONTINUOUS
 62
    3
 10
588.93374984125251
 20
830.21732635213539
 11
588.93374984125251
 21
486.21732635213539
  0
LINE
  8
_0-1_計細線
  6
CONTINUOUS
 62
    3
 10
580.93374984125251
 20
486.21732635213539
 11
580.93374984125251
 21
830.21732635213539
  0
LINE
  8
_0-1_計細線
  6
CONTINUOUS
 62
    3
 10
602.93374984125251
 20
830.21732635213539
 11
602.93374984125251
 21
486.21732635213539
  0
LINE
  8
_0-1_計細線
  6
CONTINUOUS
 62
    3
 10
594.93374984125251
 20
486.21732635213539
 11
594.93374984125251
 21
830.21732635213539
  0
LINE
  8
_0-1_計細線
  6
CONTINUOUS
 62
    3
 10
616.93374984125262
 20
830.21732635213539
 11
616.93374984125262
 21
486.21732635213539
  0
LINE
  8
_0-1_計細線
  6
CONTINUOUS
 62
    3
 10
608.93374984125251
 20
486.21732635213539
 11
608.93374984125251
 21
830.21732635213539
  0
LINE
  8
_0-1_計細線
  6
CONTINUOUS
 62
    3
 10
630.93374984125251
 20
830.21732635213539
 11
630.93374984125251
 21
486.21732635213539
  0
LINE
  8
_0-1_計細線
  6
CONTINUOUS
 62
    3
 10
622.93374984125251
 20
486.21732635213539
 11
622.93374984125251
 21
830.21732635213539
  0
LINE
  8
_0-1_計細線
  6
CONTINUOUS
 62
    3
 10
644.93374984125251
 20
830.21732635213539
 11
644.93374984125251
 21
486.21732635213539
  0
LINE
  8
_0-1_計細線
  6
CONTINUOUS
 62
    3
 10
636.93374984125262
 20
486.21732635213539
 11
636.93374984125262
 21
830.21732635213539
  0
LINE
  8
_0-1_計細線
  6
CONTINUOUS
 62
    3
 10
658.93374984125262
 20
830.21732635213539
 11
658.93374984125262
 21
486.21732635213539
  0
LINE
  8
_0-1_計細線
  6
CONTINUOUS
 62
    3
 10
650.93374984125251
 20
486.21732635213539
 11
650.93374984125251
 21
830.21732635213539
  0
LINE
  8
_0-1_計細線
  6
CONTINUOUS
 62
    3
 10
672.93374984125251
 20
830.21732635213539
 11
672.93374984125251
 21
486.21732635213539
  0
LINE
  8
_0-1_計細線
  6
CONTINUOUS
 62
    3
 10
664.93374984125251
 20
486.21732635213539
 11
664.93374984125251
 21
830.21732635213539
  0
LINE
  8
_0-1_計細線
  6
CONTINUOUS
 62
    3
 10
686.93374984125262
 20
830.21732635213539
 11
686.93374984125262
 21
486.21732635213539
  0
LINE
  8
_0-1_計細線
  6
CONTINUOUS
 62
    3
 10
678.93374984125262
 20
486.21732635213539
 11
678.93374984125262
 21
830.21732635213539
  0
LINE
  8
_0-1_計細線
  6
CONTINUOUS
 62
    3
 10
700.93374984125251
 20
830.21732635213539
 11
700.93374984125251
 21
486.21732635213539
  0
LINE
  8
_0-1_計細線
  6
CONTINUOUS
 62
    3
 10
692.93374984125251
 20
486.21732635213539
 11
692.93374984125251
 21
830.21732635213539
  0
LINE
  8
_0-1_計細線
  6
CONTINUOUS
 62
    3
 10
714.93374984125251
 20
830.21732635213539
 11
714.93374984125251
 21
486.21732635213539
  0
LINE
  8
_0-1_計細線
  6
CONTINUOUS
 62
    3
 10
706.93374984125262
 20
486.21732635213539
 11
706.93374984125262
 21
830.21732635213539
  0
LINE
  8
_0-1_計細線
  6
CONTINUOUS
 62
    3
 10
728.93374984125262
 20
830.21732635213539
 11
728.93374984125262
 21
486.21732635213539
  0
LINE
  8
_0-1_計細線
  6
CONTINUOUS
 62
    3
 10
720.93374984125251
 20
486.21732635213539
 11
720.93374984125251
 21
830.21732635213539
  0
LINE
  8
_0-1_計細線
  6
CONTINUOUS
 62
    3
 10
742.93374984125251
 20
830.21732635213539
 11
742.93374984125251
 21
486.21732635213539
  0
LINE
  8
_0-1_計細線
  6
CONTINUOUS
 62
    3
 10
734.93374984125251
 20
486.21732635213539
 11
734.93374984125251
 21
830.21732635213539
  0
LINE
  8
_0-1_計細線
  6
CONTINUOUS
 62
    3
 10
756.93374984125262
 20
830.21732635213539
 11
756.93374984125262
 21
486.21732635213539
  0
LINE
  8
_0-1_計細線
  6
CONTINUOUS
 62
    3
 10
748.93374984125262
 20
486.21732635213539
 11
748.93374984125262
 21
830.21732635213539
  0
LINE
  8
_0-1_計細線
  6
CONTINUOUS
 62
    3
 10
770.93374984125262
 20
830.21732635213539
 11
770.93374984125262
 21
486.21732635213539
  0
LINE
  8
_0-1_計細線
  6
CONTINUOUS
 62
    3
 10
762.93374984125251
 20
486.21732635213539
 11
762.93374984125251
 21
830.21732635213539
  0
LINE
  8
_0-1_計細線
  6
CONTINUOUS
 62
    3
 10
784.93374984125251
 20
830.21732635213539
 11
784.93374984125251
 21
486.21732635213539
  0
LINE
  8
_0-1_計細線
  6
CONTINUOUS
 62
    3
 10
776.93374984125262
 20
486.21732635213539
 11
776.93374984125262
 21
830.21732635213539
  0
LINE
  8
_0-1_計細線
  6
CONTINUOUS
 62
    3
 10
798.93374984125262
 20
830.21732635213539
 11
798.93374984125262
 21
486.21732635213539
  0
LINE
  8
_0-1_計細線
  6
CONTINUOUS
 62
    3
 10
790.93374984125262
 20
486.21732635213539
 11
790.93374984125262
 21
830.21732635213539
  0
LINE
  8
_0-1_計細線
  6
CONTINUOUS
 62
    3
 10
812.93374984125251
 20
830.21732635213539
 11
812.93374984125251
 21
486.21732635213539
  0
LINE
  8
_0-1_計細線
  6
CONTINUOUS
 62
    3
 10
804.93374984125251
 20
486.21732635213539
 11
804.93374984125251
 21
830.21732635213539
  0
LINE
  8
_0-1_計細線
  6
CONTINUOUS
 62
    3
 10
826.93374984125262
 20
830.21732635213539
 11
826.93374984125262
 21
486.21732635213539
  0
LINE
  8
_0-1_計細線
  6
CONTINUOUS
 62
    3
 10
818.93374984125262
 20
486.21732635213539
 11
818.93374984125262
 21
830.21732635213539
  0
LINE
  8
_0-1_計細線
  6
CONTINUOUS
 62
    3
 10
840.93374984125262
 20
830.21732635213539
 11
840.93374984125262
 21
486.21732635213539
  0
LINE
  8
_0-1_計細線
  6
CONTINUOUS
 62
    3
 10
832.93374984125251
 20
486.21732635213539
 11
832.93374984125251
 21
830.21732635213539
  0
LINE
  8
_0-1_計細線
  6
CONTINUOUS
 62
    3
 10
854.93374984125251
 20
830.21732635213539
 11
854.93374984125251
 21
486.21732635213539
  0
LINE
  8
_0-1_計細線
  6
CONTINUOUS
 62
    3
 10
846.93374984125262
 20
486.21732635213539
 11
846.93374984125262
 21
830.21732635213539
  0
LINE
  8
_0-1_計細線
  6
CONTINUOUS
 62
    3
 10
868.93374984125262
 20
830.21732635213539
 11
868.93374984125262
 21
486.21732635213539
  0
LINE
  8
_0-1_計細線
  6
CONTINUOUS
 62
    3
 10
860.93374984125262
 20
486.21732635213539
 11
860.93374984125262
 21
830.21732635213539
  0
LINE
  8
_0-1_計細線
  6
CONTINUOUS
 62
    3
 10
882.93374984125251
 20
830.21732635213539
 11
882.93374984125251
 21
486.21732635213539
  0
LINE
  8
_0-1_計細線
  6
CONTINUOUS
 62
    3
 10
874.93374984125251
 20
486.21732635213539
 11
874.93374984125251
 21
830.21732635213539
  0
LINE
  8
_0-1_計細線
  6
CONTINUOUS
 62
    3
 10
896.93374984125262
 20
830.21732635213539
 11
896.93374984125262
 21
486.21732635213539
  0
LINE
  8
_0-1_計細線
  6
CONTINUOUS
 62
    3
 10
888.93374984125262
 20
486.21732635213539
 11
888.93374984125262
 21
830.21732635213539
  0
LINE
  8
_0-1_計細線
  6
CONTINUOUS
 62
    3
 10
910.93374984125262
 20
830.21732635213539
 11
910.93374984125262
 21
486.21732635213539
  0
LINE
  8
_0-1_計細線
  6
CONTINUOUS
 62
    3
 10
902.93374984125251
 20
486.21732635213539
 11
902.93374984125251
 21
830.21732635213539
  0
LINE
  8
_0-1_計細線
  6
CONTINUOUS
 62
    3
 10
924.93374984125251
 20
830.21732635213539
 11
924.93374984125251
 21
486.21732635213539
  0
LINE
  8
_0-1_計細線
  6
CONTINUOUS
 62
    3
 10
916.93374984125262
 20
486.21732635213539
 11
916.93374984125262
 21
830.21732635213539
  0
LINE
  8
_0-1_計細線
  6
CONTINUOUS
 62
    3
 10
938.93374984125262
 20
830.21732635213539
 11
938.93374984125262
 21
486.21732635213539
  0
LINE
  8
_0-1_計細線
  6
CONTINUOUS
 62
    3
 10
930.93374984125262
 20
486.21732635213539
 11
930.93374984125262
 21
830.21732635213539
  0
LINE
  8
_0-1_計細線
  6
CONTINUOUS
 62
    3
 10
952.93374984125251
 20
830.21732635213539
 11
952.93374984125251
 21
486.21732635213539
  0
LINE
  8
_0-1_計細線
  6
CONTINUOUS
 62
    3
 10
944.93374984125251
 20
486.21732635213539
 11
944.93374984125251
 21
830.21732635213539
  0
LINE
  8
_0-1_計細線
  6
CONTINUOUS
 62
    3
 10
966.93374984125262
 20
830.21732635213539
 11
966.93374984125262
 21
486.21732635213539
  0
LINE
  8
_0-1_計細線
  6
CONTINUOUS
 62
    3
 10
958.93374984125262
 20
486.21732635213539
 11
958.93374984125262
 21
830.21732635213539
  0
LINE
  8
_0-1_計細線
  6
CONTINUOUS
 62
    3
 10
980.93374984125262
 20
830.21732635213539
 11
980.93374984125262
 21
486.21732635213539
  0
LINE
  8
_0-1_計細線
  6
CONTINUOUS
 62
    3
 10
972.93374984125251
 20
486.21732635213539
 11
972.93374984125251
 21
830.21732635213539
  0
LINE
  8
_0-1_計細線
  6
CONTINUOUS
 62
    3
 10
994.93374984125251
 20
830.21732635213539
 11
994.93374984125251
 21
486.21732635213539
  0
LINE
  8
_0-1_計細線
  6
CONTINUOUS
 62
    3
 10
986.93374984125262
 20
486.21732635213539
 11
986.93374984125262
 21
830.21732635213539
  0
LINE
  8
_0-1_計細線
  6
CONTINUOUS
 62
    3
 10
1008.9337498412526
 20
830.21732635213539
 11
1008.9337498412526
 21
486.21732635213539
  0
LINE
  8
_0-1_計細線
  6
CONTINUOUS
 62
    3
 10
1000.9337498412526
 20
486.21732635213539
 11
1000.9337498412526
 21
830.21732635213539
  0
LINE
  8
_0-1_計細線
  6
CONTINUOUS
 62
    3
 10
1022.9337498412525
 20
830.21732635213539
 11
1022.9337498412525
 21
486.21732635213539
  0
LINE
  8
_0-1_計細線
  6
CONTINUOUS
 62
    3
 10
1014.9337498412525
 20
486.21732635213539
 11
1014.9337498412525
 21
830.21732635213539
  0
LINE
  8
_0-1_計細線
  6
CONTINUOUS
 62
    3
 10
1036.9337498412524
 20
830.21732635213539
 11
1036.9337498412524
 21
486.21732635213539
  0
LINE
  8
_0-1_計細線
  6
CONTINUOUS
 62
    3
 10
1028.9337498412524
 20
486.21732635213539
 11
1028.9337498412524
 21
830.21732635213539
  0
LINE
  8
_0-1_計細線
  6
CONTINUOUS
 62
    3
 10
1050.9337498412524
 20
830.21732635213539
 11
1050.9337498412524
 21
486.21732635213539
  0
LINE
  8
_0-1_計細線
  6
CONTINUOUS
 62
    3
 10
1042.9337498412524
 20
486.21732635213539
 11
1042.9337498412524
 21
830.21732635213539
  0
LINE
  8
_0-1_計細線
  6
CONTINUOUS
 62
    3
 10
1064.9337498412524
 20
830.21732635213539
 11
1064.9337498412524
 21
486.21732635213539
  0
LINE
  8
_0-1_計細線
  6
CONTINUOUS
 62
    3
 10
1056.9337498412524
 20
486.21732635213539
 11
1056.9337498412524
 21
830.21732635213539
  0
LINE
  8
_0-1_計細線
  6
CONTINUOUS
 62
    3
 10
1078.9337498412524
 20
830.21732635213539
 11
1078.9337498412524
 21
486.21732635213539
  0
LINE
  8
_0-1_計細線
  6
CONTINUOUS
 62
    3
 10
1070.9337498412524
 20
486.21732635213539
 11
1070.9337498412524
 21
830.21732635213539
  0
LINE
  8
_0-1_計細線
  6
CONTINUOUS
 62
    3
 10
1092.9337498412524
 20
830.21732635213539
 11
1092.9337498412524
 21
486.21732635213539
  0
LINE
  8
_0-1_計細線
  6
CONTINUOUS
 62
    3
 10
1084.9337498412524
 20
486.21732635213539
 11
1084.9337498412524
 21
830.21732635213539
  0
LINE
  8
_0-1_計細線
  6
CONTINUOUS
 62
    3
 10
1106.9337498412524
 20
830.21732635213539
 11
1106.9337498412524
 21
486.21732635213539
  0
LINE
  8
_0-1_計細線
  6
CONTINUOUS
 62
    3
 10
1098.9337498412524
 20
486.21732635213539
 11
1098.9337498412524
 21
830.21732635213539
  0
LINE
  8
_0-1_計細線
  6
CONTINUOUS
 62
    3
 10
1120.9337498412524
 20
830.21732635213539
 11
1120.9337498412524
 21
486.21732635213539
  0
LINE
  8
_0-1_計細線
  6
CONTINUOUS
 62
    3
 10
1112.9337498412524
 20
486.21732635213539
 11
1112.9337498412524
 21
830.21732635213539
  0
LINE
  8
_0-1_計細線
  6
CONTINUOUS
 62
    3
 10
1134.9337498412515
 20
830.21732635213539
 11
1134.9337498412515
 21
486.21732635213539
  0
LINE
  8
_0-1_計細線
  6
CONTINUOUS
 62
    3
 10
1126.9337498412515
 20
486.21732635213539
 11
1126.9337498412515
 21
830.21732635213539
  0
LINE
  8
_0-1_計細線
  6
CONTINUOUS
 62
    3
 10
1148.9337498412515
 20
830.21732635213539
 11
1148.9337498412515
 21
486.21732635213539
  0
LINE
  8
_0-1_計細線
  6
CONTINUOUS
 62
    3
 10
1140.9337498412515
 20
486.21732635213539
 11
1140.9337498412515
 21
830.21732635213539
  0
LINE
  8
_0-1_計細線
  6
CONTINUOUS
 62
    3
 10
1162.9337498412515
 20
830.21732635213539
 11
1162.9337498412515
 21
486.21732635213539
  0
LINE
  8
_0-1_計細線
  6
CONTINUOUS
 62
    3
 10
1154.9337498412515
 20
486.21732635213539
 11
1154.9337498412515
 21
830.21732635213539
  0
LINE
  8
_0-1_計細線
  6
CONTINUOUS
 62
    3
 10
1176.9337498412515
 20
830.21732635213539
 11
1176.9337498412515
 21
486.21732635213539
  0
LINE
  8
_0-1_計細線
  6
CONTINUOUS
 62
    3
 10
1168.9337498412515
 20
486.21732635213539
 11
1168.9337498412515
 21
830.21732635213539
  0
LINE
  8
_0-1_計細線
  6
CONTINUOUS
 62
    3
 10
1190.9337498412515
 20
830.21732635213539
 11
1190.9337498412515
 21
486.21732635213539
  0
LINE
  8
_0-1_計細線
  6
CONTINUOUS
 62
    3
 10
1182.9337498412515
 20
486.21732635213539
 11
1182.9337498412515
 21
830.21732635213539
  0
LINE
  8
_0-1_計細線
  6
CONTINUOUS
 62
    3
 10
1204.9337498412515
 20
830.21732635213539
 11
1204.9337498412515
 21
486.21732635213539
  0
LINE
  8
_0-1_計細線
  6
CONTINUOUS
 62
    3
 10
1196.9337498412515
 20
486.21732635213539
 11
1196.9337498412515
 21
830.21732635213539
  0
LINE
  8
_0-1_計細線
  6
CONTINUOUS
 62
    3
 10
1218.9337498412515
 20
830.21732635213539
 11
1218.9337498412515
 21
486.21732635213539
  0
LINE
  8
_0-1_計細線
  6
CONTINUOUS
 62
    3
 10
1210.9337498412515
 20
486.21732635213539
 11
1210.9337498412515
 21
830.21732635213539
  0
LINE
  8
_0-5_寸法線
  6
CONTINUOUS
 62
    7
 10
1258.9337498412517
 20
478.21732635213539
 11
1338.9337498412519
 21
478.21732635213516
  0
LINE
  8
_0-5_寸法線
  6
CONTINUOUS
 62
    7
 10
1333.9337498412519
 20
478.21732635213516
 11
1331.3455593902268
 21
487.87658461502582
  0
LINE
  8
_0-5_寸法線
  6
CONTINUOUS
 62
    7
 10
1333.9337498412519
 20
478.21732635213516
 11
1336.5219402922773
 21
487.87658461502582
  0
LINE
  8
_0-5_寸法線
  6
CONTINUOUS
 62
    7
 10
1258.9337498412533
 20
838.21732635213823
 11
1338.9337498412519
 21
838.21732635213789
  0
LINE
  8
_0-5_寸法線
  6
CONTINUOUS
 62
    7
 10
1333.9337498412519
 20
838.21732635213789
 11
1336.5219402922773
 21
828.55806808924729
  0
LINE
  8
_0-5_寸法線
  6
CONTINUOUS
 62
    7
 10
1333.9337498412519
 20
838.21732635213789
 11
1331.3455593902268
 21
828.55806808924729
  0
LINE
  8
_0-5_寸法線
  6
CONTINUOUS
 62
    7
 10
1333.9337498412519
 20
478.21732635213516
 11
1333.9337498412519
 21
838.21732635213789
  0
TEXT
  8
_0-5_寸法線
 62
    7
 10
1333.9337498412519
 20
646.96732635213471
 40
15
 41
1
 50
90
  1
360
  0
LINE
  8
_0-5_寸法線
  6
CONTINUOUS
 62
    7
 10
190.93374984125262
 20
478.21732635213613
 11
145.93374984125148
 21
478.2173263521363
  0
LINE
  8
_0-5_寸法線
  6
CONTINUOUS
 62
    7
 10
150.93374984125148
 20
478.2173263521363
 11
148.3455593902263
 21
487.87658461502696
  0
LINE
  8
_0-5_寸法線
  6
CONTINUOUS
 62
    7
 10
150.93374984125148
 20
478.2173263521363
 11
153.52194029227667
 21
487.87658461502696
  0
LINE
  8
_0-5_寸法線
  6
CONTINUOUS
 62
    7
 10
190.93374984125148
 20
508.21732635213556
 11
145.93374984125148
 21
508.21732635213579
  0
LINE
  8
_0-5_寸法線
  6
CONTINUOUS
 62
    7
 10
150.93374984125148
 20
508.21732635213579
 11
153.52194029227661
 21
498.55806808924507
  0
LINE
  8
_0-5_寸法線
  6
CONTINUOUS
 62
    7
 10
150.93374984125148
 20
508.21732635213579
 11
148.34555939022621
 21
498.55806808924513
  0
LINE
  8
_0-5_寸法線
  6
CONTINUOUS
 62
    7
 10
150.93374984125148
 20
478.2173263521363
 11
150.93374984125148
 21
508.21732635213579
  0
TEXT
  8
_0-5_寸法線
 62
    7
 10
150.93374984125148
 20
485.71732635213465
 40
15
 41
1
 50
90
  1
30
  0
LINE
  8
_0-5_寸法線
  6
CONTINUOUS
 62
    7
 10
150.93374984125148
 20
508.21732635213579
 11
148.3455593902263
 21
517.87658461502645
  0
LINE
  8
_0-5_寸法線
  6
CONTINUOUS
 62
    7
 10
150.93374984125148
 20
508.21732635213579
 11
153.52194029227667
 21
517.87658461502645
  0
LINE
  8
_0-5_寸法線
  6
CONTINUOUS
 62
    7
 10
190.93374984125177
 20
808.21732635213402
 11
145.93374984125171
 21
808.21732635213425
  0
LINE
  8
_0-5_寸法線
  6
CONTINUOUS
 62
    7
 10
150.93374984125171
 20
808.21732635213425
 11
153.52194029227689
 21
798.55806808924342
  0
LINE
  8
_0-5_寸法線
  6
CONTINUOUS
 62
    7
 10
150.93374984125171
 20
808.21732635213425
 11
148.3455593902265
 21
798.55806808924342
  0
LINE
  8
_0-5_寸法線
  6
CONTINUOUS
 62
    7
 10
150.93374984125148
 20
508.21732635213579
 11
150.93374984125171
 21
808.21732635213425
  0
TEXT
  8
_0-5_寸法線
 62
    7
 10
150.93374984125148
 20
646.96732635213448
 40
15
 41
1
 50
90
  1
300
  0
LINE
  8
_0-5_寸法線
  6
CONTINUOUS
 62
    7
 10
150.93374984125171
 20
808.21732635213425
 11
148.3455593902265
 21
817.87658461502485
  0
LINE
  8
_0-5_寸法線
  6
CONTINUOUS
 62
    7
 10
150.93374984125171
 20
808.21732635213425
 11
153.52194029227689
 21
817.87658461502485
  0
LINE
  8
_0-5_寸法線
  6
CONTINUOUS
 62
    7
 10
190.93374984125305
 20
838.21732635213732
 11
145.93374984125171
 21
838.21732635213743
  0
LINE
  8
_0-5_寸法線
  6
CONTINUOUS
 62
    7
 10
150.93374984125171
 20
838.21732635213743
 11
153.52194029227689
 21
828.55806808924683
  0
LINE
  8
_0-5_寸法線
  6
CONTINUOUS
 62
    7
 10
150.93374984125171
 20
838.21732635213743
 11
148.3455593902265
 21
828.55806808924683
  0
LINE
  8
_0-5_寸法線
  6
CONTINUOUS
 62
    7
 10
150.93374984125171
 20
808.21732635213425
 11
150.93374984125171
 21
838.21732635213743
  0
TEXT
  8
_0-5_寸法線
 62
    7
 10
150.93374984125171
 20
815.71732635213539
 40
15
 41
1
 50
90
  1
30
  0
LINE
  8
_0-5_寸法線
  6
CONTINUOUS
 62
    7
 10
563.86406610401366
 20
479.59530870156823
 11
568.86406611513803
 21
470.9350546701466
  0
LINE
  8
_0-5_寸法線
  6
CONTINUOUS
 62
    7
 10
563.86406610401366
 20
479.59530870156823
 11
563.86406611685902
 21
469.59530870156823
  0
LINE
  8
_0-5_寸法線
  6
CONTINUOUS
 62
    7
 10
563.86406610401366
 20
479.59530870156823
 11
573.22287676278643
 21
444.66775200407392
  0
LINE
  8
_0-5_寸法線
  6
CONTINUOUS
 62
    7
 10
573.22287676278643
 20
444.66775200407392
 11
681.22287676278643
 21
444.66775200407392
  0
TEXT
  8
_0-5_寸法線
 62
    7
 10
573.22287676278643
 20
444.66775200407392
 40
15
 41
0.8000000000000001
 50
0
  1
ＳＵＳアングル受枠
  0
TEXT
  8
_0-5_寸法線
 62
    7
 10
573.29404025232964
 20
429.82907998110528
 40
15
 41
0.8000000000000001
 50
0
  1
ＧＳＬ－１５
  0
LINE
  8
_0-5_寸法線
  6
CONTINUOUS
 62
    7
 10
779.66677910507701
 20
522.57402984995042
 11
784.66677910507701
 21
513.913775812106
  0
LINE
  8
_0-5_寸法線
  6
CONTINUOUS
 62
    7
 10
779.66677910507701
 20
522.57402984995042
 11
779.66677910507701
 21
512.57402984995042
  0
LINE
  8
_0-5_寸法線
  6
CONTINUOUS
 62
    7
 10
779.66677910507701
 20
522.57402984995042
 11
800.54170333919399
 21
444.66775200407392
  0
LINE
  8
_0-5_寸法線
  6
CONTINUOUS
 62
    7
 10
800.54170333919399
 20
444.66775200407392
 11
932.54170333919387
 21
444.66775200407392
  0
TEXT
  8
_0-5_寸法線
 62
    7
 10
800.54170333919399
 20
444.66775200407392
 40
15
 41
0.8000000000000001
 50
0
  1
ステンレスグレーチング
  0
TEXT
  8
_0-5_寸法線
 62
    7
 10
800.17443128704531
 20
429.02528151138881
 40
15
 41
0.8000000000000001
 50
0
  1
ＧＳＴＪ－１５Ｗ３５０
  0
LINE
  8
_0-5_寸法線
  6
CONTINUOUS
 62
    7
 10
1258.9337498412517
 20
478.21732635213539
 11
1303.9337498412519
 21
478.21732635213522
  0
LINE
  8
_0-5_寸法線
  6
CONTINUOUS
 62
    7
 10
1298.9337498412519
 20
478.21732635213522
 11
1301.5219402922773
 21
468.55806808924456
  0
LINE
  8
_0-5_寸法線
  6
CONTINUOUS
 62
    7
 10
1298.9337498412519
 20
478.21732635213522
 11
1296.3455593902268
 21
468.55806808924456
  0
LINE
  8
_0-5_寸法線
  6
CONTINUOUS
 62
    7
 10
1258.9337498412517
 20
481.21732635213607
 11
1303.9337498412519
 21
481.2173263521359
  0
CIRCLE
  8
_0-5_寸法線
  6
CONTINUOUS
 62
    1
 10
1298.9337498412519
 20
481.2173263521359
 40
1.5000000000000002
  0
LINE
  8
_0-5_寸法線
  6
CONTINUOUS
 62
    7
 10
1298.9337498412519
 20
453.21732635213522
 11
1298.9337498412519
 21
481.2173263521359
  0
TEXT
  8
_0-5_寸法線
 62
    7
 10
1298.9337498412519
 20
458.01544699398585
 40
15
 41
1
 50
90
  1
3
  0
LINE
  8
_0-5_寸法線
  6
CONTINUOUS
 62
    7
 10
1258.9337498412517
 20
483.21732635213539
 11
1303.9337498412519
 21
483.21732635213522
  0
LINE
  8
_0-5_寸法線
  6
CONTINUOUS
 62
    7
 10
1298.9337498412519
 20
481.2173263521359
 11
1298.9337498412519
 21
483.21732635213522
  0
TEXT
  8
_0-5_寸法線
 62
    7
 10
1317.7590338977436
 20
481.2173263521359
 40
15
 41
1
 50
90
  1
2
  0
LINE
  8
_0-5_寸法線
  6
CONTINUOUS
 62
    7
 10
1298.9337498412519
 20
483.21732635213522
 11
1296.3455593902268
 21
492.87658461502588
  0
LINE
  8
_0-5_寸法線
  6
CONTINUOUS
 62
    7
 10
1298.9337498412519
 20
483.21732635213522
 11
1301.5219402922773
 21
492.87658461502588
  0
LINE
  8
_0-5_寸法線
  6
CONTINUOUS
 62
    7
 10
1258.9337498412519
 20
833.2173263521355
 11
1303.9337498412519
 21
833.21732635213539
  0
LINE
  8
_0-5_寸法線
  6
CONTINUOUS
 62
    7
 10
1298.9337498412519
 20
833.21732635213539
 11
1301.5219402922773
 21
823.55806808924456
  0
LINE
  8
_0-5_寸法線
  6
CONTINUOUS
 62
    7
 10
1298.9337498412519
 20
833.21732635213539
 11
1296.3455593902268
 21
823.55806808924456
  0
LINE
  8
_0-5_寸法線
  6
CONTINUOUS
 62
    7
 10
1298.9337498412519
 20
483.21732635213522
 11
1298.9337498412519
 21
833.21732635213539
  0
TEXT
  8
_0-5_寸法線
 62
    7
 10
1298.9337498412519
 20
646.9673263521355
 40
15
 41
1
 50
90
  1
350
  0
LINE
  8
_0-5_寸法線
  6
CONTINUOUS
 62
    7
 10
1258.9337498412519
 20
835.21732635213539
 11
1303.9337498412519
 21
835.21732635213539
  0
CIRCLE
  8
_0-5_寸法線
  6
CONTINUOUS
 62
    1
 10
1298.9337498412519
 20
835.21732635213539
 40
1.5000000000000002
  0
LINE
  8
_0-5_寸法線
  6
CONTINUOUS
 62
    7
 10
1298.9337498412519
 20
833.21732635213539
 11
1298.9337498412519
 21
835.21732635213539
  0
TEXT
  8
_0-5_寸法線
 62
    7
 10
1317.7518027562066
 20
827.71732635213539
 40
15
 41
1
 50
90
  1
2
  0
LINE
  8
_0-5_寸法線
  6
CONTINUOUS
 62
    7
 10
1258.9337498412533
 20
838.21732635213823
 11
1303.9337498412519
 21
838.21732635213812
  0
LINE
  8
_0-5_寸法線
  6
CONTINUOUS
 62
    7
 10
1298.9337498412519
 20
838.21732635213812
 11
1296.3455593902268
 21
847.87658461502872
  0
LINE
  8
_0-5_寸法線
  6
CONTINUOUS
 62
    7
 10
1298.9337498412519
 20
838.21732635213812
 11
1301.5219402922773
 21
847.87658461502872
  0
LINE
  8
_0-5_寸法線
  6
CONTINUOUS
 62
    7
 10
1298.9337498412519
 20
835.21732635213539
 11
1298.9337498412519
 21
863.21732635213812
  0
TEXT
  8
_0-5_寸法線
 62
    7
 10
1298.9337498412519
 20
851.99497952173351
 40
15
 41
1
 50
90
  1
3
  0
LINE
  8
_0-d_寸法3
  6
CONTINUOUS
 62
    7
 10
170.43065977017235
 20
377.4014393579339
 11
160.77140150728169
 21
374.81324890690871
  0
LINE
  8
_0-d_寸法3
  6
CONTINUOUS
 62
    7
 10
170.43065977017235
 20
377.4014393579339
 11
160.77140150728169
 21
379.98962980895919
  0
LINE
  8
_0-d_寸法3
  6
CONTINUOUS
 62
    7
 10
175.43065977017207
 20
296.56810602460041
 11
175.43065977017235
 21
382.4014393579339
  0
CIRCLE
  8
_0-d_寸法3
  6
CONTINUOUS
 62
    1
 10
175.43065977017235
 20
377.4014393579339
 40
1.5000000000000002
  0
LINE
  8
_0-d_寸法3
  6
CONTINUOUS
 62
    7
 10
145.43065977017235
 20
377.4014393579339
 11
175.43065977017235
 21
377.4014393579339
  0
TEXT
  8
_0-d_寸法3
 62
    7
 10
149.28599182624913
 20
377.4014393579339
 40
15
 41
1
 50
0
  1
3
  0
LINE
  8
_0-d_寸法3
  6
CONTINUOUS
 62
    7
 10
178.76399310350513
 20
294.06810435625607
 11
178.76399310350536
 21
382.4014393579339
  0
LINE
  8
_0-d_寸法3
  6
CONTINUOUS
 62
    7
 10
175.43065977017235
 20
377.4014393579339
 11
178.76399310350536
 21
377.4014393579339
  0
TEXT
  8
_0-d_寸法3
 62
    7
 10
173.34732643683836
 20
377.4014393579339
 40
15
 41
1
 50
0
  1
2
  0
LINE
  8
_0-d_寸法3
  6
CONTINUOUS
 62
    7
 10
178.76399310350536
 20
377.4014393579339
 11
188.42325136639602
 21
379.98962980895908
  0
LINE
  8
_0-d_寸法3
  6
CONTINUOUS
 62
    7
 10
178.76399310350536
 20
377.4014393579339
 11
188.42325136639602
 21
374.81324890690871
  0
LINE
  8
_0-d_寸法3
  6
CONTINUOUS
 62
    7
 10
762.09732643683833
 20
294.06810435625607
 11
762.09732643683878
 21
382.4014393579339
  0
LINE
  8
_0-d_寸法3
  6
CONTINUOUS
 62
    7
 10
762.09732643683878
 20
377.4014393579339
 11
752.43806817394807
 21
374.81324890690871
  0
LINE
  8
_0-d_寸法3
  6
CONTINUOUS
 62
    7
 10
762.09732643683878
 20
377.4014393579339
 11
752.43806817394807
 21
379.98962980895919
  0
LINE
  8
_0-d_寸法3
  6
CONTINUOUS
 62
    7
 10
178.76399310350536
 20
377.4014393579339
 11
762.09732643683878
 21
377.4014393579339
  0
TEXT
  8
_0-d_寸法3
 62
    7
 10
459.18065977017193
 20
377.4014393579339
 40
15
 41
1
 50
0
  1
350
  0
LINE
  8
_0-d_寸法3
  6
CONTINUOUS
 62
    7
 10
765.43065977017136
 20
296.56810602460041
 11
765.43065977017181
 21
382.4014393579339
  0
CIRCLE
  8
_0-d_寸法3
  6
CONTINUOUS
 62
    1
 10
765.43065977017181
 20
377.4014393579339
 40
1.5000000000000002
  0
LINE
  8
_0-d_寸法3
  6
CONTINUOUS
 62
    7
 10
762.09732643683878
 20
377.4014393579339
 11
765.43065977017181
 21
377.4014393579339
  0
TEXT
  8
_0-d_寸法3
 62
    7
 10
760.01399310350496
 20
377.4014393579339
 40
15
 41
1
 50
0
  1
2
  0
LINE
  8
_0-d_寸法3
  6
CONTINUOUS
 62
    7
 10
770.43065977017193
 20
377.4014393579339
 11
780.08991803306253
 21
379.98962980895902
  0
LINE
  8
_0-d_寸法3
  6
CONTINUOUS
 62
    7
 10
770.43065977017193
 20
377.4014393579339
 11
780.08991803306253
 21
374.81324890690865
  0
LINE
  8
_0-d_寸法3
  6
CONTINUOUS
 62
    7
 10
765.43065977017181
 20
377.4014393579339
 11
795.43065977017193
 21
377.4014393579339
  0
TEXT
  8
_0-d_寸法3
 62
    7
 10
784.62224353506031
 20
377.4014393579339
 40
15
 41
1
 50
0
  1
3
  0
LINE
  8
_0-0_計極細
  6
CENTER2
 62
    2
 10
1248.9337498412513
 20
658.2173263521363
 11
200.93374984125163
 21
658.2173263521363
  0
ENDSEC
  0
EOF
