  0
SECTION
  2
HEADER
  9
$ACADVER
  1
AC1009
  9
$INSBASE
 10
0
 20
0
 30
0
  9
$EXTMIN
 10
0
 20
0
  9
$EXTMAX
 10
1485
 20
1050
  9
$LIMMIN
 10
0
 20
0
  9
$LIMMAX
 10
1485
 20
1050
  9
$LTSCALE
 40
5
  0
ENDSEC
  0
SECTION
  2
TABLES
  0
TABLE
  2
LTYPE
 70
     9
  0
LTYPE
  2
CONTINUOUS
 70
    64
  3
実線
 72
    65
 73
     0
 40
0.0
  0
LTYPE
  2
DASHED1
 70
    64
  3
--  --  --  --  --  --  --  --  
 72
    65
 73
     2
 40
2.5
 49
1.25
 49
-1.25
  0
LTYPE
  2
DASHED2
 70
    64
  3
----    ----    ----    ----    
 72
    65
 73
     2
 40
5.0
 49
2.5
 49
-2.5
  0
LTYPE
  2
DASHED3
 70
    64
  3
------  ------  ------  ------  
 72
    65
 73
     2
 40
5.0
 49
3.75
 49
-1.25
  0
LTYPE
  2
CENTER1
 70
    64
  3
----- - ----- - ----- - ----- - 
 72
    65
 73
     4
 40
10.0
 49
6.25
 49
-1.25
 49
1.25
 49
-1.25
  0
LTYPE
  2
CENTER2
 70
    64
  3
----------  --  ----------  --  
 72
    65
 73
     4
 40
20.0
 49
12.5
 49
-2.5
 49
2.5
 49
-2.5
  0
LTYPE
  2
PHANTOM1
 70
    64
  3
--- - - --- - - --- - - --- - - 
 72
    65
 73
     6
 40
10.0
 49
3.25
 49
-1.25
 49
1.25
 49
-1.25
 49
1.25
 49
-1.25
  0
LTYPE
  2
PHANTOM2
 70
    64
  3
--------  -  -  --------  -  -  
 72
    65
 73
     6
 40
20.0
 49
10.0
 49
-2.5
 49
1.25
 49
-2.5
 49
1.25
 49
-2.5
  0
LTYPE
  2
DOT
 70
    64
  3
-   -   -   -   -   -   -   -   
 72
    65
 73
     2
 40
2.5
 49
0.625
 49
-1.875
  0
LTYPE
  2
DUMMY
 70
    64
  3
ダミー
 72
    65
 73
     0
 40
0.0
  0
LTYPE
  2
RAND1
 70
    64
  3
ランダム線1
 72
    65
 73
     4
 40
10.0
 49
1.0
 49
-2.0
 49
3.0
 49
-4.0
  0
LTYPE
  2
RAND2
 70
    64
  3
ランダム線2
 72
    65
 73
     4
 40
14.0
 49
2.0
 49
-3.0
 49
4.0
 49
-5.0
  0
LTYPE
  2
RAND3
 70
    64
  3
ランダム線3
 72
    65
 73
     4
 40
18.0
 49
3.0
 49
-4.0
 49
5.0
 49
-6.0
  0
LTYPE
  2
RAND4
 70
    64
  3
ランダム線4
 72
    65
 73
     4
 40
22.0
 49
4.0
 49
-5.0
 49
6.0
 49
-7.0
  0
LTYPE
  2
RAND5
 70
    64
  3
ランダム線5
 72
    65
 73
     4
 40
26.0
 49
5.0
 49
-6.0
 49
7.0
 49
-8.0
  0
LTYPE
  2
LONG1
 70
    64
  3
----------  --  ----------  --  
 72
    65
 73
     4
 40
40.0
 49
32.5
 49
-2.5
 49
2.5
 49
-2.5
  0
LTYPE
  2
LONG2
 70
    64
  3
--------  -  -  --------  -  -  
 72
    65
 73
     6
 40
40.0
 49
30.0
 49
-2.5
 49
1.25
 49
-2.5
 49
1.25
 49
-2.5
  0
LTYPE
  2
LONG3
 70
    64
  3
+++++++++++++++..+++++++++++++++
 72
    65
 73
     2
 40
40.0
 49
37.5
 49
-2.5
  0
LTYPE
  2
LONG4
 70
    64
  3
+++++++++++++++..+++++++++++++++
 72
    65
 73
     2
 40
80.0
 49
75.0
 49
-5.0
  0
LTYPE
  2
LONG5
 70
    64
  3
----------  --  ----------  --  
 72
    65
 73
     4
 40
60.0
 49
37.5
 49
-7.5
 49
7.5
 49
-7.5
  0
LTYPE
  2
dashed
 70
   64
  3
-------   -------------   ------
 72
   65
 73
    2
 40
7.5
 49
6
 49
-1.5
  0
LTYPE
  2
dashed_spaced
 70
   64
  3
----        --------        ----
 72
   65
 73
    2
 40
12
 49
6
 49
-6
  0
LTYPE
  2
long_dashed_dotted
 70
   64
  3
------------- --- --------------
 72
   65
 73
    4
 40
15.25
 49
12
 49
-1.5
 49
0.25
 49
-1.5
  0
LTYPE
  2
long_dashed_double-dotted
 70
   64
  3
----------- --- --- ------------
 72
   65
 73
    6
 40
17
 49
12
 49
-1.5
 49
0.25
 49
-1.5
 49
0.25
 49
-1.5
  0
LTYPE
  2
long_dashed_triplicate-dotted
 70
   64
  3
--------- --- --- --- ----------
 72
   65
 73
    8
 40
18.75
 49
12
 49
-1.5
 49
0.25
 49
-1.5
 49
0.25
 49
-1.5
 49
0.25
 49
-1.5
  0
LTYPE
  2
dotted
 70
   64
  3
   -       -       -       -    
 72
   65
 73
    2
 40
1.75
 49
0.25
 49
-1.5
  0
LTYPE
  2
chain
 70
   64
  3
-------------- -- --------------
 72
   65
 73
    4
 40
18.5
 49
12
 49
-1.5
 49
3.5
 49
-1.5
  0
LTYPE
  2
chain_double_dash
 70
   64
  3
------------ -- -- -------------
 72
   65
 73
    6
 40
23.5
 49
12
 49
-1.5
 49
3.5
 49
-1.5
 49
3.5
 49
-1.5
  0
LTYPE
  2
dashed_dotted
 70
   64
  3
-----------     -     ----------
 72
   65
 73
    4
 40
9.25
 49
6
 49
-1.5
 49
0.25
 49
-1.5
  0
LTYPE
  2
double-dashed_dotted
 70
   64
  3
------   -----------   -   -----
 72
   65
 73
    6
 40
16.75
 49
6
 49
-1.5
 49
6
 49
-1.5
 49
0.25
 49
-1.5
  0
LTYPE
  2
dashed_double-dotted
 70
   64
  3
---------    -    -    ---------
 72
   65
 73
    6
 40
11
 49
6
 49
-1.5
 49
0.25
 49
-1.5
 49
0.25
 49
-1.5
  0
LTYPE
  2
double-dashed_double-dotted
 70
   64
  3
-----   ---------   -   -   ----
 72
   65
 73
    8
 40
18.5
 49
6
 49
-1.5
 49
6
 49
-1.5
 49
0.25
 49
-1.5
 49
0.25
 49
-1.5
  0
LTYPE
  2
dashed_triplicate-dotted
 70
   64
  3
-------    -    -    -    ------
 72
   65
 73
    8
 40
12.75
 49
6
 49
-1.5
 49
0.25
 49
-1.5
 49
0.25
 49
-1.5
 49
0.25
 49
-1.5
  0
LTYPE
  2
double-dashed_triplicate-dotted
 70
   64
  3
-----  ---------  -  -  -  -----
 72
   65
 73
   10
 40
20.25
 49
6
 49
-1.5
 49
6
 49
-1.5
 49
0.25
 49
-1.5
 49
0.25
 49
-1.5
 49
0.25
 49
-1.5
  0
LTYPE
  2
undefined
 70
   64
  3
--------------------------------
 72
   65
 73
    0
 40
0
  0
ENDTAB
  0
TABLE
  2
STYLE
  5
3
100
AcDbSymbolTable
 70
     1
  0
STYLE
  5
10
100
AcDbSymbolTableRecord
100
AcDbTextStyleTableRecord
  2
STANDARD
 70
     0
 40
0.0
 41
1.0
 50
0.0
 71
     0
 42
0.2
  3
txt
  4
bigfont.shx
  0
STYLE
  5
26
100
AcDbSymbolTableRecord
100
AcDbTextStyleTableRecord
  2
TATEGAKI
 70
    68
 40
0.0
 41
1.0
 50
0.0
 71
     0
 42
1.0
  3
txt
  4
bigfont.shx
  0
ENDTAB
  0
TABLE
  2
LAYER
 70
   10
  0
LAYER
  2
_0-0_計極細
 70
   64
 62
    7
  6
CONTINUOUS
  0
LAYER
  2
_0-1_計細線
 70
   64
 62
    7
  6
CONTINUOUS
  0
LAYER
  2
_0-5_寸法線
 70
   64
 62
    7
  6
CONTINUOUS
  0
LAYER
  2
_0-7_枠細線
 70
   64
 62
    7
  6
CONTINUOUS
  0
LAYER
  2
_0-8_枠中線
 70
   64
 62
    7
  6
CONTINUOUS
  0
LAYER
  2
_0-9_枠極太
 70
   64
 62
    7
  6
CONTINUOUS
  0
LAYER
  2
_0-a_極細3
 70
   64
 62
    7
  6
CONTINUOUS
  0
LAYER
  2
_0-b_細線3
 70
   64
 62
    7
  6
CONTINUOUS
  0
LAYER
  2
_0-d_寸法3
 70
   64
 62
    7
  6
CONTINUOUS
  0
LAYER
  2
ADD_LINE
 70
   64
 62
    7
  6
CONTINUOUS
  0
ENDTAB
  0
ENDSEC
  0
SECTION
  2
BLOCKS
  0
ENDSEC
  0
SECTION
  2
ENTITIES
  0
LINE
  8
_0-7_枠細線
  6
CONTINUOUS
 62
    5
 10
1425
 20
942.5
 11
890
 21
942.5
  0
TEXT
  8
_0-7_枠細線
 62
    5
 10
895
 20
945
 40
12.5
 41
1
 50
0
  1
記号
  0
TEXT
  8
_0-7_枠細線
 62
    5
 10
996.875
 20
945
 40
12.5
 41
1
 50
0
  1
訂　 正　 記　 事
  0
TEXT
  8
_0-7_枠細線
 62
    5
 10
1181.25
 20
945
 40
12.5
 41
1
 50
0
  1
訂 正 年 月 日
  0
TEXT
  8
_0-7_枠細線
 62
    5
 10
1306.25
 20
945
 40
12.5
 41
1
 50
0
  1
備　　　　　考
  0
LINE
  8
_0-7_枠細線
  6
CONTINUOUS
 62
    5
 10
1185
 20
180
 11
1185
 21
100
  0
TEXT
  8
_0-7_枠細線
 62
    5
 10
937.5
 20
97.5
 40
17.5
 41
1
 50
0
  1
備考
  7
TATEGAKI
  0
TEXT
  8
_0-7_枠細線
 62
    5
 10
937.5
 20
137.5
 40
17.5
 41
1
 50
0
  1
品番
  7
TATEGAKI
  0
TEXT
  8
_0-7_枠細線
 62
    5
 10
937.5
 20
177.5
 40
17.5
 41
1
 50
0
  1
品名
  7
TATEGAKI
  0
LINE
  8
_0-7_枠細線
  6
CONTINUOUS
 62
    5
 10
1185
 20
140
 11
925
 21
140
  0
LINE
  8
_0-7_枠細線
  6
CONTINUOUS
 62
    5
 10
950
 20
180
 11
950
 21
60
  0
LINE
  8
_0-8_枠中線
  6
CONTINUOUS
 62
    5
 10
1425
 20
180
 11
925
 21
180
  0
LINE
  8
_0-8_枠中線
  6
CONTINUOUS
 62
    5
 10
925
 20
180
 11
925
 21
60
  0
LINE
  8
_0-7_枠細線
  6
CONTINUOUS
 62
    5
 10
1245
 20
180
 11
1245
 21
60
  0
TEXT
  8
_0-7_枠細線
 62
    5
 10
1192.5
 20
160
 40
15
 41
1
 50
0
  1
縮　尺
  0
TEXT
  8
_0-7_枠細線
 62
    5
 10
1194
 20
117.5
 40
20
 41
0.7000000000000001
 50
0
  1
１：５
  0
LINE
  8
_0-7_枠細線
  6
CONTINUOUS
 62
    5
 10
1185
 20
155
 11
1245
 21
155
  0
LINE
  8
_0-7_枠細線
  6
CONTINUOUS
 62
    5
 10
1245
 20
100
 11
925
 21
100
  0
LINE
  8
_0-7_枠細線
  6
CONTINUOUS
 62
    5
 10
1425
 20
90
 11
1245
 21
90
  0
LINE
  8
_0-7_枠細線
  6
CONTINUOUS
 62
    5
 10
1245
 20
120
 11
1425
 21
120
  0
LINE
  8
_0-7_枠細線
  6
CONTINUOUS
 62
    5
 10
1425
 20
140
 11
1245
 21
140
  0
TEXT
  8
_0-7_枠細線
 62
    5
 10
1255
 20
147.5
 40
25
 41
0.8
 50
0
  1
株式会社シマブン
  0
TEXT
  8
_0-7_枠細線
 62
    5
 10
1252.5
 20
60
 40
15
 41
1
 50
0
  1
年月日
  0
TEXT
  8
_0-7_枠細線
 62
    5
 10
1252.5
 20
75
 40
15
 41
1
 50
0
  1
作　成
  0
TEXT
  8
_0-7_枠細線
 62
    5
 10
1256.25
 20
122.5
 40
15
 41
1
 50
0
  1
承 認
  0
LINE
  8
_0-7_枠細線
  6
CONTINUOUS
 62
    5
 10
1305
 20
140
 11
1305
 21
60
  0
TEXT
  8
_0-7_枠細線
 62
    5
 10
1316.25
 20
122.5
 40
15
 41
1
 50
0
  1
検 図
  0
LINE
  8
_0-7_枠細線
  6
CONTINUOUS
 62
    5
 10
1365
 20
140
 11
1365
 21
90
  0
TEXT
  8
_0-7_枠細線
 62
    5
 10
1375
 20
95
 40
20
 41
1
 50
0
  1
藤戸
  0
TEXT
  8
_0-7_枠細線
 62
    5
 10
1376.25
 20
122.5
 40
15
 41
1
 50
0
  1
設 計
  0
TEXT
  8
_0-7_枠細線
 62
    5
 10
1255
 20
95
 40
20
 41
1
 50
0
  1
隠塚
  0
TEXT
  8
_0-7_枠細線
 62
    5
 10
1315
 20
95
 40
20
 41
1
 50
0
  1
渋田
  0
TEXT
  8
_0-7_枠細線
 62
    5
 10
965.50000000000011
 20
150
 40
20
 41
0.5
 50
0
  1
Ｔバー ステンレスグレーチング Ｈ２０タイプ
  0
TEXT
  8
_0-7_枠細線
 62
    5
 10
1310
 20
67.5
 40
15
 41
0.6666666666666666
 50
0
  1
２０１２年０２月２９日
  0
LINE
  8
_0-7_枠細線
  6
CONTINUOUS
 62
    5
 10
1425
 20
925
 11
890
 21
925
  0
TEXT
  8
_0-7_枠細線
 62
    5
 10
938.85037037037023
 20
927.5
 40
12.500000000000002
 41
1
 50
0
  1
品番変更
  0
LINE
  8
_0-b_細線3
  6
CONTINUOUS
 62
    7
 10
953.15211640940788
 20
296.56810602460041
 11
939.81878307607474
 21
296.56810602460041
  0
LINE
  8
_0-b_細線3
  6
CONTINUOUS
 62
    7
 10
976.48544974274137
 20
296.56810602460041
 11
963.15211640940788
 21
296.56810602460041
  0
LINE
  8
_0-b_細線3
  6
CONTINUOUS
 62
    7
 10
999.81878307607428
 20
296.56810602460041
 11
986.48544974274091
 21
296.56810602460041
  0
LINE
  8
_0-b_細線3
  6
CONTINUOUS
 62
    7
 10
1023.1521164094079
 20
296.56810602460041
 11
1009.8187830760747
 21
296.56810602460041
  0
LINE
  8
_0-d_寸法3
  6
CONTINUOUS
 62
    7
 10
939.81878307607474
 20
306.56810602460041
 11
939.81878307607474
 21
351.56810602460041
  0
LINE
  8
_0-d_寸法3
  6
CONTINUOUS
 62
    7
 10
939.81878307607474
 20
346.56810602460041
 11
930.15952481318413
 21
343.97991557357523
  0
LINE
  8
_0-d_寸法3
  6
CONTINUOUS
 62
    7
 10
939.81878307607474
 20
346.56810602460041
 11
930.15952481318413
 21
349.15629647562571
  0
LINE
  8
_0-d_寸法3
  6
CONTINUOUS
 62
    7
 10
953.15211640940834
 20
306.56810602460041
 11
953.15211640940834
 21
351.56810602460041
  0
CIRCLE
  8
_0-d_寸法3
  6
CONTINUOUS
 62
    1
 10
953.15211640940834
 20
346.56810602460041
 40
1.5000000000000002
  0
LINE
  8
_0-d_寸法3
  6
CONTINUOUS
 62
    7
 10
914.81878307607474
 20
346.56810602460041
 11
953.15211640940834
 21
346.56810602460041
  0
TEXT
  8
_0-d_寸法3
 62
    7
 10
922.31334902649394
 20
346.56810602460041
 40
15
 41
1
 50
0
  1
8
  0
LINE
  8
_0-d_寸法3
  6
CONTINUOUS
 62
    7
 10
963.15211640940834
 20
306.56810602460041
 11
963.15211640940834
 21
351.56810602460041
  0
LINE
  8
_0-d_寸法3
  6
CONTINUOUS
 62
    7
 10
963.15211640940834
 20
346.56810602460041
 11
972.81137467229894
 21
349.15629647562554
  0
LINE
  8
_0-d_寸法3
  6
CONTINUOUS
 62
    7
 10
963.15211640940834
 20
346.56810602460041
 11
972.81137467229894
 21
343.97991557357523
  0
LINE
  8
_0-d_寸法3
  6
CONTINUOUS
 62
    7
 10
953.15211640940834
 20
346.56810602460041
 11
988.15211640940834
 21
346.56810602460041
  0
TEXT
  8
_0-d_寸法3
 62
    7
 10
972.87285519933346
 20
346.56810602460041
 40
15
 41
1
 50
0
  1
6
  0
LINE
  8
_0-b_細線3
  6
CONTINUOUS
 62
    7
 10
1046.4854497427409
 20
296.56810602460041
 11
1033.1521164094079
 21
296.56810602460041
  0
LINE
  8
_0-b_細線3
  6
CONTINUOUS
 62
    7
 10
1069.8187830760739
 20
296.56810602460041
 11
1056.4854497427409
 21
296.56810602460041
  0
LINE
  8
_0-d_寸法3
  6
CONTINUOUS
 62
    7
 10
1016.4854497427414
 20
306.56810602460052
 11
1016.4854497427414
 21
351.56810602460041
  0
LINE
  8
_0-d_寸法3
  6
CONTINUOUS
 62
    7
 10
1016.4854497427414
 20
346.56810602460041
 11
1026.1447080056319
 21
349.1562964756256
  0
LINE
  8
_0-d_寸法3
  6
CONTINUOUS
 62
    7
 10
1016.4854497427414
 20
346.56810602460041
 11
1026.1447080056319
 21
343.97991557357523
  0
LINE
  8
_0-d_寸法3
  6
CONTINUOUS
 62
    7
 10
1039.8187830760749
 20
306.56810602460041
 11
1039.8187830760749
 21
351.56810602460041
  0
LINE
  8
_0-d_寸法3
  6
CONTINUOUS
 62
    7
 10
1039.8187830760749
 20
346.56810602460041
 11
1030.1595248131841
 21
343.97991557357523
  0
LINE
  8
_0-d_寸法3
  6
CONTINUOUS
 62
    7
 10
1039.8187830760749
 20
346.56810602460041
 11
1030.1595248131841
 21
349.15629647562571
  0
LINE
  8
_0-d_寸法3
  6
CONTINUOUS
 62
    7
 10
1016.4854497427414
 20
346.56810602460041
 11
1039.8187830760749
 21
346.56810602460041
  0
TEXT
  8
_0-d_寸法3
 62
    7
 10
1020.6521164094079
 20
346.56810602460041
 40
15
 41
1
 50
0
  1
14
  0
LINE
  8
_0-d_寸法3
  6
CONTINUOUS
 62
    7
 10
1039.8187830760749
 20
346.56810602460041
 11
1049.4780413389658
 21
349.15629647562554
  0
LINE
  8
_0-d_寸法3
  6
CONTINUOUS
 62
    7
 10
1039.8187830760749
 20
346.56810602460041
 11
1049.4780413389658
 21
343.97991557357523
  0
LINE
  8
_0-d_寸法3
  6
CONTINUOUS
 62
    7
 10
1063.1521164094079
 20
306.56810602460041
 11
1063.1521164094079
 21
351.56810602460041
  0
LINE
  8
_0-d_寸法3
  6
CONTINUOUS
 62
    7
 10
1063.1521164094079
 20
346.56810602460041
 11
1053.4928581465172
 21
343.97991557357523
  0
LINE
  8
_0-d_寸法3
  6
CONTINUOUS
 62
    7
 10
1063.1521164094079
 20
346.56810602460041
 11
1053.4928581465172
 21
349.15629647562571
  0
LINE
  8
_0-d_寸法3
  6
CONTINUOUS
 62
    7
 10
1039.8187830760749
 20
346.56810602460041
 11
1063.1521164094079
 21
346.56810602460041
  0
TEXT
  8
_0-d_寸法3
 62
    7
 10
1043.9854497427414
 20
346.56810602460041
 40
15
 41
1
 50
0
  1
14
  0
LINE
  8
_0-d_寸法3
  6
CONTINUOUS
 62
    7
 10
922.26314135259918
 20
296.56810602460047
 11
893.92980801926569
 21
296.56810602460052
  0
LINE
  8
_0-d_寸法3
  6
CONTINUOUS
 62
    7
 10
898.92980801926569
 20
296.56810602460052
 11
901.51799847029088
 21
286.90884776170992
  0
LINE
  8
_0-d_寸法3
  6
CONTINUOUS
 62
    7
 10
898.92980801926569
 20
296.56810602460052
 11
896.34161756824039
 21
286.90884776170992
  0
LINE
  8
_0-d_寸法3
  6
CONTINUOUS
 62
    7
 10
922.26314135259918
 20
263.23477269126721
 11
893.92980801926569
 21
263.23477269126727
  0
LINE
  8
_0-d_寸法3
  6
CONTINUOUS
 62
    7
 10
898.92980801926569
 20
263.23477269126727
 11
896.34161756824039
 21
272.89403095415793
  0
LINE
  8
_0-d_寸法3
  6
CONTINUOUS
 62
    7
 10
898.92980801926569
 20
263.23477269126727
 11
901.51799847029088
 21
272.89403095415793
  0
LINE
  8
_0-d_寸法3
  6
CONTINUOUS
 62
    7
 10
898.92980801926569
 20
296.56810602460052
 11
898.92980801926569
 21
263.23477269126727
  0
TEXT
  8
_0-d_寸法3
 62
    7
 10
898.92980801926569
 20
272.4014393579339
 40
15
 41
1
 50
90
  1
20
  0
LINE
  8
_0-b_細線3
  6
CONTINUOUS
 62
    7
 10
945.48544974274137
 20
263.23477269126715
 11
947.48544974274125
 21
263.23477269126715
  0
LINE
  8
_0-b_細線3
  6
CONTINUOUS
 62
    7
 10
968.81878307607485
 20
263.23477269126715
 11
970.81878307607485
 21
263.23477269126715
  0
LINE
  8
_0-b_細線3
  6
CONTINUOUS
 62
    7
 10
992.15211640940777
 20
263.23477269126715
 11
994.15211640940788
 21
263.23477269126715
  0
LINE
  8
_0-b_細線3
  6
CONTINUOUS
 62
    7
 10
1015.4854497427414
 20
263.23477269126715
 11
1017.4854497427409
 21
263.23477269126715
  0
LINE
  8
_0-b_細線3
  6
CONTINUOUS
 62
    7
 10
1038.8187830760744
 20
263.23477269126715
 11
1040.8187830760739
 21
263.23477269126715
  0
LINE
  8
_0-b_細線3
  6
CONTINUOUS
 62
    7
 10
1062.1521164094074
 20
263.23477269126715
 11
1064.152116409407
 21
263.23477269126715
  0
ARC
  8
_0-a_極細3
  6
CONTINUOUS
 62
    7
 10
951.58512460882491
 20
288.88554488551165
 40
21.070607518177617
 50
150.03871396148139
 51
205.2381040238788
  0
ARC
  8
_0-a_極細3
  6
CONTINUOUS
 62
    7
 10
913.46655438094729
 20
270.91733383035478
 40
21.070607518177617
 50
330.03871396148219
 51
25.238104023878272
  0
LINE
  8
_0-b_細線3
  6
CONTINUOUS
 62
    7
 10
931.96501361196169
 20
296.56810602460041
 11
1075.3920453877322
 21
296.56810602460041
  0
ARC
  8
_0-a_極細3
  6
CONTINUOUS
 62
    7
 10
1094.9758023633772
 20
288.88554488551165
 40
21.070607518177617
 50
150.03871396148139
 51
205.2381040238788
  0
ARC
  8
_0-a_極細3
  6
CONTINUOUS
 62
    7
 10
1056.8572321354995
 20
270.91733383035478
 40
21.070607518177617
 50
330.03871396148219
 51
25.238104023878019
  0
LINE
  8
_0-a_極細3
  6
CENTER1
 62
    7
 10
914.128534257296
 20
279.90143935793344
 11
1087.6337554753186
 21
279.90143935793344
  0
LINE
  8
_0-b_細線3
  6
CONTINUOUS
 62
    7
 10
933.08666537781107
 20
263.23477269126636
 11
1076.4773431323633
 21
263.23477269126624
  0
ARC
  8
_0-b_細線3
  6
CONTINUOUS
 62
    7
 10
958.15211640940834
 20
317.70421713571136
 40
46.136111111111042
 50
256.63227178393157
 51
283.36772821606712
  0
ARC
  8
_0-b_細線3
  6
CONTINUOUS
 62
    7
 10
958.15211640940834
 20
242.0986615801562
 40
46.136111111111042
 50
76.632271783932524
 51
103.36772821606807
  0
ARC
  8
_0-b_細線3
  6
CONTINUOUS
 62
    7
 10
981.48544974274137
 20
317.70421713571136
 40
46.136111111111042
 50
256.63227178393157
 51
283.36772821606712
  0
ARC
  8
_0-b_細線3
  6
CONTINUOUS
 62
    7
 10
981.48544974274137
 20
242.0986615801562
 40
46.136111111111042
 50
76.632271783932524
 51
103.36772821606779
  0
ARC
  8
_0-b_細線3
  6
CONTINUOUS
 62
    7
 10
1004.8187830760747
 20
317.70421713571136
 40
46.136111111111042
 50
256.63227178393186
 51
283.36772821606712
  0
ARC
  8
_0-b_細線3
  6
CONTINUOUS
 62
    7
 10
1004.8187830760747
 20
242.0986615801562
 40
46.136111111111042
 50
76.632271783932524
 51
103.36772821606753
  0
LINE
  8
_0-b_細線3
  6
CONTINUOUS
 62
    7
 10
953.15211640940834
 20
294.56810602460041
 11
953.15211640940834
 21
296.56810602460041
  0
LINE
  8
_0-b_細線3
  6
CONTINUOUS
 62
    7
 10
947.48544974274125
 20
294.56810602460041
 11
953.15211640940834
 21
294.56810602460041
  0
LINE
  8
_0-b_細線3
  6
CONTINUOUS
 62
    7
 10
947.48544974274125
 20
263.23477269126715
 11
947.48544974274125
 21
294.56810602460041
  0
LINE
  8
_0-b_細線3
  6
CONTINUOUS
 62
    7
 10
945.48544974274137
 20
263.23477269126715
 11
947.48544974274125
 21
263.23477269126715
  0
LINE
  8
_0-b_細線3
  6
CONTINUOUS
 62
    7
 10
945.48544974274137
 20
294.56810602460041
 11
945.48544974274137
 21
263.23477269126715
  0
LINE
  8
_0-b_細線3
  6
CONTINUOUS
 62
    7
 10
939.81878307607474
 20
294.56810602460041
 11
945.48544974274137
 21
294.56810602460041
  0
LINE
  8
_0-b_細線3
  6
CONTINUOUS
 62
    7
 10
939.81878307607474
 20
296.56810602460041
 11
939.81878307607474
 21
294.56810602460041
  0
LINE
  8
_0-b_細線3
  6
CONTINUOUS
 62
    7
 10
953.15211640940834
 20
296.56810602460041
 11
939.81878307607474
 21
296.56810602460041
  0
LINE
  8
_0-b_細線3
  6
CONTINUOUS
 62
    7
 10
976.48544974274159
 20
294.56810602460041
 11
976.48544974274159
 21
296.56810602460041
  0
LINE
  8
_0-b_細線3
  6
CONTINUOUS
 62
    7
 10
970.81878307607485
 20
294.56810602460041
 11
976.48544974274159
 21
294.56810602460041
  0
LINE
  8
_0-b_細線3
  6
CONTINUOUS
 62
    7
 10
970.81878307607485
 20
263.23477269126715
 11
970.81878307607485
 21
294.56810602460041
  0
LINE
  8
_0-b_細線3
  6
CONTINUOUS
 62
    7
 10
968.81878307607485
 20
263.23477269126715
 11
970.81878307607485
 21
263.23477269126715
  0
LINE
  8
_0-b_細線3
  6
CONTINUOUS
 62
    7
 10
968.81878307607485
 20
294.56810602460041
 11
968.81878307607485
 21
263.23477269126715
  0
LINE
  8
_0-b_細線3
  6
CONTINUOUS
 62
    7
 10
963.15211640940834
 20
294.56810602460041
 11
968.81878307607485
 21
294.56810602460041
  0
LINE
  8
_0-b_細線3
  6
CONTINUOUS
 62
    7
 10
963.15211640940834
 20
296.56810602460041
 11
963.15211640940834
 21
294.56810602460041
  0
LINE
  8
_0-b_細線3
  6
CONTINUOUS
 62
    7
 10
976.48544974274159
 20
296.56810602460041
 11
963.15211640940834
 21
296.56810602460041
  0
LINE
  8
_0-b_細線3
  6
CONTINUOUS
 62
    7
 10
999.81878307607462
 20
294.56810602460041
 11
999.81878307607462
 21
296.56810602460041
  0
LINE
  8
_0-b_細線3
  6
CONTINUOUS
 62
    7
 10
994.15211640940822
 20
294.56810602460041
 11
999.81878307607462
 21
294.56810602460041
  0
LINE
  8
_0-b_細線3
  6
CONTINUOUS
 62
    7
 10
994.15211640940822
 20
263.23477269126715
 11
994.15211640940822
 21
294.56810602460041
  0
LINE
  8
_0-b_細線3
  6
CONTINUOUS
 62
    7
 10
992.15211640940822
 20
263.23477269126715
 11
994.15211640940822
 21
263.23477269126715
  0
LINE
  8
_0-b_細線3
  6
CONTINUOUS
 62
    7
 10
992.15211640940822
 20
294.56810602460041
 11
992.15211640940822
 21
263.23477269126715
  0
LINE
  8
_0-b_細線3
  6
CONTINUOUS
 62
    7
 10
986.48544974274137
 20
294.56810602460041
 11
992.15211640940822
 21
294.56810602460041
  0
LINE
  8
_0-b_細線3
  6
CONTINUOUS
 62
    7
 10
986.48544974274137
 20
296.56810602460041
 11
986.48544974274137
 21
294.56810602460041
  0
LINE
  8
_0-b_細線3
  6
CONTINUOUS
 62
    7
 10
999.81878307607462
 20
296.56810602460041
 11
986.48544974274137
 21
296.56810602460041
  0
LINE
  8
_0-b_細線3
  6
CONTINUOUS
 62
    7
 10
1023.1521164094084
 20
294.56810602460041
 11
1023.1521164094084
 21
296.56810602460041
  0
LINE
  8
_0-b_細線3
  6
CONTINUOUS
 62
    7
 10
1017.4854497427414
 20
294.56810602460041
 11
1023.1521164094084
 21
294.56810602460041
  0
LINE
  8
_0-b_細線3
  6
CONTINUOUS
 62
    7
 10
1017.4854497427414
 20
263.23477269126715
 11
1017.4854497427414
 21
294.56810602460041
  0
LINE
  8
_0-b_細線3
  6
CONTINUOUS
 62
    7
 10
1015.4854497427415
 20
263.23477269126715
 11
1017.4854497427414
 21
263.23477269126715
  0
LINE
  8
_0-b_細線3
  6
CONTINUOUS
 62
    7
 10
1015.4854497427415
 20
294.56810602460041
 11
1015.4854497427415
 21
263.23477269126715
  0
LINE
  8
_0-b_細線3
  6
CONTINUOUS
 62
    7
 10
1009.8187830760747
 20
294.56810602460041
 11
1015.4854497427415
 21
294.56810602460041
  0
LINE
  8
_0-b_細線3
  6
CONTINUOUS
 62
    7
 10
1009.8187830760747
 20
296.56810602460041
 11
1009.8187830760747
 21
294.56810602460041
  0
LINE
  8
_0-b_細線3
  6
CONTINUOUS
 62
    7
 10
1023.1521164094084
 20
296.56810602460041
 11
1009.8187830760747
 21
296.56810602460041
  0
ARC
  8
_0-b_細線3
  6
CONTINUOUS
 62
    7
 10
1028.1521164094083
 20
317.70421713571136
 40
46.136111111111042
 50
256.63227178393214
 51
283.36772821606712
  0
ARC
  8
_0-b_細線3
  6
CONTINUOUS
 62
    7
 10
1028.1521164094083
 20
242.0986615801562
 40
46.136111111111042
 50
76.632271783932524
 51
103.36772821606753
  0
LINE
  8
_0-b_細線3
  6
CONTINUOUS
 62
    7
 10
1046.4854497427418
 20
294.56810602460041
 11
1046.4854497427418
 21
296.56810602460041
  0
LINE
  8
_0-b_細線3
  6
CONTINUOUS
 62
    7
 10
1040.8187830760749
 20
294.56810602460041
 11
1046.4854497427418
 21
294.56810602460041
  0
LINE
  8
_0-b_細線3
  6
CONTINUOUS
 62
    7
 10
1040.8187830760749
 20
263.23477269126715
 11
1040.8187830760749
 21
294.56810602460041
  0
LINE
  8
_0-b_細線3
  6
CONTINUOUS
 62
    7
 10
1038.8187830760753
 20
294.56810602460041
 11
1038.8187830760753
 21
263.23477269126715
  0
LINE
  8
_0-b_細線3
  6
CONTINUOUS
 62
    7
 10
1033.1521164094083
 20
294.56810602460041
 11
1038.8187830760753
 21
294.56810602460041
  0
LINE
  8
_0-b_細線3
  6
CONTINUOUS
 62
    7
 10
1033.1521164094083
 20
296.56810602460041
 11
1033.1521164094083
 21
294.56810602460041
  0
ARC
  8
_0-b_細線3
  6
CONTINUOUS
 62
    7
 10
1051.4854497427418
 20
317.70421713571136
 40
46.136111111111042
 50
256.63227178393214
 51
283.36772821606712
  0
ARC
  8
_0-b_細線3
  6
CONTINUOUS
 62
    7
 10
1051.4854497427418
 20
242.0986615801562
 40
46.136111111111042
 50
76.632271783932524
 51
103.36772821606753
  0
LINE
  8
_0-b_細線3
  6
CONTINUOUS
 62
    7
 10
1069.8187830760753
 20
294.56810602460041
 11
1069.8187830760753
 21
296.56810602460041
  0
LINE
  8
_0-b_細線3
  6
CONTINUOUS
 62
    7
 10
1064.1521164094083
 20
294.56810602460041
 11
1069.8187830760753
 21
294.56810602460041
  0
LINE
  8
_0-b_細線3
  6
CONTINUOUS
 62
    7
 10
1064.1521164094083
 20
263.23477269126715
 11
1064.1521164094083
 21
294.56810602460041
  0
LINE
  8
_0-b_細線3
  6
CONTINUOUS
 62
    7
 10
1062.1521164094088
 20
294.56810602460041
 11
1062.1521164094088
 21
263.23477269126715
  0
LINE
  8
_0-b_細線3
  6
CONTINUOUS
 62
    7
 10
1056.4854497427418
 20
294.56810602460041
 11
1062.1521164094088
 21
294.56810602460041
  0
LINE
  8
_0-b_細線3
  6
CONTINUOUS
 62
    7
 10
1056.4854497427418
 20
296.56810602460041
 11
1056.4854497427418
 21
294.56810602460041
  0
ARC
  8
_0-b_細線3
  6
CONTINUOUS
 62
    7
 10
934.81878307607474
 20
242.0986615801562
 40
46.136111111111042
 50
76.632271783932524
 51
95.331778543219158
  0
ARC
  8
_0-b_細線3
  6
CONTINUOUS
 62
    7
 10
934.81878307607474
 20
317.70421713571136
 40
46.136111111111042
 50
269.63773734898541
 51
283.36772821606655
  0
ARC
  8
_0-b_細線3
  6
CONTINUOUS
 62
    7
 10
1074.8187830760758
 20
317.70421713571136
 40
46.136111111111042
 50
256.63227178393157
 51
273.84719120855112
  0
ARC
  8
_0-b_細線3
  6
CONTINUOUS
 62
    7
 10
1074.8187830760758
 20
242.0986615801562
 40
46.136111111111042
 50
91.121818745999931
 51
103.36772821606807
  0
TEXT
  8
_0-7_枠細線
 62
    5
 10
956.55807915457694
 20
218.48278215653394
 40
25
 41
0.8
 50
0
  1
側面詳細図
  0
TEXT
  8
_0-7_枠細線
 62
    5
 10
1027.2366688631309
 20
193.70761534481403
 40
20
 41
0.6
 50
0
  1
Ｓ＝１：３
  0
TEXT
  8
_0-7_枠細線
 62
    5
 10
1180
 20
927.5
 40
12.5
 41
0.7199999999999999
 50
0
  1
２０１５．０４．０１
  0
LINE
  8
_0-a_極細3
  6
CENTER1
 62
    7
 10
470.43065977017199
 20
247.0489432058173
 11
470.43065977017199
 21
310.49894320582348
  0
LINE
  8
_0-d_寸法3
  6
CONTINUOUS
 62
    7
 10
462.23913932728209
 20
268.97053705477754
 11
426.88679760159658
 21
293.7245132244683
  0
LINE
  8
_0-d_寸法3
  6
CONTINUOUS
 62
    7
 10
430.98255782304159
 20
290.85663104271305
 11
428.3943673720164
 21
300.51588930560371
  0
LINE
  8
_0-d_寸法3
  6
CONTINUOUS
 62
    7
 10
430.98255782304159
 20
290.85663104271305
 11
433.57074827406677
 21
300.51588930560371
  0
LINE
  8
_0-d_寸法3
  6
CONTINUOUS
 62
    7
 10
462.23913932728209
 20
302.30387038811091
 11
426.88679760159658
 21
327.05784655780172
  0
LINE
  8
_0-d_寸法3
  6
CONTINUOUS
 62
    7
 10
430.98255782304159
 20
324.18996437604642
 11
433.57074827406677
 21
314.5307061131557
  0
LINE
  8
_0-d_寸法3
  6
CONTINUOUS
 62
    7
 10
430.98255782304159
 20
324.18996437604642
 11
428.39436737201629
 21
314.53070611315576
  0
LINE
  8
_0-d_寸法3
  6
CONTINUOUS
 62
    7
 10
430.98255782304159
 20
290.85663104271305
 11
430.98255782304159
 21
324.18996437604642
  0
TEXT
  8
_0-d_寸法3
 62
    7
 10
430.98255782304159
 20
300.02329770937956
 40
15
 41
1
 50
90
  1
20
  0
TEXT
  8
_0-7_枠細線
 62
    5
 10
420.50861213093816
 20
113.23440768958889
 40
25
 41
0.8
 50
0
  1
断面詳細図
  0
TEXT
  8
_0-7_枠細線
 62
    5
 10
535.45758188010586
 20
113.23440768958889
 40
20
 41
0.6
 50
0
  1
Ｓ＝１：３
  0
ARC
  8
_0-b_細線3
  6
CONTINUOUS
 62
    7
 10
470.43065977017199
 20
279.9014393579339
 40
8.75
 50
294.03943363457506
 51
65.960566365424228
  0
ARC
  8
_0-b_細線3
  6
CONTINUOUS
 62
    7
 10
470.43065977017199
 20
279.9014393579339
 40
8.75
 50
114.03943363457542
 51
245.96056636541877
  0
ARC
  8
_0-b_細線3
  6
CONTINUOUS
 62
    7
 10
470.43065977016477
 20
274.06810602454311
 40
2.4999999999928004
 50
179.99999999999983
 51
359.99999999999966
  0
LINE
  8
_0-b_細線3
  6
CONTINUOUS
 62
    7
 10
467.93065977017199
 20
285.73477269126738
 11
467.93065977017199
 21
274.06810602460064
  0
ARC
  8
_0-b_細線3
  6
CONTINUOUS
 62
    7
 10
470.43065977016477
 20
285.73477269133923
 40
2.5000000000072005
 50
0
 51
179.99999999999983
  0
LINE
  8
_0-b_細線3
  6
CONTINUOUS
 62
    7
 10
472.93065977017199
 20
274.06810602460064
 11
472.93065977017199
 21
285.73477269126738
  0
ARC
  8
_0-b_細線3
  6
CONTINUOUS
 62
    7
 10
470.4306597701775
 20
274.06810602458177
 40
4.1666666666723522
 50
179.99999999999983
 51
359.99999999999966
  0
LINE
  8
_0-b_細線3
  6
CONTINUOUS
 62
    7
 10
466.26399310350592
 20
285.73477269126738
 11
466.26399310350592
 21
274.06810602460064
  0
ARC
  8
_0-b_細線3
  6
CONTINUOUS
 62
    7
 10
470.43065977013924
 20
285.73477269136515
 40
4.1666666667000154
 50
0
 51
179.99999999999983
  0
LINE
  8
_0-b_細線3
  6
CONTINUOUS
 62
    7
 10
474.59732643683901
 20
274.06810602460064
 11
474.59732643683901
 21
285.73477269126738
  0
CIRCLE
  8
_0-a_極細3
  6
CONTINUOUS
 62
    7
 10
198.71423256698918
 20
281.52707199681572
 40
0.5530864197530718
  0
LINE
  8
_0-a_極細3
  6
CONTINUOUS
 62
    7
 10
203.76399310350507
 20
296.56810602460041
 11
203.76399310350507
 21
284.90143935793344
  0
LINE
  8
_0-a_極細3
  6
CONTINUOUS
 62
    7
 10
203.76399310350507
 20
296.56810602460041
 11
114.58624595839041
 21
296.56810602460041
  0
LINE
  8
_0-a_極細3
  6
CONTINUOUS
 62
    7
 10
212.0973264368385
 20
284.90143935793344
 11
114.58624595839041
 21
284.90143935793344
  0
LINE
  8
_0-a_極細3
  6
CONTINUOUS
 62
    7
 10
212.0973264368385
 20
296.56810602460041
 11
203.76399310350507
 21
296.56810602460041
  0
LINE
  8
_0-a_極細3
  6
CONTINUOUS
 62
    7
 10
212.0973264368385
 20
295.73477269126693
 11
212.0973264368385
 21
296.56810602460041
  0
LINE
  8
_0-a_極細3
  6
CONTINUOUS
 62
    7
 10
211.89923618047891
 20
284.90143935793344
 11
212.09732643683807
 21
285.09952961429303
  0
LINE
  8
_0-a_極細3
  6
CONTINUOUS
 62
    7
 10
207.65659549335979
 20
284.90143935793344
 11
212.0973264368385
 21
289.34217030141212
  0
LINE
  8
_0-a_極細3
  6
CONTINUOUS
 62
    7
 10
203.76399310350507
 20
285.25147765519819
 11
212.0973264368385
 21
293.58481098853144
  0
LINE
  8
_0-a_極細3
  6
CONTINUOUS
 62
    7
 10
203.76399310350507
 20
289.49411834231728
 11
210.83798078578766
 21
296.56810602460041
  0
LINE
  8
_0-a_極細3
  6
CONTINUOUS
 62
    7
 10
203.76399310350507
 20
293.73675902943683
 11
206.5953400986686
 21
296.56810602460041
  0
LINE
  8
_0-a_極細3
  6
CONTINUOUS
 62
    7
 10
212.0973264368385
 20
294.28713915234175
 11
209.81635956458007
 21
296.56810602460041
  0
LINE
  8
_0-a_極細3
  6
CONTINUOUS
 62
    7
 10
212.0973264368385
 20
290.04449846522243
 11
205.57371887746058
 21
296.56810602460041
  0
LINE
  8
_0-a_極細3
  6
CONTINUOUS
 62
    7
 10
203.76399310350507
 20
294.1351911114366
 11
212.0973264368385
 21
285.80185777810334
  0
LINE
  8
_0-a_極細3
  6
CONTINUOUS
 62
    7
 10
203.76399310350507
 20
289.89255042431728
 11
208.75510416988845
 21
284.90143935793344
  0
LINE
  8
_0-a_極細3
  6
CONTINUOUS
 62
    7
 10
203.76399310350507
 20
285.64990973719796
 11
204.51246348276931
 21
284.90143935793344
  0
LINE
  8
_0-a_極細3
  6
CONTINUOUS
 62
    7
 10
194.92867342587436
 20
284.90143935180618
 11
203.76399310350507
 21
293.73675902943683
  0
LINE
  8
_0-a_極細3
  6
CONTINUOUS
 62
    7
 10
173.71546997556692
 20
284.9014393370951
 11
185.38213666307229
 21
296.56810602460018
  0
LINE
  8
_0-a_極細3
  6
CONTINUOUS
 62
    7
 10
152.50226652525902
 20
284.90143932238357
 11
164.16893322747541
 21
296.56810602460041
  0
LINE
  8
_0-a_極細3
  6
CONTINUOUS
 62
    7
 10
131.28906307495114
 20
284.90143930767249
 11
142.95572979187904
 21
296.56810602460041
  0
LINE
  8
_0-a_極細3
  6
CONTINUOUS
 62
    7
 10
114.58624595839041
 20
289.4118256267077
 11
121.74252635628264
 21
296.56810602460018
  0
LINE
  8
_0-a_極細3
  6
DASHED2
 62
    7
 10
184.32207170072061
 20
284.90143934445064
 11
195.98873838087044
 21
296.56810602460041
  0
LINE
  8
_0-a_極細3
  6
DASHED2
 62
    7
 10
163.1088682504128
 20
284.90143932973933
 11
174.77553494527405
 21
296.56810602460041
  0
LINE
  8
_0-a_極細3
  6
DASHED2
 62
    7
 10
141.89566480010527
 20
284.90143931502803
 11
153.56233150967725
 21
296.56810602460041
  0
LINE
  8
_0-a_極細3
  6
DASHED2
 62
    7
 10
120.68246134979738
 20
284.90143930031695
 11
132.34912807408085
 21
296.56810602460041
  0
LINE
  8
_0-a_極細3
  6
CONTINUOUS
 62
    7
 10
145.4306597701715
 20
251.5681060246003
 11
145.4306597701715
 21
183.23477269126704
  0
LINE
  8
_0-a_極細3
  6
CONTINUOUS
 62
    7
 10
228.76399310350507
 20
183.23477269126704
 11
145.4306597701715
 21
183.23477269126704
  0
LINE
  8
_0-a_極細3
  6
CONTINUOUS
 62
    7
 10
145.4306597701715
 20
251.5681060246003
 11
114.58624595839041
 21
251.5681060246003
  0
LINE
  8
_0-a_極細3
  6
CONTINUOUS
 62
    7
 10
228.76399310350507
 20
183.23477269126704
 11
228.76399310350507
 21
156.99317239648792
  0
LINE
  8
_0-a_極細3
  6
CONTINUOUS
 62
    7
 10
191.34201853851522
 20
156.99317251292484
 11
217.58361871685793
 21
183.23477269126704
  0
LINE
  8
_0-a_極細3
  6
CONTINUOUS
 62
    7
 10
120.63134063987391
 20
156.99317273293801
 11
146.87294059820303
 21
183.23477269126704
  0
LINE
  8
_0-a_極細3
  6
CONTINUOUS
 62
    7
 10
114.58624595839041
 20
221.65875617010931
 11
144.49559581288162
 21
251.5681060246003
  0
LINE
  8
_0-a_極細3
  6
CONTINUOUS
 62
    7
 10
184.27095074865107
 20
156.99317253492623
 11
210.51255090499211
 21
183.23477269126704
  0
LINE
  8
_0-a_極細3
  6
CONTINUOUS
 62
    7
 10
114.58624595839041
 20
158.01914586331998
 11
145.4306597701715
 21
188.86355967510133
  0
LINE
  8
_0-a_極細3
  6
CONTINUOUS
 62
    7
 10
114.58624595839041
 20
228.72982398197485
 11
137.42452800101589
 21
251.5681060246003
  0
LINE
  8
_0-a_極細3
  6
CONTINUOUS
 62
    7
 10
177.19988295878736
 20
156.99317255692756
 11
203.44148309312686
 21
183.23477269126704
  0
LINE
  8
_0-a_極細3
  6
CONTINUOUS
 62
    7
 10
114.58624595839041
 20
165.09021367518557
 11
145.4306597701715
 21
195.93462748696686
  0
LINE
  8
_0-a_極細3
  6
CONTINUOUS
 62
    7
 10
114.58624595839041
 20
235.80089179384018
 11
130.35346018915055
 21
251.5681060246003
  0
CIRCLE
  8
_0-a_極細3
  6
CONTINUOUS
 62
    7
 10
132.48213380155761
 20
266.77151644126036
 40
0.5530864197530718
  0
CIRCLE
  8
_0-a_極細3
  6
CONTINUOUS
 62
    7
 10
122.15126960402714
 20
256.81596088570484
 40
0.5530864197530718
  0
CIRCLE
  8
_0-a_極細3
  6
CONTINUOUS
 62
    7
 10
132.7586770114344
 20
257.88262755237145
 40
0.5530864197530718
  0
CIRCLE
  8
_0-a_極細3
  6
CONTINUOUS
 62
    7
 10
145.38089923365661
 20
259.83818310792697
 40
0.5530864197530718
  0
CIRCLE
  8
_0-a_極細3
  6
CONTINUOUS
 62
    7
 10
173.82534367810052
 20
271.57151644126031
 40
0.5530864197530718
  0
CIRCLE
  8
_0-a_極細3
  6
CONTINUOUS
 62
    7
 10
204.40312145587811
 20
265.34929421903814
 40
0.5530864197530718
  0
CIRCLE
  8
_0-a_極細3
  6
CONTINUOUS
 62
    7
 10
179.51423256698945
 20
264.81596088570484
 40
0.5530864197530718
  0
CIRCLE
  8
_0-a_極細3
  6
CONTINUOUS
 62
    7
 10
152.32534367810098
 20
252.58262755237152
 40
0.5530864197530718
  0
CIRCLE
  8
_0-a_極細3
  6
CONTINUOUS
 62
    7
 10
172.76978812254484
 20
251.33818310792697
 40
0.5530864197530718
  0
CIRCLE
  8
_0-a_極細3
  6
CONTINUOUS
 62
    7
 10
197.83645478921144
 20
247.60484977459384
 40
0.5530864197530718
  0
CIRCLE
  8
_0-a_極細3
  6
CONTINUOUS
 62
    7
 10
185.21423256698924
 20
241.91596088570498
 40
0.5530864197530718
  0
CIRCLE
  8
_0-a_極細3
  6
CONTINUOUS
 62
    7
 10
170.45867701143422
 20
228.40484977459383
 40
0.5530864197530718
  0
CIRCLE
  8
_0-a_極細3
  6
CONTINUOUS
 62
    7
 10
197.83645478921144
 20
235.69373866348283
 40
0.5530864197530718
  0
CIRCLE
  8
_0-a_極細3
  6
CONTINUOUS
 62
    7
 10
156.72534367810059
 20
208.58262755237195
 40
0.5530864197530718
  0
CIRCLE
  8
_0-a_極細3
  6
CONTINUOUS
 62
    7
 10
151.03645478921175
 20
190.6270719968164
 40
0.5530864197530718
  0
CIRCLE
  8
_0-a_極細3
  6
CONTINUOUS
 62
    7
 10
159.747565900323
 20
197.38262755237187
 40
0.5530864197530718
  0
CIRCLE
  8
_0-a_極細3
  6
CONTINUOUS
 62
    7
 10
165.9697881225452
 20
188.84929421903863
 40
0.5530864197530718
  0
CIRCLE
  8
_0-a_極細3
  6
CONTINUOUS
 62
    7
 10
205.26978812254484
 20
206.73818310792754
 40
0.5530864197530718
  0
CIRCLE
  8
_0-a_極細3
  6
CONTINUOUS
 62
    7
 10
194.06978812254508
 20
201.22707199681633
 40
0.5530864197530718
  0
CIRCLE
  8
_0-a_極細3
  6
CONTINUOUS
 62
    7
 10
200.29201034476728
 20
198.73818310792757
 40
0.5530864197530718
  0
CIRCLE
  8
_0-a_極細3
  6
CONTINUOUS
 62
    7
 10
196.73645478921159
 20
189.49373866348324
 40
0.5530864197530718
  0
CIRCLE
  8
_0-a_極細3
  6
CONTINUOUS
 62
    7
 10
216.6475659003226
 20
190.56040533014979
 40
0.5530864197530718
  0
CIRCLE
  8
_0-a_極細3
  6
CONTINUOUS
 62
    7
 10
229.62534367810022
 20
193.76040533014987
 40
0.5530864197530718
  0
CIRCLE
  8
_0-a_極細3
  6
CONTINUOUS
 62
    7
 10
243.31423256698912
 20
178.82707199681676
 40
0.5530864197530718
  0
CIRCLE
  8
_0-a_極細3
  6
CONTINUOUS
 62
    7
 10
236.3808992336557
 20
163.89373866348336
 40
0.5530864197530718
  0
CIRCLE
  8
_0-a_極細3
  6
CONTINUOUS
 62
    7
 10
219.71423256698927
 20
207.50855347829784
 40
0.5530864197530718
  0
CIRCLE
  8
_0-a_極細3
  6
CONTINUOUS
 62
    7
 10
234.46978812254471
 20
241.64188681163103
 40
0.5530864197530718
  0
CIRCLE
  8
_0-a_極細3
  6
CONTINUOUS
 62
    7
 10
249.58089923365554
 20
231.68633125607553
 40
0.5530864197530718
  0
CIRCLE
  8
_0-a_極細3
  6
CONTINUOUS
 62
    7
 10
250.1142325669889
 20
213.73077570052001
 40
0.5530864197530718
  0
CIRCLE
  8
_0-a_極細3
  6
CONTINUOUS
 62
    7
 10
214.86978812254478
 20
243.46410903385311
 40
0.5530864197530718
  0
CIRCLE
  8
_0-a_極細3
  6
CONTINUOUS
 62
    7
 10
194.58089923365606
 20
265.44805965113699
 40
1.825531472681392
  0
CIRCLE
  8
_0-a_極細3
  6
CONTINUOUS
 62
    7
 10
142.81877953222093
 20
272.37767392583476
 40
1.825531472681392
  0
CIRCLE
  8
_0-a_極細3
  6
CONTINUOUS
 62
    7
 10
169.3586770114338
 20
242.64805965113706
 40
1.825531472681392
  0
CIRCLE
  8
_0-a_極細3
  6
CONTINUOUS
 62
    7
 10
149.75867701143392
 20
204.64805965113754
 40
1.825531472681392
  0
CIRCLE
  8
_0-a_極細3
  6
CONTINUOUS
 62
    7
 10
202.95867701143328
 20
191.84805965113782
 40
1.825531472681392
  0
CIRCLE
  8
_0-a_極細3
  6
CONTINUOUS
 62
    7
 10
238.93645478921093
 20
188.24805965113782
 40
1.825531472681392
  0
CIRCLE
  8
_0-a_極細3
  6
CONTINUOUS
 62
    7
 10
243.73645478921063
 20
169.58139298447136
 40
1.825531472681392
  0
CIRCLE
  8
_0-a_極細3
  6
CONTINUOUS
 62
    7
 10
122.62169999114164
 20
273.27028187335907
 40
1.825531472681392
  0
LINE
  8
_0-a_極細3
  6
CONTINUOUS
 62
    7
 10
261.26399310350507
 20
258.23477269126704
 11
262.0973264368385
 21
258.23477269126704
  0
LINE
  8
_0-a_極細3
  6
CONTINUOUS
 62
    7
 10
262.0973264368385
 20
258.23477269126704
 11
262.0973264368385
 21
156.99317239648792
  0
CIRCLE
  8
_0-a_極細3
  6
CONTINUOUS
 62
    7
 10
255.20989228920953
 20
242.24805965113774
 40
1.825531472681392
  0
CIRCLE
  8
_0-a_極細3
  6
CONTINUOUS
 62
    7
 10
254.21793627069241
 20
187.53818310792767
 40
0.5530864197530718
  0
CIRCLE
  8
_0-a_極細3
  6
CONTINUOUS
 62
    7
 10
255.55126960402632
 20
164.88211207475786
 40
0.5530864197530718
  0
CIRCLE
  8
_0-a_極細3
  6
CONTINUOUS
 62
    7
 10
243.18089923365136
 20
223.13694854002676
 40
1.825531472681392
  0
LINE
  8
_0-a_極細3
  6
CONTINUOUS
 62
    7
 10
168.45725821635318
 20
208.11647385377057
 11
163.32695606646794
 21
222.21186316555907
  0
LINE
  8
_0-a_極細3
  6
CONTINUOUS
 62
    7
 10
218.45130089014964
 20
242.27548386480535
 11
223.58160304003439
 21
228.18009455301683
  0
LINE
  8
_0-a_極細3
  6
CONTINUOUS
 62
    7
 10
163.32695606646794
 20
222.21186316555907
 11
218.45130089014964
 21
242.27548386480535
  0
LINE
  8
_0-a_極細3
  6
CONTINUOUS
 62
    7
 10
168.45725821635318
 20
208.11647385377057
 11
223.58160304003439
 21
228.18009455301683
  0
LINE
  8
_0-a_極細3
  6
CENTER1
 62
    7
 10
160.93667374941788
 20
213.36053846963492
 11
224.96769423198359
 21
236.66592395467035
  0
LINE
  8
_0-a_極細3
  6
CONTINUOUS
 62
    7
 10
187.0973264368385
 20
183.23477269126704
 11
187.0973264368385
 21
227.32033403958326
  0
LINE
  8
_0-a_極細3
  6
CONTINUOUS
 62
    7
 10
187.0973264368385
 20
227.32033403958326
 11
172.0973264368385
 21
227.32033403958326
  0
LINE
  8
_0-a_極細3
  6
CONTINUOUS
 62
    7
 10
172.0973264368385
 20
227.32033403958326
 11
172.0973264368385
 21
183.23477269126704
  0
CIRCLE
  8
_0-a_極細3
  6
CONTINUOUS
 62
    7
 10
201.47719552995241
 20
213.15670162644585
 40
1.825531472681392
  0
CIRCLE
  8
_0-a_極細3
  6
CONTINUOUS
 62
    7
 10
223.18583750526108
 20
219.37892384866828
 40
1.825531472681392
  0
LINE
  8
_0-a_極細3
  6
CENTER1
 62
    7
 10
179.5973264368385
 20
174.95803240681411
 11
179.5973264368385
 21
231.59605420419268
  0
LINE
  8
_0-d_寸法3
  6
CONTINUOUS
 62
    7
 10
202.0973264368385
 20
296.56810602460047
 11
156.14729535824898
 21
296.56810602460041
  0
LINE
  8
_0-d_寸法3
  6
CONTINUOUS
 62
    7
 10
161.14729535824898
 20
296.56810602460041
 11
163.73548580927419
 21
286.90884776170969
  0
LINE
  8
_0-d_寸法3
  6
CONTINUOUS
 62
    7
 10
161.14729535824898
 20
296.56810602460041
 11
158.55910490722374
 21
286.90884776170975
  0
LINE
  8
_0-d_寸法3
  6
CONTINUOUS
 62
    7
 10
200.09732643683847
 20
258.23477269126715
 11
156.14729535824921
 21
258.23477269126704
  0
LINE
  8
_0-d_寸法3
  6
CONTINUOUS
 62
    7
 10
161.14729535824921
 20
258.23477269126704
 11
158.55910490722394
 21
267.8940309541577
  0
LINE
  8
_0-d_寸法3
  6
CONTINUOUS
 62
    7
 10
161.14729535824921
 20
258.23477269126704
 11
163.73548580927439
 21
267.89403095415776
  0
LINE
  8
_0-d_寸法3
  6
CONTINUOUS
 62
    7
 10
161.14729535824898
 20
296.56810602460041
 11
161.14729535824921
 21
258.23477269126704
  0
TEXT
  8
_0-d_寸法3
 62
    7
 10
161.14729535824921
 20
269.90143935793378
 40
15
 41
1
 50
90
  1
23
  0
LINE
  8
_0-d_寸法3
  6
CONTINUOUS
 62
    7
 10
202.0973264368385
 20
258.23477269126687
 11
156.14729535824921
 21
258.23477269126681
  0
LINE
  8
_0-d_寸法3
  6
CONTINUOUS
 62
    7
 10
161.14729535824921
 20
258.23477269126681
 11
163.73548580927434
 21
248.57551442837615
  0
LINE
  8
_0-d_寸法3
  6
CONTINUOUS
 62
    7
 10
161.14729535824921
 20
258.23477269126681
 11
158.55910490722394
 21
248.57551442837618
  0
LINE
  8
_0-d_寸法3
  6
CONTINUOUS
 62
    7
 10
200.09732643683847
 20
219.90143935793358
 11
156.14729535824921
 21
219.90143935793358
  0
LINE
  8
_0-d_寸法3
  6
CONTINUOUS
 62
    7
 10
161.14729535824921
 20
219.90143935793355
 11
158.55910490722394
 21
229.56069762082424
  0
LINE
  8
_0-d_寸法3
  6
CONTINUOUS
 62
    7
 10
161.14729535824921
 20
219.90143935793355
 11
163.73548580927439
 21
229.56069762082424
  0
LINE
  8
_0-d_寸法3
  6
CONTINUOUS
 62
    7
 10
161.14729535824921
 20
258.23477269126681
 11
161.14729535824921
 21
219.90143935793355
  0
TEXT
  8
_0-d_寸法3
 62
    7
 10
161.14729535824921
 20
231.56810602460041
 40
15
 41
1
 50
90
  1
23
  0
LINE
  8
_0-d_寸法3
  6
CONTINUOUS
 62
    7
 10
212.09732643683836
 20
209.90143935793381
 11
212.09732643683822
 21
192.75674745702844
  0
LINE
  8
_0-d_寸法3
  6
CONTINUOUS
 62
    7
 10
212.09732643683827
 20
197.75674745702844
 11
221.75658469972902
 21
200.34493790805357
  0
LINE
  8
_0-d_寸法3
  6
CONTINUOUS
 62
    7
 10
212.09732643683827
 20
197.75674745702844
 11
221.75658469972902
 21
195.16855700600317
  0
LINE
  8
_0-d_寸法3
  6
CONTINUOUS
 62
    7
 10
262.09732643683833
 20
248.23477269126704
 11
262.09732643683776
 21
192.75674745702844
  0
LINE
  8
_0-d_寸法3
  6
CONTINUOUS
 62
    7
 10
262.09732643683776
 20
197.75674745702844
 11
252.43806817394713
 21
195.16855700600317
  0
LINE
  8
_0-d_寸法3
  6
CONTINUOUS
 62
    7
 10
262.09732643683776
 20
197.75674745702844
 11
252.43806817394713
 21
200.34493790805362
  0
LINE
  8
_0-d_寸法3
  6
CONTINUOUS
 62
    7
 10
212.09732643683827
 20
197.75674745702844
 11
262.09732643683776
 21
197.75674745702844
  0
TEXT
  8
_0-d_寸法3
 62
    7
 10
229.59732643683807
 20
197.75674745702844
 40
15
 41
1
 50
0
  1
30
  0
ARC
  8
_0-b_細線3
  6
CONTINUOUS
 62
    7
 10
217.0973264368385
 20
263.23477269126704
 40
5
 50
179.99999999999983
 51
269.99999999999977
  0
LINE
  8
_0-b_細線3
  6
CONTINUOUS
 62
    7
 10
212.0973264368385
 20
263.23477269126704
 11
212.0973264368385
 21
295.73477269126693
  0
LINE
  8
_0-b_細線3
  6
CONTINUOUS
 62
    7
 10
217.0973264368385
 20
258.23477269126704
 11
261.26399310350507
 21
258.23477269126704
  0
LINE
  8
_0-b_細線3
  6
CONTINUOUS
 62
    7
 10
262.0973264368385
 20
259.0681060246003
 11
261.26399310350507
 21
258.23477269126704
  0
LINE
  8
_0-b_細線3
  6
CONTINUOUS
 62
    7
 10
262.0973264368385
 20
262.40143935793378
 11
262.0973264368385
 21
259.0681060246003
  0
LINE
  8
_0-b_細線3
  6
CONTINUOUS
 62
    7
 10
261.26399310350507
 20
263.23477269126704
 11
262.0973264368385
 21
262.40143935793378
  0
LINE
  8
_0-b_細線3
  6
CONTINUOUS
 62
    7
 10
217.0973264368385
 20
263.23477269126704
 11
261.26399310350507
 21
263.23477269126704
  0
LINE
  8
_0-b_細線3
  6
CONTINUOUS
 62
    7
 10
212.9306597701715
 20
296.56810602460041
 11
212.0973264368385
 21
295.73477269126693
  0
LINE
  8
_0-b_細線3
  6
CONTINUOUS
 62
    7
 10
216.26399310350507
 20
296.56810602460041
 11
212.9306597701715
 21
296.56810602460041
  0
LINE
  8
_0-b_細線3
  6
CONTINUOUS
 62
    7
 10
217.0973264368385
 20
295.73477269126693
 11
216.26399310350507
 21
296.56810602460041
  0
LINE
  8
_0-b_細線3
  6
CONTINUOUS
 62
    7
 10
217.0973264368385
 20
263.23477269126704
 11
217.0973264368385
 21
295.73477269126693
  0
LINE
  8
_0-b_細線3
  6
CONTINUOUS
 62
    7
 10
225.4306597701715
 20
263.23477269126658
 11
225.4306597701715
 21
296.56810602459973
  0
LINE
  8
_0-b_細線3
  6
CONTINUOUS
 62
    7
 10
225.4306597701715
 20
296.56810602459973
 11
220.4306597701715
 21
296.56810602459973
  0
LINE
  8
_0-b_細線3
  6
CONTINUOUS
 62
    7
 10
220.4306597701715
 20
296.56810602459973
 11
220.4306597701715
 21
263.23477269126658
  0
LINE
  8
_0-b_細線3
  6
CONTINUOUS
 62
    7
 10
220.4306597701715
 20
263.23477269126658
 11
225.4306597701715
 21
263.23477269126658
  0
ARC
  8
_0-b_細線3
  6
CONTINUOUS
 62
    7
 10
262.09732643683827
 20
279.9014393579339
 40
8.75
 50
294.03943363457506
 51
65.960566365424228
  0
ARC
  8
_0-b_細線3
  6
CONTINUOUS
 62
    7
 10
262.09732643683827
 20
279.9014393579339
 40
8.75
 50
114.03943363457542
 51
245.96056636541877
  0
ARC
  8
_0-b_細線3
  6
CONTINUOUS
 62
    7
 10
262.09732643683094
 20
274.06810602454311
 40
2.4999999999928004
 50
179.99999999999983
 51
359.99999999999966
  0
LINE
  8
_0-b_細線3
  6
CONTINUOUS
 62
    7
 10
259.59732643683827
 20
285.73477269126738
 11
259.59732643683827
 21
274.06810602460064
  0
ARC
  8
_0-b_細線3
  6
CONTINUOUS
 62
    7
 10
262.09732643683094
 20
285.73477269133923
 40
2.5000000000072005
 50
0
 51
179.99999999999983
  0
LINE
  8
_0-b_細線3
  6
CONTINUOUS
 62
    7
 10
264.59732643683827
 20
274.06810602460064
 11
264.59732643683827
 21
285.73477269126738
  0
ARC
  8
_0-b_細線3
  6
CONTINUOUS
 62
    7
 10
262.09732643684379
 20
274.06810602458177
 40
4.1666666666723522
 50
179.99999999999983
 51
359.99999999999966
  0
LINE
  8
_0-b_細線3
  6
CONTINUOUS
 62
    7
 10
257.93065977017221
 20
285.73477269126738
 11
257.93065977017221
 21
274.06810602460064
  0
ARC
  8
_0-b_細線3
  6
CONTINUOUS
 62
    7
 10
262.09732643680553
 20
285.73477269136515
 40
4.1666666667000154
 50
0
 51
179.99999999999983
  0
LINE
  8
_0-b_細線3
  6
CONTINUOUS
 62
    7
 10
266.26399310350519
 20
274.06810602460064
 11
266.26399310350519
 21
285.73477269126738
  0
CIRCLE
  8
_0-a_極細3
  6
CONTINUOUS
 62
    7
 10
800.75867701143034
 20
281.83355347829706
 40
0.5530864197530718
  0
CIRCLE
  8
_0-a_極細3
  6
CONTINUOUS
 62
    7
 10
748.75867701143079
 20
282.76688681163046
 40
0.5530864197530718
  0
LINE
  8
_0-a_極細3
  6
CONTINUOUS
 62
    7
 10
737.09732643683867
 20
296.56810602460041
 11
737.09732643683867
 21
284.90143935793344
  0
LINE
  8
_0-a_極細3
  6
CONTINUOUS
 62
    7
 10
737.09732643683867
 20
296.56810602460041
 11
826.27507358195317
 21
296.56810602460041
  0
LINE
  8
_0-a_極細3
  6
CONTINUOUS
 62
    7
 10
728.76399310350507
 20
284.90143935793344
 11
826.27507358195317
 21
284.90143935793344
  0
LINE
  8
_0-a_極細3
  6
CONTINUOUS
 62
    7
 10
728.76399310350507
 20
296.56810602460041
 11
737.09732643683867
 21
296.56810602460041
  0
LINE
  8
_0-a_極細3
  6
CONTINUOUS
 62
    7
 10
728.76399310350507
 20
295.73477269126693
 11
728.76399310350507
 21
296.56810602460041
  0
LINE
  8
_0-a_極細3
  6
CONTINUOUS
 62
    7
 10
737.09732643683867
 20
288.57052563865841
 11
733.42824015611359
 21
284.90143935793344
  0
LINE
  8
_0-a_極細3
  6
CONTINUOUS
 62
    7
 10
737.09732643683867
 20
292.8131663257775
 11
729.1855994689945
 21
284.90143935793344
  0
LINE
  8
_0-a_極細3
  6
CONTINUOUS
 62
    7
 10
728.76399310350507
 20
288.72247367956356
 11
736.60962544854203
 21
296.56810602460041
  0
LINE
  8
_0-a_極細3
  6
CONTINUOUS
 62
    7
 10
728.76399310350507
 20
292.96511436668288
 11
732.36698476142237
 21
296.56810602460018
  0
LINE
  8
_0-a_極細3
  6
CONTINUOUS
 62
    7
 10
737.09732643683867
 20
295.05878381509478
 11
735.58800422733293
 21
296.56810602460041
  0
LINE
  8
_0-a_極細3
  6
CONTINUOUS
 62
    7
 10
737.09732643683867
 20
290.81614312797547
 11
731.34536354021395
 21
296.56810602460041
  0
LINE
  8
_0-a_極細3
  6
CONTINUOUS
 62
    7
 10
737.09732643683867
 20
286.57350244085615
 11
728.76399310350507
 21
294.90683577418963
  0
LINE
  8
_0-a_極細3
  6
CONTINUOUS
 62
    7
 10
734.52674883264183
 20
284.90143935793344
 11
728.76399310350507
 21
290.66419508707031
  0
LINE
  8
_0-a_極細3
  6
CONTINUOUS
 62
    7
 10
730.28410814552262
 20
284.90143935793344
 11
728.76399310350507
 21
286.42155439995099
  0
LINE
  8
_0-a_極細3
  6
CONTINUOUS
 62
    7
 10
805.55313183714134
 20
284.90143935793344
 11
817.21979787701912
 21
296.56810539781122
  0
LINE
  8
_0-a_極細3
  6
CONTINUOUS
 62
    7
 10
784.33992840154497
 20
284.90143935793367
 11
796.00659460737143
 21
296.5681055637599
  0
LINE
  8
_0-a_極細3
  6
CONTINUOUS
 62
    7
 10
763.1267249659486
 20
284.90143935793344
 11
774.79339133772328
 21
296.56810572970812
  0
LINE
  8
_0-a_極細3
  6
CONTINUOUS
 62
    7
 10
741.91352153035223
 20
284.90143935793344
 11
753.58018806807559
 21
296.5681058956568
  0
LINE
  8
_0-a_極細3
  6
DASHED2
 62
    7
 10
816.15973355494009
 20
284.90143935793367
 11
826.27507358195317
 21
295.01677938494709
  0
LINE
  8
_0-a_極細3
  6
DASHED2
 62
    7
 10
794.94653011934315
 20
284.90143935793344
 11
806.61319624219516
 21
296.56810548078533
  0
LINE
  8
_0-a_極細3
  6
DASHED2
 62
    7
 10
773.7333266837469
 20
284.90143935793344
 11
785.39999297254735
 21
296.56810564673401
  0
LINE
  8
_0-a_極細3
  6
DASHED2
 62
    7
 10
752.52012324815041
 20
284.90143935793344
 11
764.1867897028992
 21
296.56810581268246
  0
LINE
  8
_0-a_極細3
  6
DASHED2
 62
    7
 10
737.09732643683867
 20
290.69184598221796
 11
742.97358643325151
 21
296.56810597863091
  0
CIRCLE
  8
_0-a_極細3
  6
CONTINUOUS
 62
    7
 10
808.75867701142988
 20
282.20361520669235
 40
1.825531472681392
  0
LINE
  8
_0-a_極細3
  6
CONTINUOUS
 62
    7
 10
795.43065977017159
 20
251.5681060246003
 11
795.43065977017159
 21
183.23477269126704
  0
LINE
  8
_0-a_極細3
  6
CONTINUOUS
 62
    7
 10
712.09732643683867
 20
183.23477269126704
 11
795.43065977017159
 21
183.23477269126704
  0
LINE
  8
_0-a_極細3
  6
CONTINUOUS
 62
    7
 10
795.43065977017159
 20
251.5681060246003
 11
826.27507358195317
 21
251.5681060246003
  0
LINE
  8
_0-a_極細3
  6
CONTINUOUS
 62
    7
 10
712.09732643683867
 20
183.23477269126704
 11
712.09732643683867
 21
156.99317239648792
  0
LINE
  8
_0-a_極細3
  6
CONTINUOUS
 62
    7
 10
803.72066218476505
 20
156.99317239648792
 11
826.27507362349388
 21
179.54758383521693
  0
LINE
  8
_0-a_極細3
  6
CONTINUOUS
 62
    7
 10
733.00998406611018
 20
156.99317239648792
 11
759.25158436088896
 21
183.23477269126704
  0
LINE
  8
_0-a_極細3
  6
CONTINUOUS
 62
    7
 10
795.43065977017159
 20
219.4138481005497
 11
826.27507358270861
 21
250.25826191308659
  0
LINE
  8
_0-a_極細3
  6
CONTINUOUS
 62
    7
 10
796.64959437289917
 20
156.99317239648792
 11
826.27507361941525
 21
186.618651643004
  0
LINE
  8
_0-a_極細3
  6
CONTINUOUS
 62
    7
 10
725.9389162542443
 20
156.99317239648792
 11
752.18051654902365
 21
183.23477269126704
  0
LINE
  8
_0-a_極細3
  6
CONTINUOUS
 62
    7
 10
795.43065977017159
 20
226.48491591241523
 11
820.51384970280651
 21
251.56810584504993
  0
LINE
  8
_0-a_極細3
  6
CONTINUOUS
 62
    7
 10
789.57852656103398
 20
156.99317239648792
 11
826.27507361533674
 21
193.68971945079096
  0
LINE
  8
_0-a_極細3
  6
CONTINUOUS
 62
    7
 10
718.86784844237911
 20
156.99317239648792
 11
745.10944873715846
 21
183.23477269126704
  0
LINE
  8
_0-a_極細3
  6
CONTINUOUS
 62
    7
 10
795.43065977017159
 20
233.55598372428076
 11
813.44278194155731
 21
251.56810589566604
  0
CIRCLE
  8
_0-a_極細3
  6
CONTINUOUS
 62
    7
 10
698.50312145587577
 20
242.08910903385313
 40
0.5530864197530718
  0
CIRCLE
  8
_0-a_極細3
  6
CONTINUOUS
 62
    7
 10
708.45867701143106
 20
246.88910903385306
 40
0.5530864197530718
  0
CIRCLE
  8
_0-a_極細3
  6
CONTINUOUS
 62
    7
 10
704.36978812254256
 20
221.91133125607564
 40
0.5530864197530718
  0
CIRCLE
  8
_0-a_極細3
  6
CONTINUOUS
 62
    7
 10
721.90312145587586
 20
204.88910903385352
 40
0.5530864197530718
  0
CIRCLE
  8
_0-a_極細3
  6
CONTINUOUS
 62
    7
 10
704.06978812254238
 20
181.58910903385376
 40
0.5530864197530718
  0
CIRCLE
  8
_0-a_極細3
  6
CONTINUOUS
 62
    7
 10
694.73645478920946
 20
163.72244236718728
 40
0.5530864197530718
  0
CIRCLE
  8
_0-a_極細3
  6
CONTINUOUS
 62
    7
 10
706.20312145587559
 20
193.58910903385356
 40
0.5530864197530718
  0
CIRCLE
  8
_0-a_極細3
  6
CONTINUOUS
 62
    7
 10
720.06978812254249
 20
188.78910903385361
 40
0.5530864197530718
  0
CIRCLE
  8
_0-a_極細3
  6
CONTINUOUS
 62
    7
 10
747.00312145587577
 20
189.05577570052031
 40
0.5530864197530718
  0
CIRCLE
  8
_0-a_極細3
  6
CONTINUOUS
 62
    7
 10
735.00312145587588
 20
198.12244236718684
 40
0.5530864197530718
  0
CIRCLE
  8
_0-a_極細3
  6
CONTINUOUS
 62
    7
 10
746.20312145587559
 20
203.72244236718677
 40
0.5530864197530718
  0
CIRCLE
  8
_0-a_極細3
  6
CONTINUOUS
 62
    7
 10
734.22534367809749
 20
258.0113312560751
 40
0.5530864197530718
  0
CIRCLE
  8
_0-a_極細3
  6
CONTINUOUS
 62
    7
 10
754.7586770114309
 20
257.3002201449641
 40
0.5530864197530718
  0
CIRCLE
  8
_0-a_極細3
  6
CONTINUOUS
 62
    7
 10
743.15867701143088
 20
243.30022014496421
 40
0.5530864197530718
  0
CIRCLE
  8
_0-a_極細3
  6
CONTINUOUS
 62
    7
 10
782.35867701143081
 20
190.10022014496471
 40
0.5530864197530718
  0
CIRCLE
  8
_0-a_極細3
  6
CONTINUOUS
 62
    7
 10
789.55867701143063
 20
204.10022014496477
 40
0.5530864197530718
  0
CIRCLE
  8
_0-a_極細3
  6
CONTINUOUS
 62
    7
 10
787.95867701143027
 20
224.90022014496446
 40
0.5530864197530718
  0
CIRCLE
  8
_0-a_極細3
  6
CONTINUOUS
 62
    7
 10
769.95867701143072
 20
246.10022014496428
 40
0.5530864197530718
  0
CIRCLE
  8
_0-a_極細3
  6
CONTINUOUS
 62
    7
 10
786.75867701143034
 20
265.70022014496396
 40
0.5530864197530718
  0
CIRCLE
  8
_0-a_極細3
  6
CONTINUOUS
 62
    7
 10
783.95867701143015
 20
238.90022014496424
 40
0.5530864197530718
  0
CIRCLE
  8
_0-a_極細3
  6
CONTINUOUS
 62
    7
 10
813.55867701143006
 20
260.10022014496406
 40
0.5530864197530718
  0
CIRCLE
  8
_0-a_極細3
  6
CONTINUOUS
 62
    7
 10
793.11423256698572
 20
258.40361520669251
 40
1.825531472681392
  0
CIRCLE
  8
_0-a_極細3
  6
CONTINUOUS
 62
    7
 10
737.69201034476418
 20
264.98139298447029
 40
1.825531472681392
  0
CIRCLE
  8
_0-a_極細3
  6
CONTINUOUS
 62
    7
 10
769.69201034476384
 20
232.98139298447055
 40
1.825531472681392
  0
CIRCLE
  8
_0-a_極細3
  6
CONTINUOUS
 62
    7
 10
699.29756590032059
 20
188.43139298447099
 40
1.825531472681392
  0
CIRCLE
  8
_0-a_極細3
  6
CONTINUOUS
 62
    7
 10
709.5197881225422
 20
218.29805965113761
 40
1.825531472681392
  0
CIRCLE
  8
_0-a_極細3
  6
CONTINUOUS
 62
    7
 10
744.71978812254201
 20
195.89805965113769
 40
1.825531472681392
  0
CIRCLE
  8
_0-a_極細3
  6
CONTINUOUS
 62
    7
 10
790.98498075782572
 20
185.71100725916821
 40
1.825531472681392
  0
CIRCLE
  8
_0-a_極細3
  6
CONTINUOUS
 62
    7
 10
740.31978812254192
 20
239.09805965113733
 40
1.825531472681392
  0
CIRCLE
  8
_0-a_極細3
  6
CONTINUOUS
 62
    7
 10
692.85373873982644
 20
233.67485424410089
 40
0.5530864197530718
  0
CIRCLE
  8
_0-a_極細3
  6
CONTINUOUS
 62
    7
 10
693.05373873982717
 20
209.71929868854559
 40
0.5530864197530718
  0
CIRCLE
  8
_0-a_極細3
  6
CONTINUOUS
 62
    7
 10
770.09201034476393
 20
270.44805965113699
 40
1.825531472681392
  0
LINE
  8
_0-a_極細3
  6
CONTINUOUS
 62
    7
 10
679.59732643683765
 20
258.23477269126704
 11
678.76399310350462
 21
258.23477269126704
  0
LINE
  8
_0-a_極細3
  6
CONTINUOUS
 62
    7
 10
678.76399310350462
 20
258.23477269126704
 11
678.76399310350462
 21
156.99317239648792
  0
CIRCLE
  8
_0-a_極細3
  6
CONTINUOUS
 62
    7
 10
684.74838894558798
 20
218.17799792274229
 40
0.5530864197530718
  0
CIRCLE
  8
_0-a_極細3
  6
CONTINUOUS
 62
    7
 10
686.05497330772778
 20
178.9224423671871
 40
0.5530864197530718
  0
CIRCLE
  8
_0-a_極細3
  6
CONTINUOUS
 62
    7
 10
685.41608441883818
 20
244.87583742891559
 40
1.825531472681392
  0
CIRCLE
  8
_0-a_極細3
  6
CONTINUOUS
 62
    7
 10
688.36423256698617
 20
172.2536152066931
 40
1.825531472681392
  0
LINE
  8
_0-a_極細3
  6
CONTINUOUS
 62
    7
 10
772.40406132399039
 20
208.11647385377057
 11
777.5343634738756
 21
222.21186316555907
  0
LINE
  8
_0-a_極細3
  6
CONTINUOUS
 62
    7
 10
722.41001865019416
 20
242.27548386480535
 11
717.27971650030941
 21
228.18009455301683
  0
LINE
  8
_0-a_極細3
  6
CONTINUOUS
 62
    7
 10
777.5343634738756
 20
222.21186316555907
 11
722.41001865019416
 21
242.27548386480535
  0
LINE
  8
_0-a_極細3
  6
CONTINUOUS
 62
    7
 10
772.40406132399039
 20
208.11647385377057
 11
717.27971650030941
 21
228.18009455301683
  0
LINE
  8
_0-a_極細3
  6
CENTER1
 62
    7
 10
779.92464579092587
 20
213.36053846963492
 11
715.89362530836024
 21
236.66592395467035
  0
LINE
  8
_0-a_極細3
  6
CONTINUOUS
 62
    7
 10
753.76399310350507
 20
183.23477269126704
 11
753.76399310350507
 21
227.32033403958326
  0
LINE
  8
_0-a_極細3
  6
CONTINUOUS
 62
    7
 10
753.76399310350507
 20
227.32033403958326
 11
768.76399310350507
 21
227.32033403958326
  0
LINE
  8
_0-a_極細3
  6
CONTINUOUS
 62
    7
 10
768.76399310350507
 20
227.32033403958326
 11
768.76399310350507
 21
183.23477269126704
  0
LINE
  8
_0-a_極細3
  6
CENTER1
 62
    7
 10
761.26399310350507
 20
174.95803240681411
 11
761.26399310350507
 21
231.59605420419268
  0
CIRCLE
  8
_0-a_極細3
  6
CONTINUOUS
 62
    7
 10
755.38089923365351
 20
240.39651644126059
 40
0.5530864197530718
  0
CIRCLE
  8
_0-a_極細3
  6
CONTINUOUS
 62
    7
 10
777.59708579058042
 20
227.0533065647177
 40
0.5530864197530718
  0
LINE
  8
_0-d_寸法3
  6
CONTINUOUS
 62
    7
 10
728.76399310350553
 20
209.90143935793381
 11
728.76399310350553
 21
192.75674745702844
  0
LINE
  8
_0-d_寸法3
  6
CONTINUOUS
 62
    7
 10
728.76399310350553
 20
197.75674745702844
 11
719.10473484061481
 21
195.16855700600317
  0
LINE
  8
_0-d_寸法3
  6
CONTINUOUS
 62
    7
 10
728.76399310350553
 20
197.75674745702844
 11
719.10473484061481
 21
200.34493790805357
  0
LINE
  8
_0-d_寸法3
  6
CONTINUOUS
 62
    7
 10
678.76399310350553
 20
248.23477269126704
 11
678.76399310350553
 21
192.75674745702844
  0
LINE
  8
_0-d_寸法3
  6
CONTINUOUS
 62
    7
 10
678.76399310350553
 20
197.75674745702844
 11
688.42325136639624
 21
200.34493790805362
  0
LINE
  8
_0-d_寸法3
  6
CONTINUOUS
 62
    7
 10
678.76399310350553
 20
197.75674745702844
 11
688.42325136639624
 21
195.16855700600317
  0
LINE
  8
_0-d_寸法3
  6
CONTINUOUS
 62
    7
 10
728.76399310350553
 20
197.75674745702844
 11
678.76399310350553
 21
197.75674745702844
  0
TEXT
  8
_0-d_寸法3
 62
    7
 10
696.26399310350553
 20
197.75674745702838
 40
15
 41
1
 50
0.0000000000002714
  1
30
  0
ARC
  8
_0-b_細線3
  6
CONTINUOUS
 62
    7
 10
723.76399310350507
 20
263.23477269126704
 40
5
 50
269.99999999999977
 51
359.99999999999966
  0
LINE
  8
_0-b_細線3
  6
CONTINUOUS
 62
    7
 10
728.76399310350507
 20
263.23477269126704
 11
728.76399310350507
 21
295.73477269126693
  0
LINE
  8
_0-b_細線3
  6
CONTINUOUS
 62
    7
 10
723.76399310350507
 20
258.23477269126704
 11
679.59732643683765
 21
258.23477269126704
  0
LINE
  8
_0-b_細線3
  6
CONTINUOUS
 62
    7
 10
678.76399310350462
 20
259.0681060246003
 11
679.59732643683765
 21
258.23477269126704
  0
LINE
  8
_0-b_細線3
  6
CONTINUOUS
 62
    7
 10
678.76399310350462
 20
262.40143935793378
 11
678.76399310350462
 21
259.0681060246003
  0
LINE
  8
_0-b_細線3
  6
CONTINUOUS
 62
    7
 10
679.59732643683765
 20
263.23477269126704
 11
678.76399310350462
 21
262.40143935793378
  0
LINE
  8
_0-b_細線3
  6
CONTINUOUS
 62
    7
 10
723.76399310350507
 20
263.23477269126704
 11
679.59732643683765
 21
263.23477269126704
  0
LINE
  8
_0-b_細線3
  6
CONTINUOUS
 62
    7
 10
727.93065977017204
 20
296.56810602460041
 11
728.76399310350507
 21
295.73477269126693
  0
LINE
  8
_0-b_細線3
  6
CONTINUOUS
 62
    7
 10
724.59732643683867
 20
296.56810602460041
 11
727.93065977017204
 21
296.56810602460041
  0
LINE
  8
_0-b_細線3
  6
CONTINUOUS
 62
    7
 10
723.76399310350507
 20
295.73477269126693
 11
724.59732643683867
 21
296.56810602460041
  0
LINE
  8
_0-b_細線3
  6
CONTINUOUS
 62
    7
 10
723.76399310350507
 20
263.23477269126704
 11
723.76399310350507
 21
295.73477269126693
  0
LINE
  8
_0-b_細線3
  6
CONTINUOUS
 62
    7
 10
715.43065977017204
 20
263.23477269126727
 11
715.43065977017204
 21
296.56810602460041
  0
LINE
  8
_0-b_細線3
  6
CONTINUOUS
 62
    7
 10
715.43065977017204
 20
296.56810602460041
 11
720.43065977017204
 21
296.56810602460041
  0
LINE
  8
_0-b_細線3
  6
CONTINUOUS
 62
    7
 10
720.43065977017204
 20
296.56810602460041
 11
720.43065977017204
 21
263.23477269126727
  0
LINE
  8
_0-b_細線3
  6
CONTINUOUS
 62
    7
 10
720.43065977017204
 20
263.23477269126727
 11
715.43065977017204
 21
263.23477269126727
  0
ARC
  8
_0-b_細線3
  6
CONTINUOUS
 62
    7
 10
678.76399310350553
 20
279.9014393579339
 40
8.75
 50
294.03943363457506
 51
65.960566365424228
  0
ARC
  8
_0-b_細線3
  6
CONTINUOUS
 62
    7
 10
678.76399310350553
 20
279.9014393579339
 40
8.75
 50
114.03943363457542
 51
245.96056636541877
  0
ARC
  8
_0-b_細線3
  6
CONTINUOUS
 62
    7
 10
678.76399310349825
 20
274.06810602454311
 40
2.4999999999928004
 50
179.99999999999983
 51
359.99999999999966
  0
LINE
  8
_0-b_細線3
  6
CONTINUOUS
 62
    7
 10
676.26399310350553
 20
285.73477269126738
 11
676.26399310350553
 21
274.06810602460064
  0
ARC
  8
_0-b_細線3
  6
CONTINUOUS
 62
    7
 10
678.76399310349825
 20
285.73477269133923
 40
2.5000000000072005
 50
0
 51
179.99999999999983
  0
LINE
  8
_0-b_細線3
  6
CONTINUOUS
 62
    7
 10
681.26399310350553
 20
274.06810602460064
 11
681.26399310350553
 21
285.73477269126738
  0
ARC
  8
_0-b_細線3
  6
CONTINUOUS
 62
    7
 10
678.76399310351098
 20
274.06810602458177
 40
4.1666666666723522
 50
179.99999999999983
 51
359.99999999999966
  0
LINE
  8
_0-b_細線3
  6
CONTINUOUS
 62
    7
 10
674.59732643683947
 20
285.73477269126738
 11
674.59732643683947
 21
274.06810602460064
  0
ARC
  8
_0-b_細線3
  6
CONTINUOUS
 62
    7
 10
678.76399310347279
 20
285.73477269136515
 40
4.1666666667000154
 50
0
 51
179.99999999999983
  0
LINE
  8
_0-b_細線3
  6
CONTINUOUS
 62
    7
 10
682.9306597701725
 20
274.06810602460064
 11
682.9306597701725
 21
285.73477269126738
  0
LINE
  8
_0-b_細線3
  6
CONTINUOUS
 62
    7
 10
715.43065977017204
 20
296.56810602460041
 11
225.4306597701715
 21
296.56810602459973
  0
LINE
  8
_0-d_寸法3
  6
CONTINUOUS
 62
    7
 10
262.0973264368385
 20
253.23477269126704
 11
262.0973264368385
 21
192.75674745702844
  0
LINE
  8
_0-d_寸法3
  6
CONTINUOUS
 62
    7
 10
262.0973264368385
 20
197.75674745702844
 11
271.75658469972916
 21
200.34493790805357
  0
LINE
  8
_0-d_寸法3
  6
CONTINUOUS
 62
    7
 10
262.0973264368385
 20
197.75674745702844
 11
271.75658469972916
 21
195.16855700600317
  0
LINE
  8
_0-d_寸法3
  6
CONTINUOUS
 62
    7
 10
678.76399310350462
 20
253.23477269126704
 11
678.76399310350462
 21
192.75674745702844
  0
LINE
  8
_0-d_寸法3
  6
CONTINUOUS
 62
    7
 10
678.76399310350462
 20
197.75674745702844
 11
669.10473484061401
 21
195.16855700600317
  0
LINE
  8
_0-d_寸法3
  6
CONTINUOUS
 62
    7
 10
678.76399310350462
 20
197.75674745702844
 11
669.10473484061401
 21
200.34493790805362
  0
LINE
  8
_0-d_寸法3
  6
CONTINUOUS
 62
    7
 10
262.0973264368385
 20
197.75674745702844
 11
678.76399310350462
 21
197.75674745702844
  0
TEXT
  8
_0-d_寸法3
 62
    7
 10
459.18065977017159
 20
197.75674745702844
 40
15
 41
1
 50
0
  1
250
  0
LINE
  8
_0-b_細線3
  6
CONTINUOUS
 62
    7
 10
715.43065977017204
 20
263.23477269126727
 11
225.4306597701715
 21
263.23477269126658
  0
LINE
  8
_0-a_極細3
  6
CENTER1
 62
    7
 10
731.43074817132731
 20
279.9014393579339
 11
210.44333399229799
 21
279.9014393579339
  0
LINE
  8
_0-d_寸法3
  6
CONTINUOUS
 62
    7
 10
212.09732643683878
 20
301.56810602460041
 11
212.09732643683893
 21
421.56810602460041
  0
LINE
  8
_0-d_寸法3
  6
CONTINUOUS
 62
    7
 10
212.09732643683893
 20
416.56810602460041
 11
221.75658469972967
 21
419.1562964756256
  0
LINE
  8
_0-d_寸法3
  6
CONTINUOUS
 62
    7
 10
212.09732643683893
 20
416.56810602460041
 11
221.75658469972967
 21
413.97991557357528
  0
LINE
  8
_0-d_寸法3
  6
CONTINUOUS
 62
    7
 10
728.76399310350507
 20
301.56810602460041
 11
728.76399310350553
 21
421.56810602460041
  0
LINE
  8
_0-d_寸法3
  6
CONTINUOUS
 62
    7
 10
728.76399310350553
 20
416.56810602460041
 11
719.10473484061481
 21
413.97991557357528
  0
LINE
  8
_0-d_寸法3
  6
CONTINUOUS
 62
    7
 10
728.76399310350553
 20
416.56810602460041
 11
719.10473484061481
 21
419.15629647562571
  0
LINE
  8
_0-d_寸法3
  6
CONTINUOUS
 62
    7
 10
212.09732643683893
 20
416.56810602460041
 11
728.76399310350553
 21
416.56810602460041
  0
TEXT
  8
_0-d_寸法3
 62
    7
 10
459.18065977017199
 20
416.56810602460041
 40
15
 41
1
 50
0
  1
310
  0
LINE
  8
_0-d_寸法3
  6
CONTINUOUS
 62
    7
 10
220.43065977017179
 20
306.56810602459973
 11
220.43065977017207
 21
351.56810602460041
  0
LINE
  8
_0-d_寸法3
  6
CONTINUOUS
 62
    7
 10
220.43065977017199
 20
346.56810602460041
 11
230.08991803306273
 21
349.1562964756256
  0
LINE
  8
_0-d_寸法3
  6
CONTINUOUS
 62
    7
 10
220.43065977017199
 20
346.56810602460041
 11
230.08991803306273
 21
343.97991557357523
  0
LINE
  8
_0-d_寸法3
  6
CONTINUOUS
 62
    7
 10
262.0973264368385
 20
306.56810602460007
 11
262.0973264368385
 21
351.56810602460041
  0
LINE
  8
_0-d_寸法3
  6
CONTINUOUS
 62
    7
 10
262.0973264368385
 20
346.56810602460041
 11
252.43806817394784
 21
343.97991557357523
  0
LINE
  8
_0-d_寸法3
  6
CONTINUOUS
 62
    7
 10
262.0973264368385
 20
346.56810602460041
 11
252.43806817394784
 21
349.15629647562571
  0
LINE
  8
_0-d_寸法3
  6
CONTINUOUS
 62
    7
 10
220.43065977017199
 20
346.56810602460041
 11
262.0973264368385
 21
346.56810602460041
  0
TEXT
  8
_0-d_寸法3
 62
    7
 10
233.76399310350521
 20
346.56810602460041
 40
15
 41
1
 50
0
  1
25
  0
LINE
  8
_0-d_寸法3
  6
CONTINUOUS
 62
    7
 10
262.0973264368385
 20
346.56810602460041
 11
271.75658469972922
 21
349.15629647562554
  0
LINE
  8
_0-d_寸法3
  6
CONTINUOUS
 62
    7
 10
262.0973264368385
 20
346.56810602460041
 11
271.75658469972916
 21
343.97991557357523
  0
LINE
  8
_0-d_寸法3
  6
CONTINUOUS
 62
    7
 10
470.43065977017199
 20
306.56810602460007
 11
470.43065977017199
 21
351.56810602460041
  0
LINE
  8
_0-d_寸法3
  6
CONTINUOUS
 62
    7
 10
470.43065977017199
 20
346.56810602460041
 11
460.77140150728127
 21
343.97991557357523
  0
LINE
  8
_0-d_寸法3
  6
CONTINUOUS
 62
    7
 10
470.43065977017199
 20
346.56810602460041
 11
460.77140150728133
 21
349.15629647562571
  0
LINE
  8
_0-d_寸法3
  6
CONTINUOUS
 62
    7
 10
262.0973264368385
 20
346.56810602460041
 11
470.43065977017199
 21
346.56810602460041
  0
TEXT
  8
_0-d_寸法3
 62
    7
 10
355.01399310350553
 20
346.56810602460041
 40
15
 41
1
 50
0
  1
125
  0
LINE
  8
_0-d_寸法3
  6
CONTINUOUS
 62
    7
 10
470.43065977017199
 20
346.56810602460041
 11
480.08991803306276
 21
349.15629647562554
  0
LINE
  8
_0-d_寸法3
  6
CONTINUOUS
 62
    7
 10
470.43065977017199
 20
346.56810602460041
 11
480.08991803306265
 21
343.97991557357523
  0
LINE
  8
_0-d_寸法3
  6
CONTINUOUS
 62
    7
 10
678.76399310350553
 20
306.56810602460007
 11
678.76399310350553
 21
351.56810602460041
  0
LINE
  8
_0-d_寸法3
  6
CONTINUOUS
 62
    7
 10
678.76399310350553
 20
346.56810602460041
 11
669.10473484061481
 21
343.97991557357523
  0
LINE
  8
_0-d_寸法3
  6
CONTINUOUS
 62
    7
 10
678.76399310350553
 20
346.56810602460041
 11
669.10473484061481
 21
349.15629647562571
  0
LINE
  8
_0-d_寸法3
  6
CONTINUOUS
 62
    7
 10
470.43065977017199
 20
346.56810602460041
 11
678.76399310350553
 21
346.56810602460041
  0
TEXT
  8
_0-d_寸法3
 62
    7
 10
563.34732643683901
 20
346.56810602460041
 40
15
 41
1
 50
0
  1
125
  0
LINE
  8
_0-d_寸法3
  6
CONTINUOUS
 62
    7
 10
678.76399310350553
 20
346.56810602460041
 11
688.42325136639624
 21
349.15629647562554
  0
LINE
  8
_0-d_寸法3
  6
CONTINUOUS
 62
    7
 10
678.76399310350553
 20
346.56810602460041
 11
688.42325136639624
 21
343.97991557357523
  0
LINE
  8
_0-d_寸法3
  6
CONTINUOUS
 62
    7
 10
720.43065977017204
 20
306.56810602460041
 11
720.43065977017204
 21
351.56810602460041
  0
LINE
  8
_0-d_寸法3
  6
CONTINUOUS
 62
    7
 10
720.43065977017204
 20
346.56810602460041
 11
710.77140150728144
 21
343.97991557357523
  0
LINE
  8
_0-d_寸法3
  6
CONTINUOUS
 62
    7
 10
720.43065977017204
 20
346.56810602460041
 11
710.77140150728144
 21
349.15629647562571
  0
LINE
  8
_0-d_寸法3
  6
CONTINUOUS
 62
    7
 10
678.76399310350553
 20
346.56810602460041
 11
720.43065977017204
 21
346.56810602460041
  0
TEXT
  8
_0-d_寸法3
 62
    7
 10
692.09732643683901
 20
346.56810602460041
 40
15
 41
1
 50
0
  1
25
  0
LINE
  8
_0-7_枠細線
  6
CONTINUOUS
 62
    5
 10
1139.4018171150183
 20
373.42884000293407
 11
1139.4018171150183
 21
453.42884000293424
  0
LINE
  8
_0-7_枠細線
  6
CONTINUOUS
 62
    5
 10
1229.4018171150183
 20
373.42884000293407
 11
1229.4018171150183
 21
453.42884000293424
  0
TEXT
  8
_0-7_枠細線
 62
    5
 10
1251.9018171150183
 20
430.92884000293424
 40
15
 41
1
 50
0
  1
蓋重量
  0
LINE
  8
_0-7_枠細線
  6
CONTINUOUS
 62
    5
 10
1319.4018171150183
 20
373.42884000293407
 11
1319.4018171150183
 21
453.42884000293424
  0
TEXT
  8
_0-7_枠細線
 62
    5
 10
1341.9018171150183
 20
430.92884000293424
 40
15
 41
1
 50
0
  1
枠重量
  0
LINE
  8
_0-7_枠細線
  6
CONTINUOUS
 62
    5
 10
1139.4018171150183
 20
423.42884000293424
 11
1409.4018171150183
 21
423.42884000293424
  0
LINE
  8
_0-7_枠細線
  6
CONTINUOUS
 62
    5
 10
1139.4018171150183
 20
453.42884000293424
 11
1409.4018171150183
 21
453.42884000293424
  0
LINE
  8
_0-7_枠細線
  6
CONTINUOUS
 62
    5
 10
1139.4018171150183
 20
373.42884000293407
 11
1409.4018171150183
 21
373.42884000293407
  0
LINE
  8
_0-7_枠細線
  6
CONTINUOUS
 62
    5
 10
1409.4018171150183
 20
373.42884000293407
 11
1409.4018171150183
 21
453.42884000293424
  0
TEXT
  8
_0-7_枠細線
 62
    5
 10
1154.4018171150183
 20
430.92884000293424
 40
15
 41
1
 50
0
  1
適用荷重
  0
TEXT
  8
_0-7_枠細線
 62
    5
 10
1161.9018171150183
 20
400.92884000293424
 40
15
 41
1
 50
0
  1
歩道用
  0
TEXT
  8
_0-7_枠細線
 62
    5
 10
1139.4018171150183
 20
380.92884000293407
 40
15
 41
1
 50
0
  1
（5.0kN/㎡）
  0
TEXT
  8
_0-7_枠細線
 62
    5
 10
1250.4018171150183
 20
392.17884000293407
 40
15
 41
0.8000000000000001
 50
0
  1
6.8kg/枚
  0
TEXT
  8
_0-7_枠細線
 62
    5
 10
1334.4018171150183
 20
392.17884000293407
 40
15
 41
0.8000000000000001
 50
0
  1
2.4kg/ｍ組
  0
LINE
  8
_0-0_計極細
  6
CONTINUOUS
 62
    2
 10
1210.9337497421084
 20
684.43908616188526
 11
1204.9337497421084
 21
684.43908616188526
  0
LINE
  8
_0-0_計極細
  6
CONTINUOUS
 62
    2
 10
1210.9337497421084
 20
679.43908616188526
 11
1204.9337497421084
 21
679.43908616188526
  0
LINE
  8
_0-0_計極細
  6
CONTINUOUS
 62
    2
 10
1196.9337497421084
 20
684.43908616188526
 11
1190.9337497421084
 21
684.43908616188526
  0
LINE
  8
_0-0_計極細
  6
CONTINUOUS
 62
    2
 10
1196.9337497421084
 20
679.43908616188526
 11
1190.9337497421084
 21
679.43908616188526
  0
LINE
  8
_0-0_計極細
  6
CONTINUOUS
 62
    2
 10
1182.9337497421084
 20
684.43908616188526
 11
1176.9337497421084
 21
684.43908616188526
  0
LINE
  8
_0-0_計極細
  6
CONTINUOUS
 62
    2
 10
1182.9337497421084
 20
679.43908616188526
 11
1176.9337497421084
 21
679.43908616188526
  0
LINE
  8
_0-0_計極細
  6
CONTINUOUS
 62
    2
 10
1168.9337497421084
 20
684.43908616188526
 11
1162.9337497421084
 21
684.43908616188526
  0
LINE
  8
_0-0_計極細
  6
CONTINUOUS
 62
    2
 10
1168.9337497421084
 20
679.43908616188526
 11
1162.9337497421084
 21
679.43908616188526
  0
LINE
  8
_0-0_計極細
  6
CONTINUOUS
 62
    2
 10
1154.9337497421084
 20
684.43908616188526
 11
1148.9337497421084
 21
684.43908616188526
  0
LINE
  8
_0-0_計極細
  6
CONTINUOUS
 62
    2
 10
1154.9337497421084
 20
679.43908616188526
 11
1148.9337497421084
 21
679.43908616188526
  0
LINE
  8
_0-0_計極細
  6
CONTINUOUS
 62
    2
 10
1140.9337497421084
 20
684.43908616188526
 11
1134.9337497421084
 21
684.43908616188526
  0
LINE
  8
_0-0_計極細
  6
CONTINUOUS
 62
    2
 10
1140.9337497421084
 20
679.43908616188526
 11
1134.9337497421084
 21
679.43908616188526
  0
LINE
  8
_0-0_計極細
  6
CONTINUOUS
 62
    2
 10
1126.9337497421084
 20
684.43908616188526
 11
1120.9337497421084
 21
684.43908616188526
  0
LINE
  8
_0-0_計極細
  6
CONTINUOUS
 62
    2
 10
1126.9337497421084
 20
679.43908616188526
 11
1120.9337497421084
 21
679.43908616188526
  0
LINE
  8
_0-0_計極細
  6
CONTINUOUS
 62
    2
 10
1112.9337497421084
 20
684.43908616188526
 11
1106.9337497421084
 21
684.43908616188526
  0
LINE
  8
_0-0_計極細
  6
CONTINUOUS
 62
    2
 10
1112.9337497421084
 20
679.43908616188526
 11
1106.9337497421084
 21
679.43908616188526
  0
LINE
  8
_0-0_計極細
  6
CONTINUOUS
 62
    2
 10
1098.9337497421084
 20
684.43908616188526
 11
1092.9337497421084
 21
684.43908616188526
  0
LINE
  8
_0-0_計極細
  6
CONTINUOUS
 62
    2
 10
1098.9337497421084
 20
679.43908616188526
 11
1092.9337497421084
 21
679.43908616188526
  0
LINE
  8
_0-0_計極細
  6
CONTINUOUS
 62
    2
 10
1084.9337497421084
 20
684.43908616188526
 11
1078.9337497421084
 21
684.43908616188526
  0
LINE
  8
_0-0_計極細
  6
CONTINUOUS
 62
    2
 10
1084.9337497421084
 20
679.43908616188526
 11
1078.9337497421084
 21
679.43908616188526
  0
LINE
  8
_0-0_計極細
  6
CONTINUOUS
 62
    2
 10
1070.9337497421084
 20
684.43908616188526
 11
1064.9337497421084
 21
684.43908616188526
  0
LINE
  8
_0-0_計極細
  6
CONTINUOUS
 62
    2
 10
1070.9337497421084
 20
679.43908616188526
 11
1064.9337497421084
 21
679.43908616188526
  0
LINE
  8
_0-0_計極細
  6
CONTINUOUS
 62
    2
 10
1056.9337497421084
 20
684.43908616188526
 11
1050.9337497421084
 21
684.43908616188526
  0
LINE
  8
_0-0_計極細
  6
CONTINUOUS
 62
    2
 10
1056.9337497421084
 20
679.43908616188526
 11
1050.9337497421084
 21
679.43908616188526
  0
LINE
  8
_0-0_計極細
  6
CONTINUOUS
 62
    2
 10
1042.9337497421084
 20
684.43908616188526
 11
1036.9337497421084
 21
684.43908616188526
  0
LINE
  8
_0-0_計極細
  6
CONTINUOUS
 62
    2
 10
1042.9337497421084
 20
679.43908616188526
 11
1036.9337497421084
 21
679.43908616188526
  0
LINE
  8
_0-0_計極細
  6
CONTINUOUS
 62
    2
 10
1028.9337497421084
 20
684.43908616188526
 11
1022.9337497421084
 21
684.43908616188526
  0
LINE
  8
_0-0_計極細
  6
CONTINUOUS
 62
    2
 10
1028.9337497421084
 20
679.43908616188526
 11
1022.9337497421084
 21
679.43908616188526
  0
LINE
  8
_0-0_計極細
  6
CONTINUOUS
 62
    2
 10
1014.9337497421084
 20
684.43908616188526
 11
1008.9337497421083
 21
684.43908616188526
  0
LINE
  8
_0-0_計極細
  6
CONTINUOUS
 62
    2
 10
1014.9337497421084
 20
679.43908616188526
 11
1008.9337497421083
 21
679.43908616188526
  0
LINE
  8
_0-0_計極細
  6
CONTINUOUS
 62
    2
 10
1000.9337497421084
 20
684.43908616188526
 11
994.93374974210838
 21
684.43908616188526
  0
LINE
  8
_0-0_計極細
  6
CONTINUOUS
 62
    2
 10
1000.9337497421084
 20
679.43908616188526
 11
994.93374974210838
 21
679.43908616188526
  0
LINE
  8
_0-0_計極細
  6
CONTINUOUS
 62
    2
 10
986.93374974210826
 20
684.43908616188526
 11
980.93374974210838
 21
684.43908616188526
  0
LINE
  8
_0-0_計極細
  6
CONTINUOUS
 62
    2
 10
986.93374974210826
 20
679.43908616188526
 11
980.93374974210838
 21
679.43908616188526
  0
LINE
  8
_0-0_計極細
  6
CONTINUOUS
 62
    2
 10
972.93374974210838
 20
684.43908616188526
 11
966.93374974210826
 21
684.43908616188526
  0
LINE
  8
_0-0_計極細
  6
CONTINUOUS
 62
    2
 10
972.93374974210838
 20
679.43908616188526
 11
966.93374974210826
 21
679.43908616188526
  0
LINE
  8
_0-0_計極細
  6
CONTINUOUS
 62
    2
 10
958.93374974210826
 20
684.43908616188526
 11
952.93374974210838
 21
684.43908616188526
  0
LINE
  8
_0-0_計極細
  6
CONTINUOUS
 62
    2
 10
958.93374974210826
 20
679.43908616188526
 11
952.93374974210838
 21
679.43908616188526
  0
LINE
  8
_0-0_計極細
  6
CONTINUOUS
 62
    2
 10
944.93374974210838
 20
684.43908616188526
 11
938.93374974210826
 21
684.43908616188526
  0
LINE
  8
_0-0_計極細
  6
CONTINUOUS
 62
    2
 10
944.93374974210838
 20
679.43908616188526
 11
938.93374974210826
 21
679.43908616188526
  0
LINE
  8
_0-0_計極細
  6
CONTINUOUS
 62
    2
 10
930.93374974210838
 20
684.43908616188526
 11
924.93374974210838
 21
684.43908616188526
  0
LINE
  8
_0-0_計極細
  6
CONTINUOUS
 62
    2
 10
930.93374974210838
 20
679.43908616188526
 11
924.93374974210838
 21
679.43908616188526
  0
LINE
  8
_0-0_計極細
  6
CONTINUOUS
 62
    2
 10
916.93374974210826
 20
684.43908616188526
 11
910.93374974210838
 21
684.43908616188526
  0
LINE
  8
_0-0_計極細
  6
CONTINUOUS
 62
    2
 10
916.93374974210826
 20
679.43908616188526
 11
910.93374974210838
 21
679.43908616188526
  0
LINE
  8
_0-0_計極細
  6
CONTINUOUS
 62
    2
 10
902.93374974210838
 20
684.43908616188526
 11
896.93374974210826
 21
684.43908616188526
  0
LINE
  8
_0-0_計極細
  6
CONTINUOUS
 62
    2
 10
902.93374974210838
 20
679.43908616188526
 11
896.93374974210826
 21
679.43908616188526
  0
LINE
  8
_0-0_計極細
  6
CONTINUOUS
 62
    2
 10
888.93374974210826
 20
684.43908616188526
 11
882.93374974210838
 21
684.43908616188526
  0
LINE
  8
_0-0_計極細
  6
CONTINUOUS
 62
    2
 10
888.93374974210826
 20
679.43908616188526
 11
882.93374974210838
 21
679.43908616188526
  0
LINE
  8
_0-0_計極細
  6
CONTINUOUS
 62
    2
 10
874.93374974210838
 20
684.43908616188526
 11
868.93374974210826
 21
684.43908616188526
  0
LINE
  8
_0-0_計極細
  6
CONTINUOUS
 62
    2
 10
874.93374974210838
 20
679.43908616188526
 11
868.93374974210826
 21
679.43908616188526
  0
LINE
  8
_0-0_計極細
  6
CONTINUOUS
 62
    2
 10
860.93374974210838
 20
684.43908616188526
 11
854.93374974210838
 21
684.43908616188526
  0
LINE
  8
_0-0_計極細
  6
CONTINUOUS
 62
    2
 10
860.93374974210838
 20
679.43908616188526
 11
854.93374974210838
 21
679.43908616188526
  0
LINE
  8
_0-0_計極細
  6
CONTINUOUS
 62
    2
 10
846.93374974210826
 20
684.43908616188526
 11
840.93374974210838
 21
684.43908616188526
  0
LINE
  8
_0-0_計極細
  6
CONTINUOUS
 62
    2
 10
846.93374974210826
 20
679.43908616188526
 11
840.93374974210838
 21
679.43908616188526
  0
LINE
  8
_0-0_計極細
  6
CONTINUOUS
 62
    2
 10
832.93374974210838
 20
684.43908616188526
 11
826.93374974210826
 21
684.43908616188526
  0
LINE
  8
_0-0_計極細
  6
CONTINUOUS
 62
    2
 10
832.93374974210838
 20
679.43908616188526
 11
826.93374974210826
 21
679.43908616188526
  0
LINE
  8
_0-0_計極細
  6
CONTINUOUS
 62
    2
 10
818.93374974210826
 20
684.43908616188526
 11
812.93374974210838
 21
684.43908616188526
  0
LINE
  8
_0-0_計極細
  6
CONTINUOUS
 62
    2
 10
818.93374974210826
 20
679.43908616188526
 11
812.93374974210838
 21
679.43908616188526
  0
LINE
  8
_0-0_計極細
  6
CONTINUOUS
 62
    2
 10
804.93374974210838
 20
684.43908616188526
 11
798.93374974210826
 21
684.43908616188526
  0
LINE
  8
_0-0_計極細
  6
CONTINUOUS
 62
    2
 10
804.93374974210838
 20
679.43908616188526
 11
798.93374974210826
 21
679.43908616188526
  0
LINE
  8
_0-0_計極細
  6
CONTINUOUS
 62
    2
 10
790.93374974210838
 20
684.43908616188526
 11
784.93374974210838
 21
684.43908616188526
  0
LINE
  8
_0-0_計極細
  6
CONTINUOUS
 62
    2
 10
790.93374974210838
 20
679.43908616188526
 11
784.93374974210838
 21
679.43908616188526
  0
LINE
  8
_0-0_計極細
  6
CONTINUOUS
 62
    2
 10
776.93374974210826
 20
684.43908616188526
 11
770.93374974210838
 21
684.43908616188526
  0
LINE
  8
_0-0_計極細
  6
CONTINUOUS
 62
    2
 10
776.93374974210826
 20
679.43908616188526
 11
770.93374974210838
 21
679.43908616188526
  0
LINE
  8
_0-0_計極細
  6
CONTINUOUS
 62
    2
 10
762.93374974210838
 20
684.43908616188526
 11
756.93374974210826
 21
684.43908616188526
  0
LINE
  8
_0-0_計極細
  6
CONTINUOUS
 62
    2
 10
762.93374974210838
 20
679.43908616188526
 11
756.93374974210826
 21
679.43908616188526
  0
LINE
  8
_0-0_計極細
  6
CONTINUOUS
 62
    2
 10
748.93374974210826
 20
684.43908616188526
 11
742.93374974210838
 21
684.43908616188526
  0
LINE
  8
_0-0_計極細
  6
CONTINUOUS
 62
    2
 10
748.93374974210826
 20
679.43908616188526
 11
742.93374974210838
 21
679.43908616188526
  0
LINE
  8
_0-0_計極細
  6
CONTINUOUS
 62
    2
 10
734.93374974210826
 20
684.43908616188526
 11
728.93374974210826
 21
684.43908616188526
  0
LINE
  8
_0-0_計極細
  6
CONTINUOUS
 62
    2
 10
734.93374974210826
 20
679.43908616188526
 11
728.93374974210826
 21
679.43908616188526
  0
LINE
  8
_0-0_計極細
  6
CONTINUOUS
 62
    2
 10
720.93374974210838
 20
684.43908616188526
 11
714.93374974210826
 21
684.43908616188526
  0
LINE
  8
_0-0_計極細
  6
CONTINUOUS
 62
    2
 10
720.93374974210838
 20
679.43908616188526
 11
714.93374974210826
 21
679.43908616188526
  0
LINE
  8
_0-0_計極細
  6
CONTINUOUS
 62
    2
 10
706.93374974210826
 20
684.43908616188526
 11
700.93374974210838
 21
684.43908616188526
  0
LINE
  8
_0-0_計極細
  6
CONTINUOUS
 62
    2
 10
706.93374974210826
 20
679.43908616188526
 11
700.93374974210838
 21
679.43908616188526
  0
LINE
  8
_0-0_計極細
  6
CONTINUOUS
 62
    2
 10
692.93374974210838
 20
684.43908616188526
 11
686.93374974210826
 21
684.43908616188526
  0
LINE
  8
_0-0_計極細
  6
CONTINUOUS
 62
    2
 10
692.93374974210838
 20
679.43908616188526
 11
686.93374974210826
 21
679.43908616188526
  0
LINE
  8
_0-0_計極細
  6
CONTINUOUS
 62
    2
 10
678.93374974210826
 20
684.43908616188526
 11
672.93374974210838
 21
684.43908616188526
  0
LINE
  8
_0-0_計極細
  6
CONTINUOUS
 62
    2
 10
678.93374974210826
 20
679.43908616188526
 11
672.93374974210838
 21
679.43908616188526
  0
LINE
  8
_0-0_計極細
  6
CONTINUOUS
 62
    2
 10
664.93374974210826
 20
684.43908616188526
 11
658.93374974210826
 21
684.43908616188526
  0
LINE
  8
_0-0_計極細
  6
CONTINUOUS
 62
    2
 10
664.93374974210826
 20
679.43908616188526
 11
658.93374974210826
 21
679.43908616188526
  0
LINE
  8
_0-0_計極細
  6
CONTINUOUS
 62
    2
 10
650.93374974210838
 20
684.43908616188526
 11
644.93374974210826
 21
684.43908616188526
  0
LINE
  8
_0-0_計極細
  6
CONTINUOUS
 62
    2
 10
650.93374974210838
 20
679.43908616188526
 11
644.93374974210826
 21
679.43908616188526
  0
LINE
  8
_0-0_計極細
  6
CONTINUOUS
 62
    2
 10
636.93374974210826
 20
684.43908616188526
 11
630.93374974210838
 21
684.43908616188526
  0
LINE
  8
_0-0_計極細
  6
CONTINUOUS
 62
    2
 10
636.93374974210826
 20
679.43908616188526
 11
630.93374974210838
 21
679.43908616188526
  0
LINE
  8
_0-0_計極細
  6
CONTINUOUS
 62
    2
 10
622.93374974210826
 20
684.43908616188526
 11
616.93374974210826
 21
684.43908616188526
  0
LINE
  8
_0-0_計極細
  6
CONTINUOUS
 62
    2
 10
622.93374974210826
 20
679.43908616188526
 11
616.93374974210826
 21
679.43908616188526
  0
LINE
  8
_0-0_計極細
  6
CONTINUOUS
 62
    2
 10
608.93374974210826
 20
684.43908616188526
 11
602.93374974210826
 21
684.43908616188526
  0
LINE
  8
_0-0_計極細
  6
CONTINUOUS
 62
    2
 10
608.93374974210826
 20
679.43908616188526
 11
602.93374974210826
 21
679.43908616188526
  0
LINE
  8
_0-0_計極細
  6
CONTINUOUS
 62
    2
 10
594.93374974210826
 20
684.43908616188526
 11
588.93374974210826
 21
684.43908616188526
  0
LINE
  8
_0-0_計極細
  6
CONTINUOUS
 62
    2
 10
594.93374974210826
 20
679.43908616188526
 11
588.93374974210826
 21
679.43908616188526
  0
LINE
  8
_0-0_計極細
  6
CONTINUOUS
 62
    2
 10
580.93374974210838
 20
684.43908616188526
 11
574.93374974210826
 21
684.43908616188526
  0
LINE
  8
_0-0_計極細
  6
CONTINUOUS
 62
    2
 10
580.93374974210838
 20
679.43908616188526
 11
574.93374974210826
 21
679.43908616188526
  0
LINE
  8
_0-0_計極細
  6
CONTINUOUS
 62
    2
 10
566.93374974210826
 20
684.43908616188526
 11
560.93374974210838
 21
684.43908616188526
  0
LINE
  8
_0-0_計極細
  6
CONTINUOUS
 62
    2
 10
566.93374974210826
 20
679.43908616188526
 11
560.93374974210838
 21
679.43908616188526
  0
LINE
  8
_0-0_計極細
  6
CONTINUOUS
 62
    2
 10
552.93374974210826
 20
684.43908616188526
 11
546.93374974210826
 21
684.43908616188526
  0
LINE
  8
_0-0_計極細
  6
CONTINUOUS
 62
    2
 10
552.93374974210826
 20
679.43908616188526
 11
546.93374974210826
 21
679.43908616188526
  0
LINE
  8
_0-0_計極細
  6
CONTINUOUS
 62
    2
 10
538.93374974210826
 20
684.43908616188526
 11
532.93374974210826
 21
684.43908616188526
  0
LINE
  8
_0-0_計極細
  6
CONTINUOUS
 62
    2
 10
538.93374974210826
 20
679.43908616188526
 11
532.93374974210826
 21
679.43908616188526
  0
LINE
  8
_0-0_計極細
  6
CONTINUOUS
 62
    2
 10
524.93374974210826
 20
684.43908616188526
 11
518.93374974210826
 21
684.43908616188526
  0
LINE
  8
_0-0_計極細
  6
CONTINUOUS
 62
    2
 10
524.93374974210826
 20
679.43908616188526
 11
518.93374974210826
 21
679.43908616188526
  0
LINE
  8
_0-0_計極細
  6
CONTINUOUS
 62
    2
 10
510.93374974210832
 20
684.43908616188526
 11
504.93374974210832
 21
684.43908616188526
  0
LINE
  8
_0-0_計極細
  6
CONTINUOUS
 62
    2
 10
510.93374974210832
 20
679.43908616188526
 11
504.93374974210832
 21
679.43908616188526
  0
LINE
  8
_0-0_計極細
  6
CONTINUOUS
 62
    2
 10
496.93374974210826
 20
684.43908616188526
 11
490.93374974210832
 21
684.43908616188526
  0
LINE
  8
_0-0_計極細
  6
CONTINUOUS
 62
    2
 10
496.93374974210826
 20
679.43908616188526
 11
490.93374974210832
 21
679.43908616188526
  0
LINE
  8
_0-0_計極細
  6
CONTINUOUS
 62
    2
 10
482.93374974210826
 20
684.43908616188526
 11
476.93374974210826
 21
684.43908616188526
  0
LINE
  8
_0-0_計極細
  6
CONTINUOUS
 62
    2
 10
482.93374974210826
 20
679.43908616188526
 11
476.93374974210826
 21
679.43908616188526
  0
LINE
  8
_0-0_計極細
  6
CONTINUOUS
 62
    2
 10
468.93374974210826
 20
684.43908616188526
 11
462.93374974210826
 21
684.43908616188526
  0
LINE
  8
_0-0_計極細
  6
CONTINUOUS
 62
    2
 10
468.93374974210826
 20
679.43908616188526
 11
462.93374974210826
 21
679.43908616188526
  0
LINE
  8
_0-0_計極細
  6
CONTINUOUS
 62
    2
 10
454.93374974210832
 20
684.43908616188526
 11
448.93374974210826
 21
684.43908616188526
  0
LINE
  8
_0-0_計極細
  6
CONTINUOUS
 62
    2
 10
454.93374974210832
 20
679.43908616188526
 11
448.93374974210826
 21
679.43908616188526
  0
LINE
  8
_0-0_計極細
  6
CONTINUOUS
 62
    2
 10
440.93374974210832
 20
684.43908616188526
 11
434.93374974210832
 21
684.43908616188526
  0
LINE
  8
_0-0_計極細
  6
CONTINUOUS
 62
    2
 10
440.93374974210832
 20
679.43908616188526
 11
434.93374974210832
 21
679.43908616188526
  0
LINE
  8
_0-0_計極細
  6
CONTINUOUS
 62
    2
 10
426.93374974210826
 20
684.43908616188526
 11
420.93374974210832
 21
684.43908616188526
  0
LINE
  8
_0-0_計極細
  6
CONTINUOUS
 62
    2
 10
426.93374974210826
 20
679.43908616188526
 11
420.93374974210832
 21
679.43908616188526
  0
LINE
  8
_0-0_計極細
  6
CONTINUOUS
 62
    2
 10
412.93374974210826
 20
684.43908616188526
 11
406.93374974210826
 21
684.43908616188526
  0
LINE
  8
_0-0_計極細
  6
CONTINUOUS
 62
    2
 10
412.93374974210826
 20
679.43908616188526
 11
406.93374974210826
 21
679.43908616188526
  0
LINE
  8
_0-0_計極細
  6
CONTINUOUS
 62
    2
 10
398.93374974210826
 20
684.43908616188526
 11
392.93374974210826
 21
684.43908616188526
  0
LINE
  8
_0-0_計極細
  6
CONTINUOUS
 62
    2
 10
398.93374974210826
 20
679.43908616188526
 11
392.93374974210826
 21
679.43908616188526
  0
LINE
  8
_0-0_計極細
  6
CONTINUOUS
 62
    2
 10
384.93374974210832
 20
684.43908616188526
 11
378.93374974210826
 21
684.43908616188526
  0
LINE
  8
_0-0_計極細
  6
CONTINUOUS
 62
    2
 10
384.93374974210832
 20
679.43908616188526
 11
378.93374974210826
 21
679.43908616188526
  0
LINE
  8
_0-0_計極細
  6
CONTINUOUS
 62
    2
 10
370.93374974210826
 20
684.43908616188526
 11
364.93374974210832
 21
684.43908616188526
  0
LINE
  8
_0-0_計極細
  6
CONTINUOUS
 62
    2
 10
370.93374974210826
 20
679.43908616188526
 11
364.93374974210832
 21
679.43908616188526
  0
LINE
  8
_0-0_計極細
  6
CONTINUOUS
 62
    2
 10
356.93374974210826
 20
684.43908616188526
 11
350.93374974210826
 21
684.43908616188526
  0
LINE
  8
_0-0_計極細
  6
CONTINUOUS
 62
    2
 10
356.93374974210826
 20
679.43908616188526
 11
350.93374974210826
 21
679.43908616188526
  0
LINE
  8
_0-0_計極細
  6
CONTINUOUS
 62
    2
 10
342.93374974210826
 20
684.43908616188526
 11
336.93374974210826
 21
684.43908616188526
  0
LINE
  8
_0-0_計極細
  6
CONTINUOUS
 62
    2
 10
342.93374974210826
 20
679.43908616188526
 11
336.93374974210826
 21
679.43908616188526
  0
LINE
  8
_0-0_計極細
  6
CONTINUOUS
 62
    2
 10
328.93374974210826
 20
684.43908616188526
 11
322.93374974210826
 21
684.43908616188526
  0
LINE
  8
_0-0_計極細
  6
CONTINUOUS
 62
    2
 10
328.93374974210826
 20
679.43908616188526
 11
322.93374974210826
 21
679.43908616188526
  0
LINE
  8
_0-0_計極細
  6
CONTINUOUS
 62
    2
 10
314.93374974210826
 20
684.43908616188526
 11
308.93374974210826
 21
684.43908616188526
  0
LINE
  8
_0-0_計極細
  6
CONTINUOUS
 62
    2
 10
314.93374974210826
 20
679.43908616188526
 11
308.93374974210826
 21
679.43908616188526
  0
LINE
  8
_0-0_計極細
  6
CONTINUOUS
 62
    2
 10
300.93374974210832
 20
684.43908616188526
 11
294.93374974210826
 21
684.43908616188526
  0
LINE
  8
_0-0_計極細
  6
CONTINUOUS
 62
    2
 10
300.93374974210832
 20
679.43908616188526
 11
294.93374974210826
 21
679.43908616188526
  0
LINE
  8
_0-0_計極細
  6
CONTINUOUS
 62
    2
 10
286.93374974210826
 20
684.43908616188526
 11
280.93374974210832
 21
684.43908616188526
  0
LINE
  8
_0-0_計極細
  6
CONTINUOUS
 62
    2
 10
286.93374974210826
 20
679.43908616188526
 11
280.93374974210832
 21
679.43908616188526
  0
LINE
  8
_0-0_計極細
  6
CONTINUOUS
 62
    2
 10
272.93374974210826
 20
684.43908616188526
 11
266.93374974210826
 21
684.43908616188526
  0
LINE
  8
_0-0_計極細
  6
CONTINUOUS
 62
    2
 10
272.93374974210826
 20
679.43908616188526
 11
266.93374974210826
 21
679.43908616188526
  0
LINE
  8
_0-0_計極細
  6
CONTINUOUS
 62
    2
 10
258.93374974210826
 20
684.43908616188526
 11
252.93374974210826
 21
684.43908616188526
  0
LINE
  8
_0-0_計極細
  6
CONTINUOUS
 62
    2
 10
258.93374974210826
 20
679.43908616188526
 11
252.93374974210826
 21
679.43908616188526
  0
LINE
  8
_0-0_計極細
  6
CONTINUOUS
 62
    2
 10
244.93374974210823
 20
684.43908616188526
 11
238.93374974210829
 21
684.43908616188526
  0
LINE
  8
_0-0_計極細
  6
CONTINUOUS
 62
    2
 10
244.93374974210823
 20
679.43908616188526
 11
238.93374974210829
 21
679.43908616188526
  0
LINE
  8
_0-1_計細線
  6
CONTINUOUS
 62
    3
 10
230.93374974210832
 20
806.93908616188435
 11
200.93374974210832
 21
806.93908616188435
  0
LINE
  8
_0-1_計細線
  6
CONTINUOUS
 62
    3
 10
1248.9337497421084
 20
806.93908616188355
 11
1218.9337497421084
 21
806.93908616188355
  0
LINE
  8
_0-1_計細線
  6
CONTINUOUS
 62
    3
 10
199.54663261835037
 20
833.93908616188673
 11
1247.5466326183496
 21
833.93908616188583
  0
LINE
  8
_0-1_計細線
  6
CONTINUOUS
 62
    3
 10
200.93374974210832
 20
836.93908616188662
 11
1248.9337497421084
 21
836.93908616188583
  0
ARC
  8
_0-1_計細線
  6
CONTINUOUS
 62
    3
 10
188.65075449197946
 20
814.4390861618848
 40
14.391732776656191
 50
328.59175045525751
 51
31.40824954474429
  0
ARC
  8
_0-1_計細線
  6
CONTINUOUS
 62
    3
 10
213.21674499223576
 20
829.43908616188537
 40
14.391732776655743
 50
148.59175045525689
 51
211.40824954473871
  0
ARC
  8
_0-1_計細線
  6
CONTINUOUS
 62
    3
 10
1236.6507544919796
 20
814.4390861618848
 40
14.391732776656227
 50
328.59175045525996
 51
31.408249544742407
  0
ARC
  8
_0-1_計細線
  6
CONTINUOUS
 62
    3
 10
1261.2167449922363
 20
829.43908616188583
 40
14.391732776655658
 50
148.59175045525842
 51
211.40824954474121
  0
LINE
  8
_0-1_計細線
  6
CONTINUOUS
 62
    3
 10
230.93374974210832
 20
828.93908616188583
 11
238.93374974210829
 21
828.93908616188583
  0
LINE
  8
_0-1_計細線
  6
CONTINUOUS
 62
    3
 10
244.93374974210823
 20
828.93908616188583
 11
252.93374974210826
 21
828.93908616188583
  0
LINE
  8
_0-1_計細線
  6
CONTINUOUS
 62
    3
 10
258.93374974210826
 20
828.93908616188583
 11
266.93374974210826
 21
828.93908616188583
  0
LINE
  8
_0-1_計細線
  6
CONTINUOUS
 62
    3
 10
272.93374974210826
 20
828.93908616188583
 11
280.93374974210832
 21
828.93908616188583
  0
LINE
  8
_0-1_計細線
  6
CONTINUOUS
 62
    3
 10
286.93374974210826
 20
828.93908616188583
 11
294.93374974210826
 21
828.93908616188583
  0
LINE
  8
_0-1_計細線
  6
CONTINUOUS
 62
    3
 10
300.93374974210832
 20
828.93908616188583
 11
308.93374974210826
 21
828.93908616188583
  0
LINE
  8
_0-1_計細線
  6
CONTINUOUS
 62
    3
 10
314.93374974210826
 20
828.93908616188583
 11
322.93374974210826
 21
828.93908616188583
  0
LINE
  8
_0-1_計細線
  6
CONTINUOUS
 62
    3
 10
328.93374974210826
 20
828.93908616188583
 11
336.93374974210826
 21
828.93908616188583
  0
LINE
  8
_0-1_計細線
  6
CONTINUOUS
 62
    3
 10
342.93374974210826
 20
828.93908616188583
 11
350.93374974210826
 21
828.93908616188583
  0
LINE
  8
_0-1_計細線
  6
CONTINUOUS
 62
    3
 10
356.93374974210826
 20
828.93908616188583
 11
364.93374974210832
 21
828.93908616188583
  0
LINE
  8
_0-1_計細線
  6
CONTINUOUS
 62
    3
 10
370.93374974210826
 20
828.93908616188583
 11
378.93374974210826
 21
828.93908616188583
  0
LINE
  8
_0-1_計細線
  6
CONTINUOUS
 62
    3
 10
384.93374974210832
 20
828.93908616188583
 11
392.93374974210826
 21
828.93908616188583
  0
LINE
  8
_0-1_計細線
  6
CONTINUOUS
 62
    3
 10
398.93374974210826
 20
828.93908616188583
 11
406.93374974210826
 21
828.93908616188583
  0
LINE
  8
_0-1_計細線
  6
CONTINUOUS
 62
    3
 10
412.93374974210826
 20
828.93908616188583
 11
420.93374974210832
 21
828.93908616188583
  0
LINE
  8
_0-1_計細線
  6
CONTINUOUS
 62
    3
 10
426.93374974210826
 20
828.93908616188583
 11
434.93374974210832
 21
828.93908616188583
  0
LINE
  8
_0-1_計細線
  6
CONTINUOUS
 62
    3
 10
440.93374974210832
 20
828.93908616188583
 11
448.93374974210826
 21
828.93908616188583
  0
LINE
  8
_0-1_計細線
  6
CONTINUOUS
 62
    3
 10
454.93374974210832
 20
828.93908616188583
 11
462.93374974210826
 21
828.93908616188583
  0
LINE
  8
_0-1_計細線
  6
CONTINUOUS
 62
    3
 10
468.93374974210826
 20
828.93908616188583
 11
476.93374974210826
 21
828.93908616188583
  0
LINE
  8
_0-1_計細線
  6
CONTINUOUS
 62
    3
 10
482.93374974210826
 20
828.93908616188583
 11
490.93374974210832
 21
828.93908616188583
  0
LINE
  8
_0-1_計細線
  6
CONTINUOUS
 62
    3
 10
496.93374974210826
 20
828.93908616188583
 11
504.93374974210832
 21
828.93908616188583
  0
LINE
  8
_0-1_計細線
  6
CONTINUOUS
 62
    3
 10
510.93374974210832
 20
828.93908616188583
 11
518.93374974210826
 21
828.93908616188583
  0
LINE
  8
_0-1_計細線
  6
CONTINUOUS
 62
    3
 10
524.93374974210826
 20
828.93908616188583
 11
532.93374974210826
 21
828.93908616188583
  0
LINE
  8
_0-1_計細線
  6
CONTINUOUS
 62
    3
 10
538.93374974210826
 20
828.93908616188583
 11
546.93374974210826
 21
828.93908616188583
  0
LINE
  8
_0-1_計細線
  6
CONTINUOUS
 62
    3
 10
552.93374974210826
 20
828.93908616188583
 11
560.93374974210838
 21
828.93908616188583
  0
LINE
  8
_0-1_計細線
  6
CONTINUOUS
 62
    3
 10
566.93374974210826
 20
828.93908616188583
 11
574.93374974210826
 21
828.93908616188583
  0
LINE
  8
_0-1_計細線
  6
CONTINUOUS
 62
    3
 10
580.93374974210838
 20
828.93908616188583
 11
588.93374974210826
 21
828.93908616188583
  0
LINE
  8
_0-1_計細線
  6
CONTINUOUS
 62
    3
 10
594.93374974210826
 20
828.93908616188583
 11
602.93374974210826
 21
828.93908616188583
  0
LINE
  8
_0-1_計細線
  6
CONTINUOUS
 62
    3
 10
608.93374974210826
 20
828.93908616188583
 11
616.93374974210826
 21
828.93908616188583
  0
LINE
  8
_0-1_計細線
  6
CONTINUOUS
 62
    3
 10
622.93374974210826
 20
828.93908616188583
 11
630.93374974210838
 21
828.93908616188583
  0
LINE
  8
_0-1_計細線
  6
CONTINUOUS
 62
    3
 10
636.93374974210826
 20
828.93908616188583
 11
644.93374974210826
 21
828.93908616188583
  0
LINE
  8
_0-1_計細線
  6
CONTINUOUS
 62
    3
 10
650.93374974210838
 20
828.93908616188583
 11
658.93374974210826
 21
828.93908616188583
  0
LINE
  8
_0-1_計細線
  6
CONTINUOUS
 62
    3
 10
664.93374974210826
 20
828.93908616188583
 11
672.93374974210838
 21
828.93908616188583
  0
LINE
  8
_0-1_計細線
  6
CONTINUOUS
 62
    3
 10
678.93374974210826
 20
828.93908616188583
 11
686.93374974210826
 21
828.93908616188583
  0
LINE
  8
_0-1_計細線
  6
CONTINUOUS
 62
    3
 10
692.93374974210838
 20
828.93908616188583
 11
700.93374974210838
 21
828.93908616188583
  0
LINE
  8
_0-1_計細線
  6
CONTINUOUS
 62
    3
 10
706.93374974210826
 20
828.93908616188583
 11
714.93374974210826
 21
828.93908616188583
  0
LINE
  8
_0-1_計細線
  6
CONTINUOUS
 62
    3
 10
720.93374974210838
 20
828.93908616188583
 11
728.93374974210826
 21
828.93908616188583
  0
LINE
  8
_0-1_計細線
  6
CONTINUOUS
 62
    3
 10
734.93374974210826
 20
828.93908616188583
 11
742.93374974210838
 21
828.93908616188583
  0
LINE
  8
_0-1_計細線
  6
CONTINUOUS
 62
    3
 10
748.93374974210826
 20
828.93908616188583
 11
756.93374974210826
 21
828.93908616188583
  0
LINE
  8
_0-1_計細線
  6
CONTINUOUS
 62
    3
 10
762.93374974210838
 20
828.93908616188583
 11
770.93374974210838
 21
828.93908616188583
  0
LINE
  8
_0-1_計細線
  6
CONTINUOUS
 62
    3
 10
776.93374974210826
 20
828.93908616188583
 11
784.93374974210838
 21
828.93908616188583
  0
LINE
  8
_0-1_計細線
  6
CONTINUOUS
 62
    3
 10
790.93374974210838
 20
828.93908616188583
 11
798.93374974210826
 21
828.93908616188583
  0
LINE
  8
_0-1_計細線
  6
CONTINUOUS
 62
    3
 10
804.93374974210838
 20
828.93908616188583
 11
812.93374974210838
 21
828.93908616188583
  0
LINE
  8
_0-1_計細線
  6
CONTINUOUS
 62
    3
 10
818.93374974210826
 20
828.93908616188583
 11
826.93374974210826
 21
828.93908616188583
  0
LINE
  8
_0-1_計細線
  6
CONTINUOUS
 62
    3
 10
832.93374974210838
 20
828.93908616188583
 11
840.93374974210838
 21
828.93908616188583
  0
LINE
  8
_0-1_計細線
  6
CONTINUOUS
 62
    3
 10
846.93374974210826
 20
828.93908616188583
 11
854.93374974210838
 21
828.93908616188583
  0
LINE
  8
_0-1_計細線
  6
CONTINUOUS
 62
    3
 10
860.93374974210838
 20
828.93908616188583
 11
868.93374974210826
 21
828.93908616188583
  0
LINE
  8
_0-1_計細線
  6
CONTINUOUS
 62
    3
 10
874.93374974210838
 20
828.93908616188583
 11
882.93374974210838
 21
828.93908616188583
  0
LINE
  8
_0-1_計細線
  6
CONTINUOUS
 62
    3
 10
888.93374974210826
 20
828.93908616188583
 11
896.93374974210826
 21
828.93908616188583
  0
LINE
  8
_0-1_計細線
  6
CONTINUOUS
 62
    3
 10
902.93374974210838
 20
828.93908616188583
 11
910.93374974210838
 21
828.93908616188583
  0
LINE
  8
_0-1_計細線
  6
CONTINUOUS
 62
    3
 10
916.93374974210826
 20
828.93908616188583
 11
924.93374974210838
 21
828.93908616188583
  0
LINE
  8
_0-1_計細線
  6
CONTINUOUS
 62
    3
 10
930.93374974210838
 20
828.93908616188583
 11
938.93374974210826
 21
828.93908616188583
  0
LINE
  8
_0-1_計細線
  6
CONTINUOUS
 62
    3
 10
944.93374974210838
 20
828.93908616188583
 11
952.93374974210838
 21
828.93908616188583
  0
LINE
  8
_0-1_計細線
  6
CONTINUOUS
 62
    3
 10
958.93374974210826
 20
828.93908616188583
 11
966.93374974210826
 21
828.93908616188583
  0
LINE
  8
_0-1_計細線
  6
CONTINUOUS
 62
    3
 10
972.93374974210838
 20
828.93908616188583
 11
980.93374974210838
 21
828.93908616188583
  0
LINE
  8
_0-1_計細線
  6
CONTINUOUS
 62
    3
 10
986.93374974210826
 20
828.93908616188583
 11
994.93374974210838
 21
828.93908616188583
  0
LINE
  8
_0-1_計細線
  6
CONTINUOUS
 62
    3
 10
1000.9337497421084
 20
828.93908616188583
 11
1008.9337497421083
 21
828.93908616188583
  0
LINE
  8
_0-1_計細線
  6
CONTINUOUS
 62
    3
 10
1014.9337497421084
 20
828.93908616188583
 11
1022.9337497421084
 21
828.93908616188583
  0
LINE
  8
_0-1_計細線
  6
CONTINUOUS
 62
    3
 10
1028.9337497421084
 20
828.93908616188583
 11
1036.9337497421084
 21
828.93908616188583
  0
LINE
  8
_0-1_計細線
  6
CONTINUOUS
 62
    3
 10
1042.9337497421084
 20
828.93908616188583
 11
1050.9337497421084
 21
828.93908616188583
  0
LINE
  8
_0-1_計細線
  6
CONTINUOUS
 62
    3
 10
1056.9337497421084
 20
828.93908616188583
 11
1064.9337497421084
 21
828.93908616188583
  0
LINE
  8
_0-1_計細線
  6
CONTINUOUS
 62
    3
 10
1070.9337497421084
 20
828.93908616188583
 11
1078.9337497421084
 21
828.93908616188583
  0
LINE
  8
_0-1_計細線
  6
CONTINUOUS
 62
    3
 10
1084.9337497421084
 20
828.93908616188583
 11
1092.9337497421084
 21
828.93908616188583
  0
LINE
  8
_0-1_計細線
  6
CONTINUOUS
 62
    3
 10
1098.9337497421084
 20
828.93908616188583
 11
1106.9337497421084
 21
828.93908616188583
  0
LINE
  8
_0-1_計細線
  6
CONTINUOUS
 62
    3
 10
1112.9337497421084
 20
828.93908616188583
 11
1120.9337497421084
 21
828.93908616188583
  0
LINE
  8
_0-1_計細線
  6
CONTINUOUS
 62
    3
 10
1126.9337497421084
 20
828.93908616188583
 11
1134.9337497421084
 21
828.93908616188583
  0
LINE
  8
_0-1_計細線
  6
CONTINUOUS
 62
    3
 10
1140.9337497421084
 20
828.93908616188583
 11
1148.9337497421084
 21
828.93908616188583
  0
LINE
  8
_0-1_計細線
  6
CONTINUOUS
 62
    3
 10
1154.9337497421084
 20
828.93908616188583
 11
1162.9337497421084
 21
828.93908616188583
  0
LINE
  8
_0-1_計細線
  6
CONTINUOUS
 62
    3
 10
1168.9337497421084
 20
828.93908616188583
 11
1176.9337497421084
 21
828.93908616188583
  0
LINE
  8
_0-1_計細線
  6
CONTINUOUS
 62
    3
 10
1182.9337497421084
 20
828.93908616188583
 11
1190.9337497421084
 21
828.93908616188583
  0
LINE
  8
_0-1_計細線
  6
CONTINUOUS
 62
    3
 10
1196.9337497421084
 20
828.93908616188583
 11
1204.9337497421084
 21
828.93908616188583
  0
LINE
  8
_0-1_計細線
  6
CONTINUOUS
 62
    3
 10
1210.9337497421084
 20
828.93908616188583
 11
1218.9337497421084
 21
828.93908616188583
  0
LINE
  8
_0-1_計細線
  6
CONTINUOUS
 62
    3
 10
1218.9337497421084
 20
828.93908616188583
 11
1218.9337497421084
 21
831.93908616188583
  0
LINE
  8
_0-1_計細線
  6
CONTINUOUS
 62
    3
 10
230.93374974210832
 20
828.93908616188583
 11
1218.9337497421084
 21
828.93908616188583
  0
LINE
  8
_0-1_計細線
  6
CONTINUOUS
 62
    3
 10
230.93374974210832
 20
831.93908616188583
 11
230.93374974210832
 21
828.93908616188583
  0
LINE
  8
_0-1_計細線
  6
CONTINUOUS
 62
    3
 10
1218.9337497421084
 20
831.93908616188583
 11
230.93374974210832
 21
831.93908616188583
  0
LINE
  8
_0-0_計極細
  6
CONTINUOUS
 62
    2
 10
1210.9337497421084
 20
809.43908616188583
 11
1204.9337497421084
 21
809.43908616188583
  0
LINE
  8
_0-0_計極細
  6
CONTINUOUS
 62
    2
 10
1210.9337497421084
 20
804.43908616188435
 11
1204.9337497421084
 21
804.43908616188435
  0
LINE
  8
_0-0_計極細
  6
CONTINUOUS
 62
    2
 10
1196.9337497421084
 20
809.43908616188583
 11
1190.9337497421084
 21
809.43908616188583
  0
LINE
  8
_0-0_計極細
  6
CONTINUOUS
 62
    2
 10
1196.9337497421084
 20
804.43908616188435
 11
1190.9337497421084
 21
804.43908616188435
  0
LINE
  8
_0-0_計極細
  6
CONTINUOUS
 62
    2
 10
1182.9337497421084
 20
809.43908616188583
 11
1176.9337497421084
 21
809.43908616188583
  0
LINE
  8
_0-0_計極細
  6
CONTINUOUS
 62
    2
 10
1182.9337497421084
 20
804.43908616188435
 11
1176.9337497421084
 21
804.43908616188435
  0
LINE
  8
_0-0_計極細
  6
CONTINUOUS
 62
    2
 10
1168.9337497421084
 20
809.43908616188583
 11
1162.9337497421084
 21
809.43908616188583
  0
LINE
  8
_0-0_計極細
  6
CONTINUOUS
 62
    2
 10
1168.9337497421084
 20
804.43908616188435
 11
1162.9337497421084
 21
804.43908616188435
  0
LINE
  8
_0-0_計極細
  6
CONTINUOUS
 62
    2
 10
1154.9337497421084
 20
809.43908616188583
 11
1148.9337497421084
 21
809.43908616188583
  0
LINE
  8
_0-0_計極細
  6
CONTINUOUS
 62
    2
 10
1154.9337497421084
 20
804.43908616188435
 11
1148.9337497421084
 21
804.43908616188435
  0
LINE
  8
_0-0_計極細
  6
CONTINUOUS
 62
    2
 10
1140.9337497421084
 20
809.43908616188583
 11
1134.9337497421084
 21
809.43908616188583
  0
LINE
  8
_0-0_計極細
  6
CONTINUOUS
 62
    2
 10
1140.9337497421084
 20
804.43908616188435
 11
1134.9337497421084
 21
804.43908616188435
  0
LINE
  8
_0-0_計極細
  6
CONTINUOUS
 62
    2
 10
1126.9337497421084
 20
809.43908616188583
 11
1120.9337497421084
 21
809.43908616188583
  0
LINE
  8
_0-0_計極細
  6
CONTINUOUS
 62
    2
 10
1126.9337497421084
 20
804.43908616188435
 11
1120.9337497421084
 21
804.43908616188435
  0
LINE
  8
_0-0_計極細
  6
CONTINUOUS
 62
    2
 10
1112.9337497421084
 20
809.43908616188583
 11
1106.9337497421084
 21
809.43908616188583
  0
LINE
  8
_0-0_計極細
  6
CONTINUOUS
 62
    2
 10
1112.9337497421084
 20
804.43908616188435
 11
1106.9337497421084
 21
804.43908616188435
  0
LINE
  8
_0-0_計極細
  6
CONTINUOUS
 62
    2
 10
1098.9337497421084
 20
809.43908616188583
 11
1092.9337497421084
 21
809.43908616188583
  0
LINE
  8
_0-0_計極細
  6
CONTINUOUS
 62
    2
 10
1098.9337497421084
 20
804.43908616188435
 11
1092.9337497421084
 21
804.43908616188435
  0
LINE
  8
_0-0_計極細
  6
CONTINUOUS
 62
    2
 10
1084.9337497421084
 20
809.43908616188583
 11
1078.9337497421084
 21
809.43908616188583
  0
LINE
  8
_0-0_計極細
  6
CONTINUOUS
 62
    2
 10
1084.9337497421084
 20
804.43908616188435
 11
1078.9337497421084
 21
804.43908616188435
  0
LINE
  8
_0-0_計極細
  6
CONTINUOUS
 62
    2
 10
1070.9337497421084
 20
809.43908616188583
 11
1064.9337497421084
 21
809.43908616188583
  0
LINE
  8
_0-0_計極細
  6
CONTINUOUS
 62
    2
 10
1070.9337497421084
 20
804.43908616188435
 11
1064.9337497421084
 21
804.43908616188435
  0
LINE
  8
_0-0_計極細
  6
CONTINUOUS
 62
    2
 10
1056.9337497421084
 20
809.43908616188583
 11
1050.9337497421084
 21
809.43908616188583
  0
LINE
  8
_0-0_計極細
  6
CONTINUOUS
 62
    2
 10
1056.9337497421084
 20
804.43908616188435
 11
1050.9337497421084
 21
804.43908616188435
  0
LINE
  8
_0-0_計極細
  6
CONTINUOUS
 62
    2
 10
1042.9337497421084
 20
809.43908616188583
 11
1036.9337497421084
 21
809.43908616188583
  0
LINE
  8
_0-0_計極細
  6
CONTINUOUS
 62
    2
 10
1042.9337497421084
 20
804.43908616188435
 11
1036.9337497421084
 21
804.43908616188435
  0
LINE
  8
_0-0_計極細
  6
CONTINUOUS
 62
    2
 10
1028.9337497421084
 20
809.43908616188583
 11
1022.9337497421084
 21
809.43908616188583
  0
LINE
  8
_0-0_計極細
  6
CONTINUOUS
 62
    2
 10
1028.9337497421084
 20
804.43908616188435
 11
1022.9337497421084
 21
804.43908616188435
  0
LINE
  8
_0-0_計極細
  6
CONTINUOUS
 62
    2
 10
1014.9337497421084
 20
809.43908616188583
 11
1008.9337497421083
 21
809.43908616188583
  0
LINE
  8
_0-0_計極細
  6
CONTINUOUS
 62
    2
 10
1014.9337497421084
 20
804.43908616188435
 11
1008.9337497421083
 21
804.43908616188435
  0
LINE
  8
_0-0_計極細
  6
CONTINUOUS
 62
    2
 10
1000.9337497421084
 20
809.43908616188583
 11
994.93374974210838
 21
809.43908616188583
  0
LINE
  8
_0-0_計極細
  6
CONTINUOUS
 62
    2
 10
1000.9337497421084
 20
804.43908616188435
 11
994.93374974210838
 21
804.43908616188435
  0
LINE
  8
_0-0_計極細
  6
CONTINUOUS
 62
    2
 10
986.93374974210826
 20
809.43908616188583
 11
980.93374974210838
 21
809.43908616188583
  0
LINE
  8
_0-0_計極細
  6
CONTINUOUS
 62
    2
 10
986.93374974210826
 20
804.43908616188435
 11
980.93374974210838
 21
804.43908616188435
  0
LINE
  8
_0-0_計極細
  6
CONTINUOUS
 62
    2
 10
972.93374974210838
 20
809.43908616188583
 11
966.93374974210826
 21
809.43908616188583
  0
LINE
  8
_0-0_計極細
  6
CONTINUOUS
 62
    2
 10
972.93374974210838
 20
804.43908616188435
 11
966.93374974210826
 21
804.43908616188435
  0
LINE
  8
_0-0_計極細
  6
CONTINUOUS
 62
    2
 10
958.93374974210826
 20
809.43908616188583
 11
952.93374974210838
 21
809.43908616188583
  0
LINE
  8
_0-0_計極細
  6
CONTINUOUS
 62
    2
 10
958.93374974210826
 20
804.43908616188435
 11
952.93374974210838
 21
804.43908616188435
  0
LINE
  8
_0-0_計極細
  6
CONTINUOUS
 62
    2
 10
944.93374974210838
 20
809.43908616188583
 11
938.93374974210826
 21
809.43908616188583
  0
LINE
  8
_0-0_計極細
  6
CONTINUOUS
 62
    2
 10
944.93374974210838
 20
804.43908616188435
 11
938.93374974210826
 21
804.43908616188435
  0
LINE
  8
_0-0_計極細
  6
CONTINUOUS
 62
    2
 10
930.93374974210838
 20
809.43908616188583
 11
924.93374974210838
 21
809.43908616188583
  0
LINE
  8
_0-0_計極細
  6
CONTINUOUS
 62
    2
 10
930.93374974210838
 20
804.43908616188435
 11
924.93374974210838
 21
804.43908616188435
  0
LINE
  8
_0-0_計極細
  6
CONTINUOUS
 62
    2
 10
916.93374974210826
 20
809.43908616188583
 11
910.93374974210838
 21
809.43908616188583
  0
LINE
  8
_0-0_計極細
  6
CONTINUOUS
 62
    2
 10
916.93374974210826
 20
804.43908616188435
 11
910.93374974210838
 21
804.43908616188435
  0
LINE
  8
_0-0_計極細
  6
CONTINUOUS
 62
    2
 10
902.93374974210838
 20
809.43908616188583
 11
896.93374974210826
 21
809.43908616188583
  0
LINE
  8
_0-0_計極細
  6
CONTINUOUS
 62
    2
 10
902.93374974210838
 20
804.43908616188435
 11
896.93374974210826
 21
804.43908616188435
  0
LINE
  8
_0-0_計極細
  6
CONTINUOUS
 62
    2
 10
888.93374974210826
 20
809.43908616188583
 11
882.93374974210838
 21
809.43908616188583
  0
LINE
  8
_0-0_計極細
  6
CONTINUOUS
 62
    2
 10
888.93374974210826
 20
804.43908616188435
 11
882.93374974210838
 21
804.43908616188435
  0
LINE
  8
_0-0_計極細
  6
CONTINUOUS
 62
    2
 10
874.93374974210838
 20
809.43908616188583
 11
868.93374974210826
 21
809.43908616188583
  0
LINE
  8
_0-0_計極細
  6
CONTINUOUS
 62
    2
 10
874.93374974210838
 20
804.43908616188435
 11
868.93374974210826
 21
804.43908616188435
  0
LINE
  8
_0-0_計極細
  6
CONTINUOUS
 62
    2
 10
860.93374974210838
 20
809.43908616188583
 11
854.93374974210838
 21
809.43908616188583
  0
LINE
  8
_0-0_計極細
  6
CONTINUOUS
 62
    2
 10
860.93374974210838
 20
804.43908616188435
 11
854.93374974210838
 21
804.43908616188435
  0
LINE
  8
_0-0_計極細
  6
CONTINUOUS
 62
    2
 10
846.93374974210826
 20
809.43908616188583
 11
840.93374974210838
 21
809.43908616188583
  0
LINE
  8
_0-0_計極細
  6
CONTINUOUS
 62
    2
 10
846.93374974210826
 20
804.43908616188435
 11
840.93374974210838
 21
804.43908616188435
  0
LINE
  8
_0-0_計極細
  6
CONTINUOUS
 62
    2
 10
832.93374974210838
 20
809.43908616188583
 11
826.93374974210826
 21
809.43908616188583
  0
LINE
  8
_0-0_計極細
  6
CONTINUOUS
 62
    2
 10
832.93374974210838
 20
804.43908616188435
 11
826.93374974210826
 21
804.43908616188435
  0
LINE
  8
_0-0_計極細
  6
CONTINUOUS
 62
    2
 10
818.93374974210826
 20
809.43908616188583
 11
812.93374974210838
 21
809.43908616188583
  0
LINE
  8
_0-0_計極細
  6
CONTINUOUS
 62
    2
 10
818.93374974210826
 20
804.43908616188435
 11
812.93374974210838
 21
804.43908616188435
  0
LINE
  8
_0-0_計極細
  6
CONTINUOUS
 62
    2
 10
804.93374974210838
 20
809.43908616188583
 11
798.93374974210826
 21
809.43908616188583
  0
LINE
  8
_0-0_計極細
  6
CONTINUOUS
 62
    2
 10
804.93374974210838
 20
804.43908616188435
 11
798.93374974210826
 21
804.43908616188435
  0
LINE
  8
_0-0_計極細
  6
CONTINUOUS
 62
    2
 10
790.93374974210838
 20
809.43908616188583
 11
784.93374974210838
 21
809.43908616188583
  0
LINE
  8
_0-0_計極細
  6
CONTINUOUS
 62
    2
 10
790.93374974210838
 20
804.43908616188435
 11
784.93374974210838
 21
804.43908616188435
  0
LINE
  8
_0-0_計極細
  6
CONTINUOUS
 62
    2
 10
776.93374974210826
 20
809.43908616188583
 11
770.93374974210838
 21
809.43908616188583
  0
LINE
  8
_0-0_計極細
  6
CONTINUOUS
 62
    2
 10
776.93374974210826
 20
804.43908616188435
 11
770.93374974210838
 21
804.43908616188435
  0
LINE
  8
_0-0_計極細
  6
CONTINUOUS
 62
    2
 10
762.93374974210838
 20
809.43908616188583
 11
756.93374974210826
 21
809.43908616188583
  0
LINE
  8
_0-0_計極細
  6
CONTINUOUS
 62
    2
 10
762.93374974210838
 20
804.43908616188435
 11
756.93374974210826
 21
804.43908616188435
  0
LINE
  8
_0-0_計極細
  6
CONTINUOUS
 62
    2
 10
748.93374974210826
 20
809.43908616188583
 11
742.93374974210838
 21
809.43908616188583
  0
LINE
  8
_0-0_計極細
  6
CONTINUOUS
 62
    2
 10
748.93374974210826
 20
804.43908616188435
 11
742.93374974210838
 21
804.43908616188435
  0
LINE
  8
_0-0_計極細
  6
CONTINUOUS
 62
    2
 10
734.93374974210826
 20
809.43908616188583
 11
728.93374974210826
 21
809.43908616188583
  0
LINE
  8
_0-0_計極細
  6
CONTINUOUS
 62
    2
 10
734.93374974210826
 20
804.43908616188435
 11
728.93374974210826
 21
804.43908616188435
  0
LINE
  8
_0-0_計極細
  6
CONTINUOUS
 62
    2
 10
720.93374974210838
 20
809.43908616188583
 11
714.93374974210826
 21
809.43908616188583
  0
LINE
  8
_0-0_計極細
  6
CONTINUOUS
 62
    2
 10
720.93374974210838
 20
804.43908616188435
 11
714.93374974210826
 21
804.43908616188435
  0
LINE
  8
_0-0_計極細
  6
CONTINUOUS
 62
    2
 10
706.93374974210826
 20
809.43908616188583
 11
700.93374974210838
 21
809.43908616188583
  0
LINE
  8
_0-0_計極細
  6
CONTINUOUS
 62
    2
 10
706.93374974210826
 20
804.43908616188435
 11
700.93374974210838
 21
804.43908616188435
  0
LINE
  8
_0-0_計極細
  6
CONTINUOUS
 62
    2
 10
692.93374974210838
 20
809.43908616188583
 11
686.93374974210826
 21
809.43908616188583
  0
LINE
  8
_0-0_計極細
  6
CONTINUOUS
 62
    2
 10
692.93374974210838
 20
804.43908616188435
 11
686.93374974210826
 21
804.43908616188435
  0
LINE
  8
_0-0_計極細
  6
CONTINUOUS
 62
    2
 10
678.93374974210826
 20
809.43908616188583
 11
672.93374974210838
 21
809.43908616188583
  0
LINE
  8
_0-0_計極細
  6
CONTINUOUS
 62
    2
 10
678.93374974210826
 20
804.43908616188435
 11
672.93374974210838
 21
804.43908616188435
  0
LINE
  8
_0-0_計極細
  6
CONTINUOUS
 62
    2
 10
664.93374974210826
 20
809.43908616188583
 11
658.93374974210826
 21
809.43908616188583
  0
LINE
  8
_0-0_計極細
  6
CONTINUOUS
 62
    2
 10
664.93374974210826
 20
804.43908616188435
 11
658.93374974210826
 21
804.43908616188435
  0
LINE
  8
_0-0_計極細
  6
CONTINUOUS
 62
    2
 10
650.93374974210838
 20
809.43908616188583
 11
644.93374974210826
 21
809.43908616188583
  0
LINE
  8
_0-0_計極細
  6
CONTINUOUS
 62
    2
 10
650.93374974210838
 20
804.43908616188435
 11
644.93374974210826
 21
804.43908616188435
  0
LINE
  8
_0-0_計極細
  6
CONTINUOUS
 62
    2
 10
636.93374974210826
 20
809.43908616188583
 11
630.93374974210838
 21
809.43908616188583
  0
LINE
  8
_0-0_計極細
  6
CONTINUOUS
 62
    2
 10
636.93374974210826
 20
804.43908616188435
 11
630.93374974210838
 21
804.43908616188435
  0
LINE
  8
_0-0_計極細
  6
CONTINUOUS
 62
    2
 10
622.93374974210826
 20
809.43908616188583
 11
616.93374974210826
 21
809.43908616188583
  0
LINE
  8
_0-0_計極細
  6
CONTINUOUS
 62
    2
 10
622.93374974210826
 20
804.43908616188435
 11
616.93374974210826
 21
804.43908616188435
  0
LINE
  8
_0-0_計極細
  6
CONTINUOUS
 62
    2
 10
608.93374974210826
 20
809.43908616188583
 11
602.93374974210826
 21
809.43908616188583
  0
LINE
  8
_0-0_計極細
  6
CONTINUOUS
 62
    2
 10
608.93374974210826
 20
804.43908616188435
 11
602.93374974210826
 21
804.43908616188435
  0
LINE
  8
_0-0_計極細
  6
CONTINUOUS
 62
    2
 10
594.93374974210826
 20
809.43908616188583
 11
588.93374974210826
 21
809.43908616188583
  0
LINE
  8
_0-0_計極細
  6
CONTINUOUS
 62
    2
 10
594.93374974210826
 20
804.43908616188435
 11
588.93374974210826
 21
804.43908616188435
  0
LINE
  8
_0-0_計極細
  6
CONTINUOUS
 62
    2
 10
580.93374974210838
 20
809.43908616188583
 11
574.93374974210826
 21
809.43908616188583
  0
LINE
  8
_0-0_計極細
  6
CONTINUOUS
 62
    2
 10
580.93374974210838
 20
804.43908616188435
 11
574.93374974210826
 21
804.43908616188435
  0
LINE
  8
_0-0_計極細
  6
CONTINUOUS
 62
    2
 10
566.93374974210826
 20
809.43908616188583
 11
560.93374974210838
 21
809.43908616188583
  0
LINE
  8
_0-0_計極細
  6
CONTINUOUS
 62
    2
 10
566.93374974210826
 20
804.43908616188435
 11
560.93374974210838
 21
804.43908616188435
  0
LINE
  8
_0-0_計極細
  6
CONTINUOUS
 62
    2
 10
552.93374974210826
 20
809.43908616188583
 11
546.93374974210826
 21
809.43908616188583
  0
LINE
  8
_0-0_計極細
  6
CONTINUOUS
 62
    2
 10
552.93374974210826
 20
804.43908616188435
 11
546.93374974210826
 21
804.43908616188435
  0
LINE
  8
_0-0_計極細
  6
CONTINUOUS
 62
    2
 10
538.93374974210826
 20
809.43908616188583
 11
532.93374974210826
 21
809.43908616188583
  0
LINE
  8
_0-0_計極細
  6
CONTINUOUS
 62
    2
 10
538.93374974210826
 20
804.43908616188435
 11
532.93374974210826
 21
804.43908616188435
  0
LINE
  8
_0-0_計極細
  6
CONTINUOUS
 62
    2
 10
524.93374974210826
 20
809.43908616188583
 11
518.93374974210826
 21
809.43908616188583
  0
LINE
  8
_0-0_計極細
  6
CONTINUOUS
 62
    2
 10
524.93374974210826
 20
804.43908616188435
 11
518.93374974210826
 21
804.43908616188435
  0
LINE
  8
_0-0_計極細
  6
CONTINUOUS
 62
    2
 10
510.93374974210832
 20
809.43908616188583
 11
504.93374974210832
 21
809.43908616188583
  0
LINE
  8
_0-0_計極細
  6
CONTINUOUS
 62
    2
 10
510.93374974210832
 20
804.43908616188435
 11
504.93374974210832
 21
804.43908616188435
  0
LINE
  8
_0-0_計極細
  6
CONTINUOUS
 62
    2
 10
496.93374974210826
 20
809.43908616188583
 11
490.93374974210832
 21
809.43908616188583
  0
LINE
  8
_0-0_計極細
  6
CONTINUOUS
 62
    2
 10
496.93374974210826
 20
804.43908616188435
 11
490.93374974210832
 21
804.43908616188435
  0
LINE
  8
_0-0_計極細
  6
CONTINUOUS
 62
    2
 10
482.93374974210826
 20
809.43908616188583
 11
476.93374974210826
 21
809.43908616188583
  0
LINE
  8
_0-0_計極細
  6
CONTINUOUS
 62
    2
 10
482.93374974210826
 20
804.43908616188435
 11
476.93374974210826
 21
804.43908616188435
  0
LINE
  8
_0-0_計極細
  6
CONTINUOUS
 62
    2
 10
468.93374974210826
 20
809.43908616188583
 11
462.93374974210826
 21
809.43908616188583
  0
LINE
  8
_0-0_計極細
  6
CONTINUOUS
 62
    2
 10
468.93374974210826
 20
804.43908616188435
 11
462.93374974210826
 21
804.43908616188435
  0
LINE
  8
_0-0_計極細
  6
CONTINUOUS
 62
    2
 10
454.93374974210832
 20
809.43908616188583
 11
448.93374974210826
 21
809.43908616188583
  0
LINE
  8
_0-0_計極細
  6
CONTINUOUS
 62
    2
 10
454.93374974210832
 20
804.43908616188435
 11
448.93374974210826
 21
804.43908616188435
  0
LINE
  8
_0-0_計極細
  6
CONTINUOUS
 62
    2
 10
440.93374974210832
 20
809.43908616188583
 11
434.93374974210832
 21
809.43908616188583
  0
LINE
  8
_0-0_計極細
  6
CONTINUOUS
 62
    2
 10
440.93374974210832
 20
804.43908616188435
 11
434.93374974210832
 21
804.43908616188435
  0
LINE
  8
_0-0_計極細
  6
CONTINUOUS
 62
    2
 10
426.93374974210826
 20
809.43908616188583
 11
420.93374974210832
 21
809.43908616188583
  0
LINE
  8
_0-0_計極細
  6
CONTINUOUS
 62
    2
 10
426.93374974210826
 20
804.43908616188435
 11
420.93374974210832
 21
804.43908616188435
  0
LINE
  8
_0-0_計極細
  6
CONTINUOUS
 62
    2
 10
412.93374974210826
 20
809.43908616188583
 11
406.93374974210826
 21
809.43908616188583
  0
LINE
  8
_0-0_計極細
  6
CONTINUOUS
 62
    2
 10
412.93374974210826
 20
804.43908616188435
 11
406.93374974210826
 21
804.43908616188435
  0
LINE
  8
_0-0_計極細
  6
CONTINUOUS
 62
    2
 10
398.93374974210826
 20
809.43908616188583
 11
392.93374974210826
 21
809.43908616188583
  0
LINE
  8
_0-0_計極細
  6
CONTINUOUS
 62
    2
 10
398.93374974210826
 20
804.43908616188435
 11
392.93374974210826
 21
804.43908616188435
  0
LINE
  8
_0-0_計極細
  6
CONTINUOUS
 62
    2
 10
384.93374974210832
 20
809.43908616188583
 11
378.93374974210826
 21
809.43908616188583
  0
LINE
  8
_0-0_計極細
  6
CONTINUOUS
 62
    2
 10
384.93374974210832
 20
804.43908616188435
 11
378.93374974210826
 21
804.43908616188435
  0
LINE
  8
_0-0_計極細
  6
CONTINUOUS
 62
    2
 10
370.93374974210826
 20
809.43908616188583
 11
364.93374974210832
 21
809.43908616188583
  0
LINE
  8
_0-0_計極細
  6
CONTINUOUS
 62
    2
 10
370.93374974210826
 20
804.43908616188435
 11
364.93374974210832
 21
804.43908616188435
  0
LINE
  8
_0-0_計極細
  6
CONTINUOUS
 62
    2
 10
356.93374974210826
 20
809.43908616188583
 11
350.93374974210826
 21
809.43908616188583
  0
LINE
  8
_0-0_計極細
  6
CONTINUOUS
 62
    2
 10
356.93374974210826
 20
804.43908616188435
 11
350.93374974210826
 21
804.43908616188435
  0
LINE
  8
_0-0_計極細
  6
CONTINUOUS
 62
    2
 10
342.93374974210826
 20
809.43908616188583
 11
336.93374974210826
 21
809.43908616188583
  0
LINE
  8
_0-0_計極細
  6
CONTINUOUS
 62
    2
 10
342.93374974210826
 20
804.43908616188435
 11
336.93374974210826
 21
804.43908616188435
  0
LINE
  8
_0-0_計極細
  6
CONTINUOUS
 62
    2
 10
328.93374974210826
 20
809.43908616188583
 11
322.93374974210826
 21
809.43908616188583
  0
LINE
  8
_0-0_計極細
  6
CONTINUOUS
 62
    2
 10
328.93374974210826
 20
804.43908616188435
 11
322.93374974210826
 21
804.43908616188435
  0
LINE
  8
_0-0_計極細
  6
CONTINUOUS
 62
    2
 10
314.93374974210826
 20
809.43908616188583
 11
308.93374974210826
 21
809.43908616188583
  0
LINE
  8
_0-0_計極細
  6
CONTINUOUS
 62
    2
 10
314.93374974210826
 20
804.43908616188435
 11
308.93374974210826
 21
804.43908616188435
  0
LINE
  8
_0-0_計極細
  6
CONTINUOUS
 62
    2
 10
300.93374974210832
 20
809.43908616188583
 11
294.93374974210826
 21
809.43908616188583
  0
LINE
  8
_0-0_計極細
  6
CONTINUOUS
 62
    2
 10
300.93374974210832
 20
804.43908616188435
 11
294.93374974210826
 21
804.43908616188435
  0
LINE
  8
_0-0_計極細
  6
CONTINUOUS
 62
    2
 10
286.93374974210826
 20
809.43908616188583
 11
280.93374974210832
 21
809.43908616188583
  0
LINE
  8
_0-0_計極細
  6
CONTINUOUS
 62
    2
 10
286.93374974210826
 20
804.43908616188435
 11
280.93374974210832
 21
804.43908616188435
  0
LINE
  8
_0-0_計極細
  6
CONTINUOUS
 62
    2
 10
272.93374974210826
 20
809.43908616188583
 11
266.93374974210826
 21
809.43908616188583
  0
LINE
  8
_0-0_計極細
  6
CONTINUOUS
 62
    2
 10
272.93374974210826
 20
804.43908616188435
 11
266.93374974210826
 21
804.43908616188435
  0
LINE
  8
_0-0_計極細
  6
CONTINUOUS
 62
    2
 10
258.93374974210826
 20
809.43908616188583
 11
252.93374974210826
 21
809.43908616188583
  0
LINE
  8
_0-0_計極細
  6
CONTINUOUS
 62
    2
 10
258.93374974210826
 20
804.43908616188435
 11
252.93374974210826
 21
804.43908616188435
  0
LINE
  8
_0-0_計極細
  6
CONTINUOUS
 62
    2
 10
244.93374974210823
 20
809.43908616188583
 11
238.93374974210829
 21
809.43908616188583
  0
LINE
  8
_0-0_計極細
  6
CONTINUOUS
 62
    2
 10
244.93374974210823
 20
804.43908616188435
 11
238.93374974210829
 21
804.43908616188435
  0
LINE
  8
_0-5_寸法線
  6
CONTINUOUS
 62
    7
 10
230.93374974210832
 20
846.93908616188583
 11
230.93374974210832
 21
891.93908616188583
  0
LINE
  8
_0-5_寸法線
  6
CONTINUOUS
 62
    7
 10
230.93374974210832
 20
886.93908616188583
 11
240.59300800499898
 21
889.5272766129109
  0
LINE
  8
_0-5_寸法線
  6
CONTINUOUS
 62
    7
 10
230.93374974210832
 20
886.93908616188583
 11
240.59300800499898
 21
884.35089571086053
  0
LINE
  8
_0-5_寸法線
  6
CONTINUOUS
 62
    7
 10
1218.9337497421084
 20
846.93908616188583
 11
1218.9337497421084
 21
891.93908616188583
  0
LINE
  8
_0-5_寸法線
  6
CONTINUOUS
 62
    7
 10
1218.9337497421084
 20
886.93908616188583
 11
1209.2744914792179
 21
884.35089571086053
  0
LINE
  8
_0-5_寸法線
  6
CONTINUOUS
 62
    7
 10
1218.9337497421084
 20
886.93908616188583
 11
1209.2744914792179
 21
889.5272766129109
  0
LINE
  8
_0-5_寸法線
  6
CONTINUOUS
 62
    7
 10
230.93374974210832
 20
886.93908616188583
 11
1218.9337497421084
 21
886.93908616188583
  0
TEXT
  8
_0-5_寸法線
 62
    7
 10
713.68374974210826
 20
886.93908616188583
 40
15
 41
1
 50
0
  1
988
  0
LINE
  8
_0-5_寸法線
  6
CONTINUOUS
 62
    7
 10
563.86406600486998
 20
528.31706851131855
 11
568.86406601599424
 21
519.65681447989687
  0
LINE
  8
_0-5_寸法線
  6
CONTINUOUS
 62
    7
 10
563.86406600486998
 20
528.31706851131855
 11
563.86406601771523
 21
518.31706851131855
  0
LINE
  8
_0-5_寸法線
  6
CONTINUOUS
 62
    7
 10
563.86406600486998
 20
528.31706851131855
 11
575.70543556233531
 21
484.12447591872603
  0
LINE
  8
_0-5_寸法線
  6
CONTINUOUS
 62
    7
 10
575.70543556233531
 20
484.12447591872603
 11
683.70543556233531
 21
484.12447591872603
  0
TEXT
  8
_0-5_寸法線
 62
    7
 10
575.70543556233531
 20
484.72447591872594
 40
15
 41
0.8000000000000001
 50
0
  1
ＳＵＳアングル受枠
  0
LINE
  8
_0-1_計細線
  6
CONTINUOUS
 62
    3
 10
230.93374974210832
 20
556.93908616188571
 11
200.93374974210832
 21
556.93908616188571
  0
LINE
  8
_0-1_計細線
  6
CONTINUOUS
 62
    3
 10
1248.9337497421084
 20
556.93908616188571
 11
1218.9337497421084
 21
556.93908616188571
  0
LINE
  8
_0-1_計細線
  6
CONTINUOUS
 62
    3
 10
202.32086686586661
 20
529.93908616188708
 11
1250.3208668658672
 21
529.93908616188583
  0
LINE
  8
_0-1_計細線
  6
CONTINUOUS
 62
    3
 10
200.93374974210832
 20
526.93908616188708
 11
1248.9337497421084
 21
526.93908616188571
  0
ARC
  8
_0-1_計細線
  6
CONTINUOUS
 62
    3
 10
188.65075449197988
 20
534.43908616188571
 40
14.391732776655759
 50
328.59175045525654
 51
31.408249544743729
  0
ARC
  8
_0-1_計細線
  6
CONTINUOUS
 62
    3
 10
213.21674499223576
 20
549.43908616188571
 40
14.391732776655743
 50
148.59175045525842
 51
211.40824954474027
  0
ARC
  8
_0-1_計細線
  6
CONTINUOUS
 62
    3
 10
1236.6507544919805
 20
534.43908616188571
 40
14.391732776655772
 50
328.59175045525654
 51
31.408249544741235
  0
ARC
  8
_0-1_計細線
  6
CONTINUOUS
 62
    3
 10
1261.2167449922363
 20
549.43908616188571
 40
14.391732776655658
 50
148.59175045525842
 51
211.40824954474121
  0
LINE
  8
_0-1_計細線
  6
CONTINUOUS
 62
    3
 10
238.93374974210829
 20
534.93908616188583
 11
230.93374974210832
 21
534.93908616188583
  0
LINE
  8
_0-1_計細線
  6
CONTINUOUS
 62
    3
 10
252.93374974210826
 20
534.93908616188583
 11
244.93374974210823
 21
534.93908616188583
  0
LINE
  8
_0-1_計細線
  6
CONTINUOUS
 62
    3
 10
266.93374974210826
 20
534.93908616188583
 11
258.93374974210826
 21
534.93908616188583
  0
LINE
  8
_0-1_計細線
  6
CONTINUOUS
 62
    3
 10
280.93374974210832
 20
534.93908616188583
 11
272.93374974210826
 21
534.93908616188583
  0
LINE
  8
_0-1_計細線
  6
CONTINUOUS
 62
    3
 10
294.93374974210826
 20
534.93908616188583
 11
286.93374974210826
 21
534.93908616188583
  0
LINE
  8
_0-1_計細線
  6
CONTINUOUS
 62
    3
 10
308.93374974210826
 20
534.93908616188583
 11
300.93374974210832
 21
534.93908616188583
  0
LINE
  8
_0-1_計細線
  6
CONTINUOUS
 62
    3
 10
322.93374974210826
 20
534.93908616188583
 11
314.93374974210826
 21
534.93908616188583
  0
LINE
  8
_0-1_計細線
  6
CONTINUOUS
 62
    3
 10
336.93374974210826
 20
534.93908616188583
 11
328.93374974210826
 21
534.93908616188583
  0
LINE
  8
_0-1_計細線
  6
CONTINUOUS
 62
    3
 10
350.93374974210826
 20
534.93908616188583
 11
342.93374974210826
 21
534.93908616188583
  0
LINE
  8
_0-1_計細線
  6
CONTINUOUS
 62
    3
 10
364.93374974210832
 20
534.93908616188583
 11
356.93374974210826
 21
534.93908616188583
  0
LINE
  8
_0-1_計細線
  6
CONTINUOUS
 62
    3
 10
378.93374974210826
 20
534.93908616188583
 11
370.93374974210826
 21
534.93908616188583
  0
LINE
  8
_0-1_計細線
  6
CONTINUOUS
 62
    3
 10
392.93374974210826
 20
534.93908616188583
 11
384.93374974210832
 21
534.93908616188583
  0
LINE
  8
_0-1_計細線
  6
CONTINUOUS
 62
    3
 10
406.93374974210826
 20
534.93908616188583
 11
398.93374974210826
 21
534.93908616188583
  0
LINE
  8
_0-1_計細線
  6
CONTINUOUS
 62
    3
 10
420.93374974210832
 20
534.93908616188583
 11
412.93374974210826
 21
534.93908616188583
  0
LINE
  8
_0-1_計細線
  6
CONTINUOUS
 62
    3
 10
434.93374974210832
 20
534.93908616188583
 11
426.93374974210826
 21
534.93908616188583
  0
LINE
  8
_0-1_計細線
  6
CONTINUOUS
 62
    3
 10
448.93374974210826
 20
534.93908616188583
 11
440.93374974210832
 21
534.93908616188583
  0
LINE
  8
_0-1_計細線
  6
CONTINUOUS
 62
    3
 10
462.93374974210826
 20
534.93908616188583
 11
454.93374974210832
 21
534.93908616188583
  0
LINE
  8
_0-1_計細線
  6
CONTINUOUS
 62
    3
 10
476.93374974210826
 20
534.93908616188583
 11
468.93374974210826
 21
534.93908616188583
  0
LINE
  8
_0-1_計細線
  6
CONTINUOUS
 62
    3
 10
490.93374974210832
 20
534.93908616188583
 11
482.93374974210826
 21
534.93908616188583
  0
LINE
  8
_0-1_計細線
  6
CONTINUOUS
 62
    3
 10
504.93374974210832
 20
534.93908616188583
 11
496.93374974210826
 21
534.93908616188583
  0
LINE
  8
_0-1_計細線
  6
CONTINUOUS
 62
    3
 10
518.93374974210826
 20
534.93908616188583
 11
510.93374974210832
 21
534.93908616188583
  0
LINE
  8
_0-1_計細線
  6
CONTINUOUS
 62
    3
 10
532.93374974210826
 20
534.93908616188583
 11
524.93374974210826
 21
534.93908616188583
  0
LINE
  8
_0-1_計細線
  6
CONTINUOUS
 62
    3
 10
546.93374974210826
 20
534.93908616188583
 11
538.93374974210826
 21
534.93908616188583
  0
LINE
  8
_0-1_計細線
  6
CONTINUOUS
 62
    3
 10
560.93374974210838
 20
534.93908616188583
 11
552.93374974210826
 21
534.93908616188583
  0
LINE
  8
_0-1_計細線
  6
CONTINUOUS
 62
    3
 10
574.93374974210826
 20
534.93908616188583
 11
566.93374974210826
 21
534.93908616188583
  0
LINE
  8
_0-1_計細線
  6
CONTINUOUS
 62
    3
 10
588.93374974210826
 20
534.93908616188583
 11
580.93374974210838
 21
534.93908616188583
  0
LINE
  8
_0-1_計細線
  6
CONTINUOUS
 62
    3
 10
602.93374974210826
 20
534.93908616188583
 11
594.93374974210826
 21
534.93908616188583
  0
LINE
  8
_0-1_計細線
  6
CONTINUOUS
 62
    3
 10
616.93374974210826
 20
534.93908616188583
 11
608.93374974210826
 21
534.93908616188583
  0
LINE
  8
_0-1_計細線
  6
CONTINUOUS
 62
    3
 10
630.93374974210838
 20
534.93908616188583
 11
622.93374974210826
 21
534.93908616188583
  0
LINE
  8
_0-1_計細線
  6
CONTINUOUS
 62
    3
 10
644.93374974210826
 20
534.93908616188583
 11
636.93374974210826
 21
534.93908616188583
  0
LINE
  8
_0-1_計細線
  6
CONTINUOUS
 62
    3
 10
658.93374974210826
 20
534.93908616188583
 11
650.93374974210838
 21
534.93908616188583
  0
LINE
  8
_0-1_計細線
  6
CONTINUOUS
 62
    3
 10
672.93374974210838
 20
534.93908616188583
 11
664.93374974210826
 21
534.93908616188583
  0
LINE
  8
_0-1_計細線
  6
CONTINUOUS
 62
    3
 10
686.93374974210826
 20
534.93908616188583
 11
678.93374974210826
 21
534.93908616188583
  0
LINE
  8
_0-1_計細線
  6
CONTINUOUS
 62
    3
 10
700.93374974210838
 20
534.93908616188583
 11
692.93374974210838
 21
534.93908616188583
  0
LINE
  8
_0-1_計細線
  6
CONTINUOUS
 62
    3
 10
714.93374974210826
 20
534.93908616188583
 11
706.93374974210826
 21
534.93908616188583
  0
LINE
  8
_0-1_計細線
  6
CONTINUOUS
 62
    3
 10
728.93374974210826
 20
534.93908616188583
 11
720.93374974210838
 21
534.93908616188583
  0
LINE
  8
_0-1_計細線
  6
CONTINUOUS
 62
    3
 10
742.93374974210838
 20
534.93908616188583
 11
734.93374974210826
 21
534.93908616188583
  0
LINE
  8
_0-1_計細線
  6
CONTINUOUS
 62
    3
 10
756.93374974210826
 20
534.93908616188583
 11
748.93374974210826
 21
534.93908616188583
  0
LINE
  8
_0-1_計細線
  6
CONTINUOUS
 62
    3
 10
770.93374974210838
 20
534.93908616188583
 11
762.93374974210838
 21
534.93908616188583
  0
LINE
  8
_0-1_計細線
  6
CONTINUOUS
 62
    3
 10
784.93374974210838
 20
534.93908616188583
 11
776.93374974210826
 21
534.93908616188583
  0
LINE
  8
_0-1_計細線
  6
CONTINUOUS
 62
    3
 10
798.93374974210826
 20
534.93908616188583
 11
790.93374974210838
 21
534.93908616188583
  0
LINE
  8
_0-1_計細線
  6
CONTINUOUS
 62
    3
 10
812.93374974210838
 20
534.93908616188583
 11
804.93374974210838
 21
534.93908616188583
  0
LINE
  8
_0-1_計細線
  6
CONTINUOUS
 62
    3
 10
826.93374974210826
 20
534.93908616188583
 11
818.93374974210826
 21
534.93908616188583
  0
LINE
  8
_0-1_計細線
  6
CONTINUOUS
 62
    3
 10
840.93374974210838
 20
534.93908616188583
 11
832.93374974210838
 21
534.93908616188583
  0
LINE
  8
_0-1_計細線
  6
CONTINUOUS
 62
    3
 10
854.93374974210838
 20
534.93908616188583
 11
846.93374974210826
 21
534.93908616188583
  0
LINE
  8
_0-1_計細線
  6
CONTINUOUS
 62
    3
 10
868.93374974210826
 20
534.93908616188583
 11
860.93374974210838
 21
534.93908616188583
  0
LINE
  8
_0-1_計細線
  6
CONTINUOUS
 62
    3
 10
882.93374974210838
 20
534.93908616188583
 11
874.93374974210838
 21
534.93908616188583
  0
LINE
  8
_0-1_計細線
  6
CONTINUOUS
 62
    3
 10
896.93374974210826
 20
534.93908616188583
 11
888.93374974210826
 21
534.93908616188583
  0
LINE
  8
_0-1_計細線
  6
CONTINUOUS
 62
    3
 10
910.93374974210838
 20
534.93908616188583
 11
902.93374974210838
 21
534.93908616188583
  0
LINE
  8
_0-1_計細線
  6
CONTINUOUS
 62
    3
 10
924.93374974210838
 20
534.93908616188583
 11
916.93374974210826
 21
534.93908616188583
  0
LINE
  8
_0-1_計細線
  6
CONTINUOUS
 62
    3
 10
938.93374974210826
 20
534.93908616188583
 11
930.93374974210838
 21
534.93908616188583
  0
LINE
  8
_0-1_計細線
  6
CONTINUOUS
 62
    3
 10
952.93374974210838
 20
534.93908616188583
 11
944.93374974210838
 21
534.93908616188583
  0
LINE
  8
_0-1_計細線
  6
CONTINUOUS
 62
    3
 10
966.93374974210826
 20
534.93908616188583
 11
958.93374974210826
 21
534.93908616188583
  0
LINE
  8
_0-1_計細線
  6
CONTINUOUS
 62
    3
 10
980.93374974210838
 20
534.93908616188583
 11
972.93374974210838
 21
534.93908616188583
  0
LINE
  8
_0-1_計細線
  6
CONTINUOUS
 62
    3
 10
994.93374974210838
 20
534.93908616188583
 11
986.93374974210826
 21
534.93908616188583
  0
LINE
  8
_0-1_計細線
  6
CONTINUOUS
 62
    3
 10
1008.9337497421083
 20
534.93908616188583
 11
1000.9337497421084
 21
534.93908616188583
  0
LINE
  8
_0-1_計細線
  6
CONTINUOUS
 62
    3
 10
1022.9337497421084
 20
534.93908616188583
 11
1014.9337497421084
 21
534.93908616188583
  0
LINE
  8
_0-1_計細線
  6
CONTINUOUS
 62
    3
 10
1036.9337497421084
 20
534.93908616188583
 11
1028.9337497421084
 21
534.93908616188583
  0
LINE
  8
_0-1_計細線
  6
CONTINUOUS
 62
    3
 10
1050.9337497421084
 20
534.93908616188583
 11
1042.9337497421084
 21
534.93908616188583
  0
LINE
  8
_0-1_計細線
  6
CONTINUOUS
 62
    3
 10
1064.9337497421084
 20
534.93908616188583
 11
1056.9337497421084
 21
534.93908616188583
  0
LINE
  8
_0-1_計細線
  6
CONTINUOUS
 62
    3
 10
1078.9337497421084
 20
534.93908616188583
 11
1070.9337497421084
 21
534.93908616188583
  0
LINE
  8
_0-1_計細線
  6
CONTINUOUS
 62
    3
 10
1092.9337497421084
 20
534.93908616188583
 11
1084.9337497421084
 21
534.93908616188583
  0
LINE
  8
_0-1_計細線
  6
CONTINUOUS
 62
    3
 10
1106.9337497421084
 20
534.93908616188583
 11
1098.9337497421084
 21
534.93908616188583
  0
LINE
  8
_0-1_計細線
  6
CONTINUOUS
 62
    3
 10
1120.9337497421084
 20
534.93908616188583
 11
1112.9337497421084
 21
534.93908616188583
  0
LINE
  8
_0-1_計細線
  6
CONTINUOUS
 62
    3
 10
1134.9337497421084
 20
534.93908616188583
 11
1126.9337497421084
 21
534.93908616188583
  0
LINE
  8
_0-1_計細線
  6
CONTINUOUS
 62
    3
 10
1148.9337497421084
 20
534.93908616188583
 11
1140.9337497421084
 21
534.93908616188583
  0
LINE
  8
_0-1_計細線
  6
CONTINUOUS
 62
    3
 10
1162.9337497421084
 20
534.93908616188583
 11
1154.9337497421084
 21
534.93908616188583
  0
LINE
  8
_0-1_計細線
  6
CONTINUOUS
 62
    3
 10
1176.9337497421084
 20
534.93908616188583
 11
1168.9337497421084
 21
534.93908616188583
  0
LINE
  8
_0-1_計細線
  6
CONTINUOUS
 62
    3
 10
1190.9337497421084
 20
534.93908616188583
 11
1182.9337497421084
 21
534.93908616188583
  0
LINE
  8
_0-1_計細線
  6
CONTINUOUS
 62
    3
 10
1204.9337497421084
 20
534.93908616188583
 11
1196.9337497421084
 21
534.93908616188583
  0
LINE
  8
_0-1_計細線
  6
CONTINUOUS
 62
    3
 10
1218.9337497421084
 20
534.93908616188583
 11
1210.9337497421084
 21
534.93908616188583
  0
LINE
  8
_0-1_計細線
  6
CONTINUOUS
 62
    3
 10
1218.9337497421084
 20
531.93908616188571
 11
1218.9337497421084
 21
534.93908616188583
  0
LINE
  8
_0-1_計細線
  6
CONTINUOUS
 62
    3
 10
230.93374974210832
 20
531.93908616188571
 11
1218.9337497421084
 21
531.93908616188571
  0
LINE
  8
_0-1_計細線
  6
CONTINUOUS
 62
    3
 10
230.93374974210832
 20
534.93908616188583
 11
230.93374974210832
 21
531.93908616188571
  0
LINE
  8
_0-1_計細線
  6
CONTINUOUS
 62
    3
 10
1218.9337497421084
 20
534.93908616188583
 11
230.93374974210832
 21
534.93908616188583
  0
LINE
  8
_0-0_計極細
  6
CONTINUOUS
 62
    2
 10
1210.9337497421084
 20
559.43908616188571
 11
1204.9337497421084
 21
559.43908616188571
  0
LINE
  8
_0-0_計極細
  6
CONTINUOUS
 62
    2
 10
1210.9337497421084
 20
554.43908616188571
 11
1204.9337497421084
 21
554.43908616188571
  0
LINE
  8
_0-0_計極細
  6
CONTINUOUS
 62
    2
 10
1196.9337497421084
 20
559.43908616188571
 11
1190.9337497421084
 21
559.43908616188571
  0
LINE
  8
_0-0_計極細
  6
CONTINUOUS
 62
    2
 10
1196.9337497421084
 20
554.43908616188571
 11
1190.9337497421084
 21
554.43908616188571
  0
LINE
  8
_0-0_計極細
  6
CONTINUOUS
 62
    2
 10
1182.9337497421084
 20
559.43908616188571
 11
1176.9337497421084
 21
559.43908616188571
  0
LINE
  8
_0-0_計極細
  6
CONTINUOUS
 62
    2
 10
1182.9337497421084
 20
554.43908616188571
 11
1176.9337497421084
 21
554.43908616188571
  0
LINE
  8
_0-0_計極細
  6
CONTINUOUS
 62
    2
 10
1168.9337497421084
 20
559.43908616188571
 11
1162.9337497421084
 21
559.43908616188571
  0
LINE
  8
_0-0_計極細
  6
CONTINUOUS
 62
    2
 10
1168.9337497421084
 20
554.43908616188571
 11
1162.9337497421084
 21
554.43908616188571
  0
LINE
  8
_0-0_計極細
  6
CONTINUOUS
 62
    2
 10
1154.9337497421084
 20
559.43908616188571
 11
1148.9337497421084
 21
559.43908616188571
  0
LINE
  8
_0-0_計極細
  6
CONTINUOUS
 62
    2
 10
1154.9337497421084
 20
554.43908616188571
 11
1148.9337497421084
 21
554.43908616188571
  0
LINE
  8
_0-0_計極細
  6
CONTINUOUS
 62
    2
 10
1140.9337497421084
 20
559.43908616188571
 11
1134.9337497421084
 21
559.43908616188571
  0
LINE
  8
_0-0_計極細
  6
CONTINUOUS
 62
    2
 10
1140.9337497421084
 20
554.43908616188571
 11
1134.9337497421084
 21
554.43908616188571
  0
LINE
  8
_0-0_計極細
  6
CONTINUOUS
 62
    2
 10
1126.9337497421084
 20
559.43908616188571
 11
1120.9337497421084
 21
559.43908616188571
  0
LINE
  8
_0-0_計極細
  6
CONTINUOUS
 62
    2
 10
1126.9337497421084
 20
554.43908616188571
 11
1120.9337497421084
 21
554.43908616188571
  0
LINE
  8
_0-0_計極細
  6
CONTINUOUS
 62
    2
 10
1112.9337497421084
 20
559.43908616188571
 11
1106.9337497421084
 21
559.43908616188571
  0
LINE
  8
_0-0_計極細
  6
CONTINUOUS
 62
    2
 10
1112.9337497421084
 20
554.43908616188571
 11
1106.9337497421084
 21
554.43908616188571
  0
LINE
  8
_0-0_計極細
  6
CONTINUOUS
 62
    2
 10
1098.9337497421084
 20
559.43908616188571
 11
1092.9337497421084
 21
559.43908616188571
  0
LINE
  8
_0-0_計極細
  6
CONTINUOUS
 62
    2
 10
1098.9337497421084
 20
554.43908616188571
 11
1092.9337497421084
 21
554.43908616188571
  0
LINE
  8
_0-0_計極細
  6
CONTINUOUS
 62
    2
 10
1084.9337497421084
 20
559.43908616188571
 11
1078.9337497421084
 21
559.43908616188571
  0
LINE
  8
_0-0_計極細
  6
CONTINUOUS
 62
    2
 10
1084.9337497421084
 20
554.43908616188571
 11
1078.9337497421084
 21
554.43908616188571
  0
LINE
  8
_0-0_計極細
  6
CONTINUOUS
 62
    2
 10
1070.9337497421084
 20
559.43908616188571
 11
1064.9337497421084
 21
559.43908616188571
  0
LINE
  8
_0-0_計極細
  6
CONTINUOUS
 62
    2
 10
1070.9337497421084
 20
554.43908616188571
 11
1064.9337497421084
 21
554.43908616188571
  0
LINE
  8
_0-0_計極細
  6
CONTINUOUS
 62
    2
 10
1056.9337497421084
 20
559.43908616188571
 11
1050.9337497421084
 21
559.43908616188571
  0
LINE
  8
_0-0_計極細
  6
CONTINUOUS
 62
    2
 10
1056.9337497421084
 20
554.43908616188571
 11
1050.9337497421084
 21
554.43908616188571
  0
LINE
  8
_0-0_計極細
  6
CONTINUOUS
 62
    2
 10
1042.9337497421084
 20
559.43908616188571
 11
1036.9337497421084
 21
559.43908616188571
  0
LINE
  8
_0-0_計極細
  6
CONTINUOUS
 62
    2
 10
1042.9337497421084
 20
554.43908616188571
 11
1036.9337497421084
 21
554.43908616188571
  0
LINE
  8
_0-0_計極細
  6
CONTINUOUS
 62
    2
 10
1028.9337497421084
 20
559.43908616188571
 11
1022.9337497421084
 21
559.43908616188571
  0
LINE
  8
_0-0_計極細
  6
CONTINUOUS
 62
    2
 10
1028.9337497421084
 20
554.43908616188571
 11
1022.9337497421084
 21
554.43908616188571
  0
LINE
  8
_0-0_計極細
  6
CONTINUOUS
 62
    2
 10
1014.9337497421084
 20
559.43908616188571
 11
1008.9337497421083
 21
559.43908616188571
  0
LINE
  8
_0-0_計極細
  6
CONTINUOUS
 62
    2
 10
1014.9337497421084
 20
554.43908616188571
 11
1008.9337497421083
 21
554.43908616188571
  0
LINE
  8
_0-0_計極細
  6
CONTINUOUS
 62
    2
 10
1000.9337497421084
 20
559.43908616188571
 11
994.93374974210838
 21
559.43908616188571
  0
LINE
  8
_0-0_計極細
  6
CONTINUOUS
 62
    2
 10
1000.9337497421084
 20
554.43908616188571
 11
994.93374974210838
 21
554.43908616188571
  0
LINE
  8
_0-0_計極細
  6
CONTINUOUS
 62
    2
 10
986.93374974210826
 20
559.43908616188571
 11
980.93374974210838
 21
559.43908616188571
  0
LINE
  8
_0-0_計極細
  6
CONTINUOUS
 62
    2
 10
986.93374974210826
 20
554.43908616188571
 11
980.93374974210838
 21
554.43908616188571
  0
LINE
  8
_0-0_計極細
  6
CONTINUOUS
 62
    2
 10
972.93374974210838
 20
559.43908616188571
 11
966.93374974210826
 21
559.43908616188571
  0
LINE
  8
_0-0_計極細
  6
CONTINUOUS
 62
    2
 10
972.93374974210838
 20
554.43908616188571
 11
966.93374974210826
 21
554.43908616188571
  0
LINE
  8
_0-0_計極細
  6
CONTINUOUS
 62
    2
 10
958.93374974210826
 20
559.43908616188571
 11
952.93374974210838
 21
559.43908616188571
  0
LINE
  8
_0-0_計極細
  6
CONTINUOUS
 62
    2
 10
958.93374974210826
 20
554.43908616188571
 11
952.93374974210838
 21
554.43908616188571
  0
LINE
  8
_0-0_計極細
  6
CONTINUOUS
 62
    2
 10
944.93374974210838
 20
559.43908616188571
 11
938.93374974210826
 21
559.43908616188571
  0
LINE
  8
_0-0_計極細
  6
CONTINUOUS
 62
    2
 10
944.93374974210838
 20
554.43908616188571
 11
938.93374974210826
 21
554.43908616188571
  0
LINE
  8
_0-0_計極細
  6
CONTINUOUS
 62
    2
 10
930.93374974210838
 20
559.43908616188571
 11
924.93374974210838
 21
559.43908616188571
  0
LINE
  8
_0-0_計極細
  6
CONTINUOUS
 62
    2
 10
930.93374974210838
 20
554.43908616188571
 11
924.93374974210838
 21
554.43908616188571
  0
LINE
  8
_0-0_計極細
  6
CONTINUOUS
 62
    2
 10
916.93374974210826
 20
559.43908616188571
 11
910.93374974210838
 21
559.43908616188571
  0
LINE
  8
_0-0_計極細
  6
CONTINUOUS
 62
    2
 10
916.93374974210826
 20
554.43908616188571
 11
910.93374974210838
 21
554.43908616188571
  0
LINE
  8
_0-0_計極細
  6
CONTINUOUS
 62
    2
 10
902.93374974210838
 20
559.43908616188571
 11
896.93374974210826
 21
559.43908616188571
  0
LINE
  8
_0-0_計極細
  6
CONTINUOUS
 62
    2
 10
902.93374974210838
 20
554.43908616188571
 11
896.93374974210826
 21
554.43908616188571
  0
LINE
  8
_0-0_計極細
  6
CONTINUOUS
 62
    2
 10
888.93374974210826
 20
559.43908616188571
 11
882.93374974210838
 21
559.43908616188571
  0
LINE
  8
_0-0_計極細
  6
CONTINUOUS
 62
    2
 10
888.93374974210826
 20
554.43908616188571
 11
882.93374974210838
 21
554.43908616188571
  0
LINE
  8
_0-0_計極細
  6
CONTINUOUS
 62
    2
 10
874.93374974210838
 20
559.43908616188571
 11
868.93374974210826
 21
559.43908616188571
  0
LINE
  8
_0-0_計極細
  6
CONTINUOUS
 62
    2
 10
874.93374974210838
 20
554.43908616188571
 11
868.93374974210826
 21
554.43908616188571
  0
LINE
  8
_0-0_計極細
  6
CONTINUOUS
 62
    2
 10
860.93374974210838
 20
559.43908616188571
 11
854.93374974210838
 21
559.43908616188571
  0
LINE
  8
_0-0_計極細
  6
CONTINUOUS
 62
    2
 10
860.93374974210838
 20
554.43908616188571
 11
854.93374974210838
 21
554.43908616188571
  0
LINE
  8
_0-0_計極細
  6
CONTINUOUS
 62
    2
 10
846.93374974210826
 20
559.43908616188571
 11
840.93374974210838
 21
559.43908616188571
  0
LINE
  8
_0-0_計極細
  6
CONTINUOUS
 62
    2
 10
846.93374974210826
 20
554.43908616188571
 11
840.93374974210838
 21
554.43908616188571
  0
LINE
  8
_0-0_計極細
  6
CONTINUOUS
 62
    2
 10
832.93374974210838
 20
559.43908616188571
 11
826.93374974210826
 21
559.43908616188571
  0
LINE
  8
_0-0_計極細
  6
CONTINUOUS
 62
    2
 10
832.93374974210838
 20
554.43908616188571
 11
826.93374974210826
 21
554.43908616188571
  0
LINE
  8
_0-0_計極細
  6
CONTINUOUS
 62
    2
 10
818.93374974210826
 20
559.43908616188571
 11
812.93374974210838
 21
559.43908616188571
  0
LINE
  8
_0-0_計極細
  6
CONTINUOUS
 62
    2
 10
818.93374974210826
 20
554.43908616188571
 11
812.93374974210838
 21
554.43908616188571
  0
LINE
  8
_0-0_計極細
  6
CONTINUOUS
 62
    2
 10
804.93374974210838
 20
559.43908616188571
 11
798.93374974210826
 21
559.43908616188571
  0
LINE
  8
_0-0_計極細
  6
CONTINUOUS
 62
    2
 10
804.93374974210838
 20
554.43908616188571
 11
798.93374974210826
 21
554.43908616188571
  0
LINE
  8
_0-0_計極細
  6
CONTINUOUS
 62
    2
 10
790.93374974210838
 20
559.43908616188571
 11
784.93374974210838
 21
559.43908616188571
  0
LINE
  8
_0-0_計極細
  6
CONTINUOUS
 62
    2
 10
790.93374974210838
 20
554.43908616188571
 11
784.93374974210838
 21
554.43908616188571
  0
LINE
  8
_0-0_計極細
  6
CONTINUOUS
 62
    2
 10
776.93374974210826
 20
559.43908616188571
 11
770.93374974210838
 21
559.43908616188571
  0
LINE
  8
_0-0_計極細
  6
CONTINUOUS
 62
    2
 10
776.93374974210826
 20
554.43908616188571
 11
770.93374974210838
 21
554.43908616188571
  0
LINE
  8
_0-0_計極細
  6
CONTINUOUS
 62
    2
 10
762.93374974210838
 20
559.43908616188571
 11
756.93374974210826
 21
559.43908616188571
  0
LINE
  8
_0-0_計極細
  6
CONTINUOUS
 62
    2
 10
762.93374974210838
 20
554.43908616188571
 11
756.93374974210826
 21
554.43908616188571
  0
LINE
  8
_0-0_計極細
  6
CONTINUOUS
 62
    2
 10
748.93374974210826
 20
559.43908616188571
 11
742.93374974210838
 21
559.43908616188571
  0
LINE
  8
_0-0_計極細
  6
CONTINUOUS
 62
    2
 10
748.93374974210826
 20
554.43908616188571
 11
742.93374974210838
 21
554.43908616188571
  0
LINE
  8
_0-0_計極細
  6
CONTINUOUS
 62
    2
 10
734.93374974210826
 20
559.43908616188571
 11
728.93374974210826
 21
559.43908616188571
  0
LINE
  8
_0-0_計極細
  6
CONTINUOUS
 62
    2
 10
734.93374974210826
 20
554.43908616188571
 11
728.93374974210826
 21
554.43908616188571
  0
LINE
  8
_0-0_計極細
  6
CONTINUOUS
 62
    2
 10
720.93374974210838
 20
559.43908616188571
 11
714.93374974210826
 21
559.43908616188571
  0
LINE
  8
_0-0_計極細
  6
CONTINUOUS
 62
    2
 10
720.93374974210838
 20
554.43908616188571
 11
714.93374974210826
 21
554.43908616188571
  0
LINE
  8
_0-0_計極細
  6
CONTINUOUS
 62
    2
 10
706.93374974210826
 20
559.43908616188571
 11
700.93374974210838
 21
559.43908616188571
  0
LINE
  8
_0-0_計極細
  6
CONTINUOUS
 62
    2
 10
706.93374974210826
 20
554.43908616188571
 11
700.93374974210838
 21
554.43908616188571
  0
LINE
  8
_0-0_計極細
  6
CONTINUOUS
 62
    2
 10
692.93374974210838
 20
559.43908616188571
 11
686.93374974210826
 21
559.43908616188571
  0
LINE
  8
_0-0_計極細
  6
CONTINUOUS
 62
    2
 10
692.93374974210838
 20
554.43908616188571
 11
686.93374974210826
 21
554.43908616188571
  0
LINE
  8
_0-0_計極細
  6
CONTINUOUS
 62
    2
 10
678.93374974210826
 20
559.43908616188571
 11
672.93374974210838
 21
559.43908616188571
  0
LINE
  8
_0-0_計極細
  6
CONTINUOUS
 62
    2
 10
678.93374974210826
 20
554.43908616188571
 11
672.93374974210838
 21
554.43908616188571
  0
LINE
  8
_0-0_計極細
  6
CONTINUOUS
 62
    2
 10
664.93374974210826
 20
559.43908616188571
 11
658.93374974210826
 21
559.43908616188571
  0
LINE
  8
_0-0_計極細
  6
CONTINUOUS
 62
    2
 10
664.93374974210826
 20
554.43908616188571
 11
658.93374974210826
 21
554.43908616188571
  0
LINE
  8
_0-0_計極細
  6
CONTINUOUS
 62
    2
 10
650.93374974210838
 20
559.43908616188571
 11
644.93374974210826
 21
559.43908616188571
  0
LINE
  8
_0-0_計極細
  6
CONTINUOUS
 62
    2
 10
650.93374974210838
 20
554.43908616188571
 11
644.93374974210826
 21
554.43908616188571
  0
LINE
  8
_0-0_計極細
  6
CONTINUOUS
 62
    2
 10
636.93374974210826
 20
559.43908616188571
 11
630.93374974210838
 21
559.43908616188571
  0
LINE
  8
_0-0_計極細
  6
CONTINUOUS
 62
    2
 10
636.93374974210826
 20
554.43908616188571
 11
630.93374974210838
 21
554.43908616188571
  0
LINE
  8
_0-0_計極細
  6
CONTINUOUS
 62
    2
 10
622.93374974210826
 20
559.43908616188571
 11
616.93374974210826
 21
559.43908616188571
  0
LINE
  8
_0-0_計極細
  6
CONTINUOUS
 62
    2
 10
622.93374974210826
 20
554.43908616188571
 11
616.93374974210826
 21
554.43908616188571
  0
LINE
  8
_0-0_計極細
  6
CONTINUOUS
 62
    2
 10
608.93374974210826
 20
559.43908616188571
 11
602.93374974210826
 21
559.43908616188571
  0
LINE
  8
_0-0_計極細
  6
CONTINUOUS
 62
    2
 10
608.93374974210826
 20
554.43908616188571
 11
602.93374974210826
 21
554.43908616188571
  0
LINE
  8
_0-0_計極細
  6
CONTINUOUS
 62
    2
 10
594.93374974210826
 20
559.43908616188571
 11
588.93374974210826
 21
559.43908616188571
  0
LINE
  8
_0-0_計極細
  6
CONTINUOUS
 62
    2
 10
594.93374974210826
 20
554.43908616188571
 11
588.93374974210826
 21
554.43908616188571
  0
LINE
  8
_0-0_計極細
  6
CONTINUOUS
 62
    2
 10
580.93374974210838
 20
559.43908616188571
 11
574.93374974210826
 21
559.43908616188571
  0
LINE
  8
_0-0_計極細
  6
CONTINUOUS
 62
    2
 10
580.93374974210838
 20
554.43908616188571
 11
574.93374974210826
 21
554.43908616188571
  0
LINE
  8
_0-0_計極細
  6
CONTINUOUS
 62
    2
 10
566.93374974210826
 20
559.43908616188571
 11
560.93374974210838
 21
559.43908616188571
  0
LINE
  8
_0-0_計極細
  6
CONTINUOUS
 62
    2
 10
566.93374974210826
 20
554.43908616188571
 11
560.93374974210838
 21
554.43908616188571
  0
LINE
  8
_0-0_計極細
  6
CONTINUOUS
 62
    2
 10
552.93374974210826
 20
559.43908616188571
 11
546.93374974210826
 21
559.43908616188571
  0
LINE
  8
_0-0_計極細
  6
CONTINUOUS
 62
    2
 10
552.93374974210826
 20
554.43908616188571
 11
546.93374974210826
 21
554.43908616188571
  0
LINE
  8
_0-0_計極細
  6
CONTINUOUS
 62
    2
 10
538.93374974210826
 20
559.43908616188571
 11
532.93374974210826
 21
559.43908616188571
  0
LINE
  8
_0-0_計極細
  6
CONTINUOUS
 62
    2
 10
538.93374974210826
 20
554.43908616188571
 11
532.93374974210826
 21
554.43908616188571
  0
LINE
  8
_0-0_計極細
  6
CONTINUOUS
 62
    2
 10
524.93374974210826
 20
559.43908616188571
 11
518.93374974210826
 21
559.43908616188571
  0
LINE
  8
_0-0_計極細
  6
CONTINUOUS
 62
    2
 10
524.93374974210826
 20
554.43908616188571
 11
518.93374974210826
 21
554.43908616188571
  0
LINE
  8
_0-0_計極細
  6
CONTINUOUS
 62
    2
 10
510.93374974210832
 20
559.43908616188571
 11
504.93374974210832
 21
559.43908616188571
  0
LINE
  8
_0-0_計極細
  6
CONTINUOUS
 62
    2
 10
510.93374974210832
 20
554.43908616188571
 11
504.93374974210832
 21
554.43908616188571
  0
LINE
  8
_0-0_計極細
  6
CONTINUOUS
 62
    2
 10
496.93374974210826
 20
559.43908616188571
 11
490.93374974210832
 21
559.43908616188571
  0
LINE
  8
_0-0_計極細
  6
CONTINUOUS
 62
    2
 10
496.93374974210826
 20
554.43908616188571
 11
490.93374974210832
 21
554.43908616188571
  0
LINE
  8
_0-0_計極細
  6
CONTINUOUS
 62
    2
 10
482.93374974210826
 20
559.43908616188571
 11
476.93374974210826
 21
559.43908616188571
  0
LINE
  8
_0-0_計極細
  6
CONTINUOUS
 62
    2
 10
482.93374974210826
 20
554.43908616188571
 11
476.93374974210826
 21
554.43908616188571
  0
LINE
  8
_0-0_計極細
  6
CONTINUOUS
 62
    2
 10
468.93374974210826
 20
559.43908616188571
 11
462.93374974210826
 21
559.43908616188571
  0
LINE
  8
_0-0_計極細
  6
CONTINUOUS
 62
    2
 10
468.93374974210826
 20
554.43908616188571
 11
462.93374974210826
 21
554.43908616188571
  0
LINE
  8
_0-0_計極細
  6
CONTINUOUS
 62
    2
 10
454.93374974210832
 20
559.43908616188571
 11
448.93374974210826
 21
559.43908616188571
  0
LINE
  8
_0-0_計極細
  6
CONTINUOUS
 62
    2
 10
454.93374974210832
 20
554.43908616188571
 11
448.93374974210826
 21
554.43908616188571
  0
LINE
  8
_0-0_計極細
  6
CONTINUOUS
 62
    2
 10
440.93374974210832
 20
559.43908616188571
 11
434.93374974210832
 21
559.43908616188571
  0
LINE
  8
_0-0_計極細
  6
CONTINUOUS
 62
    2
 10
440.93374974210832
 20
554.43908616188571
 11
434.93374974210832
 21
554.43908616188571
  0
LINE
  8
_0-0_計極細
  6
CONTINUOUS
 62
    2
 10
426.93374974210826
 20
559.43908616188571
 11
420.93374974210832
 21
559.43908616188571
  0
LINE
  8
_0-0_計極細
  6
CONTINUOUS
 62
    2
 10
426.93374974210826
 20
554.43908616188571
 11
420.93374974210832
 21
554.43908616188571
  0
LINE
  8
_0-0_計極細
  6
CONTINUOUS
 62
    2
 10
412.93374974210826
 20
559.43908616188571
 11
406.93374974210826
 21
559.43908616188571
  0
LINE
  8
_0-0_計極細
  6
CONTINUOUS
 62
    2
 10
412.93374974210826
 20
554.43908616188571
 11
406.93374974210826
 21
554.43908616188571
  0
LINE
  8
_0-0_計極細
  6
CONTINUOUS
 62
    2
 10
398.93374974210826
 20
559.43908616188571
 11
392.93374974210826
 21
559.43908616188571
  0
LINE
  8
_0-0_計極細
  6
CONTINUOUS
 62
    2
 10
398.93374974210826
 20
554.43908616188571
 11
392.93374974210826
 21
554.43908616188571
  0
LINE
  8
_0-0_計極細
  6
CONTINUOUS
 62
    2
 10
384.93374974210832
 20
559.43908616188571
 11
378.93374974210826
 21
559.43908616188571
  0
LINE
  8
_0-0_計極細
  6
CONTINUOUS
 62
    2
 10
384.93374974210832
 20
554.43908616188571
 11
378.93374974210826
 21
554.43908616188571
  0
LINE
  8
_0-0_計極細
  6
CONTINUOUS
 62
    2
 10
370.93374974210826
 20
559.43908616188571
 11
364.93374974210832
 21
559.43908616188571
  0
LINE
  8
_0-0_計極細
  6
CONTINUOUS
 62
    2
 10
370.93374974210826
 20
554.43908616188571
 11
364.93374974210832
 21
554.43908616188571
  0
LINE
  8
_0-0_計極細
  6
CONTINUOUS
 62
    2
 10
356.93374974210826
 20
559.43908616188571
 11
350.93374974210826
 21
559.43908616188571
  0
LINE
  8
_0-0_計極細
  6
CONTINUOUS
 62
    2
 10
356.93374974210826
 20
554.43908616188571
 11
350.93374974210826
 21
554.43908616188571
  0
LINE
  8
_0-0_計極細
  6
CONTINUOUS
 62
    2
 10
342.93374974210826
 20
559.43908616188571
 11
336.93374974210826
 21
559.43908616188571
  0
LINE
  8
_0-0_計極細
  6
CONTINUOUS
 62
    2
 10
342.93374974210826
 20
554.43908616188571
 11
336.93374974210826
 21
554.43908616188571
  0
LINE
  8
_0-0_計極細
  6
CONTINUOUS
 62
    2
 10
328.93374974210826
 20
559.43908616188571
 11
322.93374974210826
 21
559.43908616188571
  0
LINE
  8
_0-0_計極細
  6
CONTINUOUS
 62
    2
 10
328.93374974210826
 20
554.43908616188571
 11
322.93374974210826
 21
554.43908616188571
  0
LINE
  8
_0-0_計極細
  6
CONTINUOUS
 62
    2
 10
314.93374974210826
 20
559.43908616188571
 11
308.93374974210826
 21
559.43908616188571
  0
LINE
  8
_0-0_計極細
  6
CONTINUOUS
 62
    2
 10
314.93374974210826
 20
554.43908616188571
 11
308.93374974210826
 21
554.43908616188571
  0
LINE
  8
_0-0_計極細
  6
CONTINUOUS
 62
    2
 10
300.93374974210832
 20
559.43908616188571
 11
294.93374974210826
 21
559.43908616188571
  0
LINE
  8
_0-0_計極細
  6
CONTINUOUS
 62
    2
 10
300.93374974210832
 20
554.43908616188571
 11
294.93374974210826
 21
554.43908616188571
  0
LINE
  8
_0-0_計極細
  6
CONTINUOUS
 62
    2
 10
286.93374974210826
 20
559.43908616188571
 11
280.93374974210832
 21
559.43908616188571
  0
LINE
  8
_0-0_計極細
  6
CONTINUOUS
 62
    2
 10
286.93374974210826
 20
554.43908616188571
 11
280.93374974210832
 21
554.43908616188571
  0
LINE
  8
_0-0_計極細
  6
CONTINUOUS
 62
    2
 10
272.93374974210826
 20
559.43908616188571
 11
266.93374974210826
 21
559.43908616188571
  0
LINE
  8
_0-0_計極細
  6
CONTINUOUS
 62
    2
 10
272.93374974210826
 20
554.43908616188571
 11
266.93374974210826
 21
554.43908616188571
  0
LINE
  8
_0-0_計極細
  6
CONTINUOUS
 62
    2
 10
258.93374974210826
 20
559.43908616188571
 11
252.93374974210826
 21
559.43908616188571
  0
LINE
  8
_0-0_計極細
  6
CONTINUOUS
 62
    2
 10
258.93374974210826
 20
554.43908616188571
 11
252.93374974210826
 21
554.43908616188571
  0
LINE
  8
_0-0_計極細
  6
CONTINUOUS
 62
    2
 10
244.93374974210823
 20
559.43908616188571
 11
238.93374974210829
 21
559.43908616188571
  0
LINE
  8
_0-0_計極細
  6
CONTINUOUS
 62
    2
 10
244.93374974210823
 20
554.43908616188571
 11
238.93374974210829
 21
554.43908616188571
  0
LINE
  8
_0-5_寸法線
  6
CONTINUOUS
 62
    7
 10
779.66677900593265
 20
571.29578965970074
 11
784.66677900593265
 21
562.63553562185632
  0
LINE
  8
_0-5_寸法線
  6
CONTINUOUS
 62
    7
 10
779.66677900593265
 20
571.29578965970074
 11
779.66677900593265
 21
561.29578965970074
  0
LINE
  8
_0-5_寸法線
  6
CONTINUOUS
 62
    7
 10
779.66677900593265
 20
571.29578965970074
 11
803.02426212598675
 21
484.12447591872603
  0
LINE
  8
_0-5_寸法線
  6
CONTINUOUS
 62
    7
 10
803.02426212598675
 20
484.12447591872603
 11
937.46327434110651
 21
484.12447591872603
  0
TEXT
  8
_0-5_寸法線
 62
    7
 10
805.46327434110651
 20
484.12447591872603
 40
15
 41
0.8000000000000001
 50
0
  1
ステンレスグレーチング
  0
LINE
  8
_0-1_計細線
  6
CONTINUOUS
 62
    3
 10
238.93374974210829
 20
828.93908616188583
 11
238.93374974210829
 21
534.93908616188583
  0
LINE
  8
_0-1_計細線
  6
CONTINUOUS
 62
    3
 10
230.93374974210832
 20
534.93908616188583
 11
230.93374974210832
 21
828.93908616188583
  0
LINE
  8
_0-1_計細線
  6
CONTINUOUS
 62
    3
 10
252.93374974210826
 20
828.93908616188583
 11
252.93374974210826
 21
534.93908616188583
  0
LINE
  8
_0-1_計細線
  6
CONTINUOUS
 62
    3
 10
244.93374974210823
 20
534.93908616188583
 11
244.93374974210823
 21
828.93908616188583
  0
LINE
  8
_0-1_計細線
  6
CONTINUOUS
 62
    3
 10
266.93374974210826
 20
828.93908616188583
 11
266.93374974210826
 21
534.93908616188583
  0
LINE
  8
_0-1_計細線
  6
CONTINUOUS
 62
    3
 10
258.93374974210826
 20
534.93908616188583
 11
258.93374974210826
 21
828.93908616188583
  0
LINE
  8
_0-1_計細線
  6
CONTINUOUS
 62
    3
 10
280.93374974210832
 20
828.93908616188583
 11
280.93374974210832
 21
534.93908616188583
  0
LINE
  8
_0-1_計細線
  6
CONTINUOUS
 62
    3
 10
272.93374974210826
 20
534.93908616188583
 11
272.93374974210826
 21
828.93908616188583
  0
LINE
  8
_0-1_計細線
  6
CONTINUOUS
 62
    3
 10
294.93374974210826
 20
828.93908616188583
 11
294.93374974210826
 21
534.93908616188583
  0
LINE
  8
_0-1_計細線
  6
CONTINUOUS
 62
    3
 10
286.93374974210826
 20
534.93908616188583
 11
286.93374974210826
 21
828.93908616188583
  0
LINE
  8
_0-1_計細線
  6
CONTINUOUS
 62
    3
 10
308.93374974210826
 20
828.93908616188583
 11
308.93374974210826
 21
534.93908616188583
  0
LINE
  8
_0-1_計細線
  6
CONTINUOUS
 62
    3
 10
300.93374974210832
 20
534.93908616188583
 11
300.93374974210832
 21
828.93908616188583
  0
LINE
  8
_0-1_計細線
  6
CONTINUOUS
 62
    3
 10
322.93374974210826
 20
828.93908616188583
 11
322.93374974210826
 21
534.93908616188583
  0
LINE
  8
_0-1_計細線
  6
CONTINUOUS
 62
    3
 10
314.93374974210826
 20
534.93908616188583
 11
314.93374974210826
 21
828.93908616188583
  0
LINE
  8
_0-1_計細線
  6
CONTINUOUS
 62
    3
 10
336.93374974210826
 20
828.93908616188583
 11
336.93374974210826
 21
534.93908616188583
  0
LINE
  8
_0-1_計細線
  6
CONTINUOUS
 62
    3
 10
328.93374974210826
 20
534.93908616188583
 11
328.93374974210826
 21
828.93908616188583
  0
LINE
  8
_0-1_計細線
  6
CONTINUOUS
 62
    3
 10
350.93374974210826
 20
828.93908616188583
 11
350.93374974210826
 21
534.93908616188583
  0
LINE
  8
_0-1_計細線
  6
CONTINUOUS
 62
    3
 10
342.93374974210826
 20
534.93908616188583
 11
342.93374974210826
 21
828.93908616188583
  0
LINE
  8
_0-1_計細線
  6
CONTINUOUS
 62
    3
 10
364.93374974210832
 20
828.93908616188583
 11
364.93374974210832
 21
534.93908616188583
  0
LINE
  8
_0-1_計細線
  6
CONTINUOUS
 62
    3
 10
356.93374974210826
 20
534.93908616188583
 11
356.93374974210826
 21
828.93908616188583
  0
LINE
  8
_0-1_計細線
  6
CONTINUOUS
 62
    3
 10
378.93374974210826
 20
828.93908616188583
 11
378.93374974210826
 21
534.93908616188583
  0
LINE
  8
_0-1_計細線
  6
CONTINUOUS
 62
    3
 10
370.93374974210826
 20
534.93908616188583
 11
370.93374974210826
 21
828.93908616188583
  0
LINE
  8
_0-1_計細線
  6
CONTINUOUS
 62
    3
 10
392.93374974210826
 20
828.93908616188583
 11
392.93374974210826
 21
534.93908616188583
  0
LINE
  8
_0-1_計細線
  6
CONTINUOUS
 62
    3
 10
384.93374974210832
 20
534.93908616188583
 11
384.93374974210832
 21
828.93908616188583
  0
LINE
  8
_0-1_計細線
  6
CONTINUOUS
 62
    3
 10
406.93374974210826
 20
828.93908616188583
 11
406.93374974210826
 21
534.93908616188583
  0
LINE
  8
_0-1_計細線
  6
CONTINUOUS
 62
    3
 10
398.93374974210826
 20
534.93908616188583
 11
398.93374974210826
 21
828.93908616188583
  0
LINE
  8
_0-1_計細線
  6
CONTINUOUS
 62
    3
 10
420.93374974210832
 20
828.93908616188583
 11
420.93374974210832
 21
534.93908616188583
  0
LINE
  8
_0-1_計細線
  6
CONTINUOUS
 62
    3
 10
412.93374974210826
 20
534.93908616188583
 11
412.93374974210826
 21
828.93908616188583
  0
LINE
  8
_0-1_計細線
  6
CONTINUOUS
 62
    3
 10
434.93374974210832
 20
828.93908616188583
 11
434.93374974210832
 21
534.93908616188583
  0
LINE
  8
_0-1_計細線
  6
CONTINUOUS
 62
    3
 10
426.93374974210826
 20
534.93908616188583
 11
426.93374974210826
 21
828.93908616188583
  0
LINE
  8
_0-1_計細線
  6
CONTINUOUS
 62
    3
 10
448.93374974210826
 20
828.93908616188583
 11
448.93374974210826
 21
534.93908616188583
  0
LINE
  8
_0-1_計細線
  6
CONTINUOUS
 62
    3
 10
440.93374974210832
 20
534.93908616188583
 11
440.93374974210832
 21
828.93908616188583
  0
LINE
  8
_0-1_計細線
  6
CONTINUOUS
 62
    3
 10
462.93374974210826
 20
828.93908616188583
 11
462.93374974210826
 21
534.93908616188583
  0
LINE
  8
_0-1_計細線
  6
CONTINUOUS
 62
    3
 10
454.93374974210832
 20
534.93908616188583
 11
454.93374974210832
 21
828.93908616188583
  0
LINE
  8
_0-1_計細線
  6
CONTINUOUS
 62
    3
 10
476.93374974210826
 20
828.93908616188583
 11
476.93374974210826
 21
534.93908616188583
  0
LINE
  8
_0-1_計細線
  6
CONTINUOUS
 62
    3
 10
468.93374974210826
 20
534.93908616188583
 11
468.93374974210826
 21
828.93908616188583
  0
LINE
  8
_0-1_計細線
  6
CONTINUOUS
 62
    3
 10
490.93374974210832
 20
828.93908616188583
 11
490.93374974210832
 21
534.93908616188583
  0
LINE
  8
_0-1_計細線
  6
CONTINUOUS
 62
    3
 10
482.93374974210826
 20
534.93908616188583
 11
482.93374974210826
 21
828.93908616188583
  0
LINE
  8
_0-1_計細線
  6
CONTINUOUS
 62
    3
 10
504.93374974210832
 20
828.93908616188583
 11
504.93374974210832
 21
534.93908616188583
  0
LINE
  8
_0-1_計細線
  6
CONTINUOUS
 62
    3
 10
496.93374974210826
 20
534.93908616188583
 11
496.93374974210826
 21
828.93908616188583
  0
LINE
  8
_0-1_計細線
  6
CONTINUOUS
 62
    3
 10
518.93374974210826
 20
828.93908616188583
 11
518.93374974210826
 21
534.93908616188583
  0
LINE
  8
_0-1_計細線
  6
CONTINUOUS
 62
    3
 10
510.93374974210832
 20
534.93908616188583
 11
510.93374974210832
 21
828.93908616188583
  0
LINE
  8
_0-1_計細線
  6
CONTINUOUS
 62
    3
 10
532.93374974210826
 20
828.93908616188583
 11
532.93374974210826
 21
534.93908616188583
  0
LINE
  8
_0-1_計細線
  6
CONTINUOUS
 62
    3
 10
524.93374974210826
 20
534.93908616188583
 11
524.93374974210826
 21
828.93908616188583
  0
LINE
  8
_0-1_計細線
  6
CONTINUOUS
 62
    3
 10
546.93374974210826
 20
828.93908616188583
 11
546.93374974210826
 21
534.93908616188583
  0
LINE
  8
_0-1_計細線
  6
CONTINUOUS
 62
    3
 10
538.93374974210826
 20
534.93908616188583
 11
538.93374974210826
 21
828.93908616188583
  0
LINE
  8
_0-1_計細線
  6
CONTINUOUS
 62
    3
 10
560.93374974210838
 20
828.93908616188583
 11
560.93374974210838
 21
534.93908616188583
  0
LINE
  8
_0-1_計細線
  6
CONTINUOUS
 62
    3
 10
552.93374974210826
 20
534.93908616188583
 11
552.93374974210826
 21
828.93908616188583
  0
LINE
  8
_0-1_計細線
  6
CONTINUOUS
 62
    3
 10
574.93374974210826
 20
828.93908616188583
 11
574.93374974210826
 21
534.93908616188583
  0
LINE
  8
_0-1_計細線
  6
CONTINUOUS
 62
    3
 10
566.93374974210826
 20
534.93908616188583
 11
566.93374974210826
 21
828.93908616188583
  0
LINE
  8
_0-1_計細線
  6
CONTINUOUS
 62
    3
 10
588.93374974210826
 20
828.93908616188583
 11
588.93374974210826
 21
534.93908616188583
  0
LINE
  8
_0-1_計細線
  6
CONTINUOUS
 62
    3
 10
580.93374974210838
 20
534.93908616188583
 11
580.93374974210838
 21
828.93908616188583
  0
LINE
  8
_0-1_計細線
  6
CONTINUOUS
 62
    3
 10
602.93374974210826
 20
828.93908616188583
 11
602.93374974210826
 21
534.93908616188583
  0
LINE
  8
_0-1_計細線
  6
CONTINUOUS
 62
    3
 10
594.93374974210826
 20
534.93908616188583
 11
594.93374974210826
 21
828.93908616188583
  0
LINE
  8
_0-1_計細線
  6
CONTINUOUS
 62
    3
 10
616.93374974210826
 20
828.93908616188583
 11
616.93374974210826
 21
534.93908616188583
  0
LINE
  8
_0-1_計細線
  6
CONTINUOUS
 62
    3
 10
608.93374974210826
 20
534.93908616188583
 11
608.93374974210826
 21
828.93908616188583
  0
LINE
  8
_0-1_計細線
  6
CONTINUOUS
 62
    3
 10
630.93374974210838
 20
828.93908616188583
 11
630.93374974210838
 21
534.93908616188583
  0
LINE
  8
_0-1_計細線
  6
CONTINUOUS
 62
    3
 10
622.93374974210826
 20
534.93908616188583
 11
622.93374974210826
 21
828.93908616188583
  0
LINE
  8
_0-1_計細線
  6
CONTINUOUS
 62
    3
 10
644.93374974210826
 20
828.93908616188583
 11
644.93374974210826
 21
534.93908616188583
  0
LINE
  8
_0-1_計細線
  6
CONTINUOUS
 62
    3
 10
636.93374974210826
 20
534.93908616188583
 11
636.93374974210826
 21
828.93908616188583
  0
LINE
  8
_0-1_計細線
  6
CONTINUOUS
 62
    3
 10
658.93374974210826
 20
828.93908616188583
 11
658.93374974210826
 21
534.93908616188583
  0
LINE
  8
_0-1_計細線
  6
CONTINUOUS
 62
    3
 10
650.93374974210838
 20
534.93908616188583
 11
650.93374974210838
 21
828.93908616188583
  0
LINE
  8
_0-1_計細線
  6
CONTINUOUS
 62
    3
 10
672.93374974210838
 20
828.93908616188583
 11
672.93374974210838
 21
534.93908616188583
  0
LINE
  8
_0-1_計細線
  6
CONTINUOUS
 62
    3
 10
664.93374974210826
 20
534.93908616188583
 11
664.93374974210826
 21
828.93908616188583
  0
LINE
  8
_0-1_計細線
  6
CONTINUOUS
 62
    3
 10
686.93374974210826
 20
828.93908616188583
 11
686.93374974210826
 21
534.93908616188583
  0
LINE
  8
_0-1_計細線
  6
CONTINUOUS
 62
    3
 10
678.93374974210826
 20
534.93908616188583
 11
678.93374974210826
 21
828.93908616188583
  0
LINE
  8
_0-1_計細線
  6
CONTINUOUS
 62
    3
 10
700.93374974210838
 20
828.93908616188583
 11
700.93374974210838
 21
534.93908616188583
  0
LINE
  8
_0-1_計細線
  6
CONTINUOUS
 62
    3
 10
692.93374974210838
 20
534.93908616188583
 11
692.93374974210838
 21
828.93908616188583
  0
LINE
  8
_0-1_計細線
  6
CONTINUOUS
 62
    3
 10
714.93374974210826
 20
828.93908616188583
 11
714.93374974210826
 21
534.93908616188583
  0
LINE
  8
_0-1_計細線
  6
CONTINUOUS
 62
    3
 10
706.93374974210826
 20
534.93908616188583
 11
706.93374974210826
 21
828.93908616188583
  0
LINE
  8
_0-1_計細線
  6
CONTINUOUS
 62
    3
 10
728.93374974210826
 20
828.93908616188583
 11
728.93374974210826
 21
534.93908616188583
  0
LINE
  8
_0-1_計細線
  6
CONTINUOUS
 62
    3
 10
720.93374974210838
 20
534.93908616188583
 11
720.93374974210838
 21
828.93908616188583
  0
LINE
  8
_0-1_計細線
  6
CONTINUOUS
 62
    3
 10
742.93374974210838
 20
828.93908616188583
 11
742.93374974210838
 21
534.93908616188583
  0
LINE
  8
_0-1_計細線
  6
CONTINUOUS
 62
    3
 10
734.93374974210826
 20
534.93908616188583
 11
734.93374974210826
 21
828.93908616188583
  0
LINE
  8
_0-1_計細線
  6
CONTINUOUS
 62
    3
 10
756.93374974210826
 20
828.93908616188583
 11
756.93374974210826
 21
534.93908616188583
  0
LINE
  8
_0-1_計細線
  6
CONTINUOUS
 62
    3
 10
748.93374974210826
 20
534.93908616188583
 11
748.93374974210826
 21
828.93908616188583
  0
LINE
  8
_0-1_計細線
  6
CONTINUOUS
 62
    3
 10
770.93374974210838
 20
828.93908616188583
 11
770.93374974210838
 21
534.93908616188583
  0
LINE
  8
_0-1_計細線
  6
CONTINUOUS
 62
    3
 10
762.93374974210838
 20
534.93908616188583
 11
762.93374974210838
 21
828.93908616188583
  0
LINE
  8
_0-1_計細線
  6
CONTINUOUS
 62
    3
 10
784.93374974210838
 20
828.93908616188583
 11
784.93374974210838
 21
534.93908616188583
  0
LINE
  8
_0-1_計細線
  6
CONTINUOUS
 62
    3
 10
776.93374974210826
 20
534.93908616188583
 11
776.93374974210826
 21
828.93908616188583
  0
LINE
  8
_0-1_計細線
  6
CONTINUOUS
 62
    3
 10
798.93374974210826
 20
828.93908616188583
 11
798.93374974210826
 21
534.93908616188583
  0
LINE
  8
_0-1_計細線
  6
CONTINUOUS
 62
    3
 10
790.93374974210838
 20
534.93908616188583
 11
790.93374974210838
 21
828.93908616188583
  0
LINE
  8
_0-1_計細線
  6
CONTINUOUS
 62
    3
 10
812.93374974210838
 20
828.93908616188583
 11
812.93374974210838
 21
534.93908616188583
  0
LINE
  8
_0-1_計細線
  6
CONTINUOUS
 62
    3
 10
804.93374974210838
 20
534.93908616188583
 11
804.93374974210838
 21
828.93908616188583
  0
LINE
  8
_0-1_計細線
  6
CONTINUOUS
 62
    3
 10
826.93374974210826
 20
828.93908616188583
 11
826.93374974210826
 21
534.93908616188583
  0
LINE
  8
_0-1_計細線
  6
CONTINUOUS
 62
    3
 10
818.93374974210826
 20
534.93908616188583
 11
818.93374974210826
 21
828.93908616188583
  0
LINE
  8
_0-1_計細線
  6
CONTINUOUS
 62
    3
 10
840.93374974210838
 20
828.93908616188583
 11
840.93374974210838
 21
534.93908616188583
  0
LINE
  8
_0-1_計細線
  6
CONTINUOUS
 62
    3
 10
832.93374974210838
 20
534.93908616188583
 11
832.93374974210838
 21
828.93908616188583
  0
LINE
  8
_0-1_計細線
  6
CONTINUOUS
 62
    3
 10
854.93374974210838
 20
828.93908616188583
 11
854.93374974210838
 21
534.93908616188583
  0
LINE
  8
_0-1_計細線
  6
CONTINUOUS
 62
    3
 10
846.93374974210826
 20
534.93908616188583
 11
846.93374974210826
 21
828.93908616188583
  0
LINE
  8
_0-1_計細線
  6
CONTINUOUS
 62
    3
 10
868.93374974210826
 20
828.93908616188583
 11
868.93374974210826
 21
534.93908616188583
  0
LINE
  8
_0-1_計細線
  6
CONTINUOUS
 62
    3
 10
860.93374974210838
 20
534.93908616188583
 11
860.93374974210838
 21
828.93908616188583
  0
LINE
  8
_0-1_計細線
  6
CONTINUOUS
 62
    3
 10
882.93374974210838
 20
828.93908616188583
 11
882.93374974210838
 21
534.93908616188583
  0
LINE
  8
_0-1_計細線
  6
CONTINUOUS
 62
    3
 10
874.93374974210838
 20
534.93908616188583
 11
874.93374974210838
 21
828.93908616188583
  0
LINE
  8
_0-1_計細線
  6
CONTINUOUS
 62
    3
 10
896.93374974210826
 20
828.93908616188583
 11
896.93374974210826
 21
534.93908616188583
  0
LINE
  8
_0-1_計細線
  6
CONTINUOUS
 62
    3
 10
888.93374974210826
 20
534.93908616188583
 11
888.93374974210826
 21
828.93908616188583
  0
LINE
  8
_0-1_計細線
  6
CONTINUOUS
 62
    3
 10
910.93374974210838
 20
828.93908616188583
 11
910.93374974210838
 21
534.93908616188583
  0
LINE
  8
_0-1_計細線
  6
CONTINUOUS
 62
    3
 10
902.93374974210838
 20
534.93908616188583
 11
902.93374974210838
 21
828.93908616188583
  0
LINE
  8
_0-1_計細線
  6
CONTINUOUS
 62
    3
 10
924.93374974210838
 20
828.93908616188583
 11
924.93374974210838
 21
534.93908616188583
  0
LINE
  8
_0-1_計細線
  6
CONTINUOUS
 62
    3
 10
916.93374974210826
 20
534.93908616188583
 11
916.93374974210826
 21
828.93908616188583
  0
LINE
  8
_0-1_計細線
  6
CONTINUOUS
 62
    3
 10
938.93374974210826
 20
828.93908616188583
 11
938.93374974210826
 21
534.93908616188583
  0
LINE
  8
_0-1_計細線
  6
CONTINUOUS
 62
    3
 10
930.93374974210838
 20
534.93908616188583
 11
930.93374974210838
 21
828.93908616188583
  0
LINE
  8
_0-1_計細線
  6
CONTINUOUS
 62
    3
 10
952.93374974210838
 20
828.93908616188583
 11
952.93374974210838
 21
534.93908616188583
  0
LINE
  8
_0-1_計細線
  6
CONTINUOUS
 62
    3
 10
944.93374974210838
 20
534.93908616188583
 11
944.93374974210838
 21
828.93908616188583
  0
LINE
  8
_0-1_計細線
  6
CONTINUOUS
 62
    3
 10
966.93374974210826
 20
828.93908616188583
 11
966.93374974210826
 21
534.93908616188583
  0
LINE
  8
_0-1_計細線
  6
CONTINUOUS
 62
    3
 10
958.93374974210826
 20
534.93908616188583
 11
958.93374974210826
 21
828.93908616188583
  0
LINE
  8
_0-1_計細線
  6
CONTINUOUS
 62
    3
 10
980.93374974210838
 20
828.93908616188583
 11
980.93374974210838
 21
534.93908616188583
  0
LINE
  8
_0-1_計細線
  6
CONTINUOUS
 62
    3
 10
972.93374974210838
 20
534.93908616188583
 11
972.93374974210838
 21
828.93908616188583
  0
LINE
  8
_0-1_計細線
  6
CONTINUOUS
 62
    3
 10
994.93374974210838
 20
828.93908616188583
 11
994.93374974210838
 21
534.93908616188583
  0
LINE
  8
_0-1_計細線
  6
CONTINUOUS
 62
    3
 10
986.93374974210826
 20
534.93908616188583
 11
986.93374974210826
 21
828.93908616188583
  0
LINE
  8
_0-1_計細線
  6
CONTINUOUS
 62
    3
 10
1008.9337497421083
 20
828.93908616188583
 11
1008.9337497421083
 21
534.93908616188583
  0
LINE
  8
_0-1_計細線
  6
CONTINUOUS
 62
    3
 10
1000.9337497421084
 20
534.93908616188583
 11
1000.9337497421084
 21
828.93908616188583
  0
LINE
  8
_0-1_計細線
  6
CONTINUOUS
 62
    3
 10
1022.9337497421084
 20
828.93908616188583
 11
1022.9337497421084
 21
534.93908616188583
  0
LINE
  8
_0-1_計細線
  6
CONTINUOUS
 62
    3
 10
1014.9337497421084
 20
534.93908616188583
 11
1014.9337497421084
 21
828.93908616188583
  0
LINE
  8
_0-1_計細線
  6
CONTINUOUS
 62
    3
 10
1036.9337497421084
 20
828.93908616188583
 11
1036.9337497421084
 21
534.93908616188583
  0
LINE
  8
_0-1_計細線
  6
CONTINUOUS
 62
    3
 10
1028.9337497421084
 20
534.93908616188583
 11
1028.9337497421084
 21
828.93908616188583
  0
LINE
  8
_0-1_計細線
  6
CONTINUOUS
 62
    3
 10
1050.9337497421084
 20
828.93908616188583
 11
1050.9337497421084
 21
534.93908616188583
  0
LINE
  8
_0-1_計細線
  6
CONTINUOUS
 62
    3
 10
1042.9337497421084
 20
534.93908616188583
 11
1042.9337497421084
 21
828.93908616188583
  0
LINE
  8
_0-1_計細線
  6
CONTINUOUS
 62
    3
 10
1064.9337497421084
 20
828.93908616188583
 11
1064.9337497421084
 21
534.93908616188583
  0
LINE
  8
_0-1_計細線
  6
CONTINUOUS
 62
    3
 10
1056.9337497421084
 20
534.93908616188583
 11
1056.9337497421084
 21
828.93908616188583
  0
LINE
  8
_0-1_計細線
  6
CONTINUOUS
 62
    3
 10
1078.9337497421084
 20
828.93908616188583
 11
1078.9337497421084
 21
534.93908616188583
  0
LINE
  8
_0-1_計細線
  6
CONTINUOUS
 62
    3
 10
1070.9337497421084
 20
534.93908616188583
 11
1070.9337497421084
 21
828.93908616188583
  0
LINE
  8
_0-1_計細線
  6
CONTINUOUS
 62
    3
 10
1092.9337497421084
 20
828.93908616188583
 11
1092.9337497421084
 21
534.93908616188583
  0
LINE
  8
_0-1_計細線
  6
CONTINUOUS
 62
    3
 10
1084.9337497421084
 20
534.93908616188583
 11
1084.9337497421084
 21
828.93908616188583
  0
LINE
  8
_0-1_計細線
  6
CONTINUOUS
 62
    3
 10
1106.9337497421084
 20
828.93908616188583
 11
1106.9337497421084
 21
534.93908616188583
  0
LINE
  8
_0-1_計細線
  6
CONTINUOUS
 62
    3
 10
1098.9337497421084
 20
534.93908616188583
 11
1098.9337497421084
 21
828.93908616188583
  0
LINE
  8
_0-1_計細線
  6
CONTINUOUS
 62
    3
 10
1120.9337497421084
 20
828.93908616188583
 11
1120.9337497421084
 21
534.93908616188583
  0
LINE
  8
_0-1_計細線
  6
CONTINUOUS
 62
    3
 10
1112.9337497421084
 20
534.93908616188583
 11
1112.9337497421084
 21
828.93908616188583
  0
LINE
  8
_0-1_計細線
  6
CONTINUOUS
 62
    3
 10
1134.9337497421084
 20
828.93908616188583
 11
1134.9337497421084
 21
534.93908616188583
  0
LINE
  8
_0-1_計細線
  6
CONTINUOUS
 62
    3
 10
1126.9337497421084
 20
534.93908616188583
 11
1126.9337497421084
 21
828.93908616188583
  0
LINE
  8
_0-1_計細線
  6
CONTINUOUS
 62
    3
 10
1148.9337497421084
 20
828.93908616188583
 11
1148.9337497421084
 21
534.93908616188583
  0
LINE
  8
_0-1_計細線
  6
CONTINUOUS
 62
    3
 10
1140.9337497421084
 20
534.93908616188583
 11
1140.9337497421084
 21
828.93908616188583
  0
LINE
  8
_0-1_計細線
  6
CONTINUOUS
 62
    3
 10
1162.9337497421084
 20
828.93908616188583
 11
1162.9337497421084
 21
534.93908616188583
  0
LINE
  8
_0-1_計細線
  6
CONTINUOUS
 62
    3
 10
1154.9337497421084
 20
534.93908616188583
 11
1154.9337497421084
 21
828.93908616188583
  0
LINE
  8
_0-1_計細線
  6
CONTINUOUS
 62
    3
 10
1176.9337497421084
 20
828.93908616188583
 11
1176.9337497421084
 21
534.93908616188583
  0
LINE
  8
_0-1_計細線
  6
CONTINUOUS
 62
    3
 10
1168.9337497421084
 20
534.93908616188583
 11
1168.9337497421084
 21
828.93908616188583
  0
LINE
  8
_0-1_計細線
  6
CONTINUOUS
 62
    3
 10
1190.9337497421084
 20
828.93908616188583
 11
1190.9337497421084
 21
534.93908616188583
  0
LINE
  8
_0-1_計細線
  6
CONTINUOUS
 62
    3
 10
1182.9337497421084
 20
534.93908616188583
 11
1182.9337497421084
 21
828.93908616188583
  0
LINE
  8
_0-1_計細線
  6
CONTINUOUS
 62
    3
 10
1204.9337497421084
 20
828.93908616188583
 11
1204.9337497421084
 21
534.93908616188583
  0
LINE
  8
_0-1_計細線
  6
CONTINUOUS
 62
    3
 10
1196.9337497421084
 20
534.93908616188583
 11
1196.9337497421084
 21
828.93908616188583
  0
LINE
  8
_0-1_計細線
  6
CONTINUOUS
 62
    3
 10
1218.9337497421084
 20
828.93908616188583
 11
1218.9337497421084
 21
534.93908616188583
  0
LINE
  8
_0-1_計細線
  6
CONTINUOUS
 62
    3
 10
1210.9337497421084
 20
534.93908616188583
 11
1210.9337497421084
 21
828.93908616188583
  0
TEXT
  8
_0-5_寸法線
 62
    7
 10
803.02426212598675
 20
469.12447591872603
 40
15
 41
0.8000000000000001
 50
0
  1
ＧＳＴＪ－２０Ｗ３００
  0
TEXT
  8
_0-5_寸法線
 62
    7
 10
575.70543556233531
 20
469.12447591872603
 40
15
 41
0.8000000000000001
 50
0
  1
ＧＳＬ－２０
  0
TEXT
  8
_0-7_枠細線
 62
    5
 10
965.50000000000011
 20
110
 40
20
 41
0.6
 50
0
  1
ＧＳＴＪ－２０Ｗ３００
  0
TEXT
  8
_0-7_枠細線
 62
    5
 10
965.49999999999966
 20
70
 40
20.000000000000004
 41
0.5999999999999997
 50
0
  1
表面形状については記号表参照のこと
  0
LINE
  8
_0-7_枠細線
  6
CONTINUOUS
 62
    5
 10
1409.4018171150183
 20
328.47321710336223
 11
1409.4018171150183
 21
223.47321710336274
  0
TEXT
  8
_0-7_枠細線
 62
    5
 10
1318.4018171150192
 20
308.47321710336223
 40
15.000000000000002
 41
0.8
 50
0
  1
ノンスリップ
  0
TEXT
  8
_0-7_枠細線
 62
    5
 10
1330.4018171150185
 20
283.47321710336234
 40
15.000000000000002
 41
0.8
 50
0
  1
品番－Ｄ
  0
LINE
  8
_0-7_枠細線
  6
CONTINUOUS
 62
    5
 10
1299.4018171150178
 20
328.47321710336223
 11
1299.4018171150178
 21
223.47321710336274
  0
TEXT
  8
_0-7_枠細線
 62
    5
 10
1220.4018171150178
 20
308.47321710336234
 40
15.000000000000002
 41
0.8
 50
0
  1
プレーン
  0
TEXT
  8
_0-7_枠細線
 62
    5
 10
1220.4018171150185
 20
283.47321710336234
 40
15.000000000000002
 41
0.8
 50
0
  1
品番－Ｆ
  0
TEXT
  8
_0-7_枠細線
 62
    5
 10
1140.4018171150183
 20
308.47321710336223
 40
15.000000000000002
 41
0.8
 50
0
  1
タ イ プ
  0
LINE
  8
_0-7_枠細線
  6
CONTINUOUS
 62
    5
 10
1139.4018171150174
 20
278.47321710336234
 11
1409.4018171150183
 21
278.47321710336234
  0
LINE
  8
_0-7_枠細線
  6
CONTINUOUS
 62
    5
 10
1139.4018171150174
 20
303.47321710336223
 11
1409.4018171150183
 21
303.47321710336223
  0
LINE
  8
_0-7_枠細線
  6
CONTINUOUS
 62
    5
 10
1139.4018171150174
 20
328.47321710336223
 11
1409.4018171150183
 21
328.47321710336223
  0
LINE
  8
_0-7_枠細線
  6
CONTINUOUS
 62
    5
 10
1139.4018171150174
 20
223.47321710336274
 11
1409.4018171150183
 21
223.47321710336274
  0
LINE
  8
_0-7_枠細線
  6
CONTINUOUS
 62
    5
 10
1189.4018171150183
 20
328.47321710336223
 11
1189.4018171150183
 21
223.47321710336274
  0
LINE
  8
_0-7_枠細線
  6
CONTINUOUS
 62
    5
 10
1139.4018171150174
 20
328.47321710336223
 11
1139.4018171150174
 21
223.47321710336274
  0
TEXT
  8
_0-7_枠細線
 62
    5
 10
1140.4018171150183
 20
243.47321710336257
 40
15.000000000000002
 41
0.8
 50
0
  1
表面形状
  0
TEXT
  8
_0-7_枠細線
 62
    5
 10
1147.1760284558286
 20
330.9732171033624
 40
17.500000000000004
 41
0.7999999999999996
 50
0
  1
記号表
  0
TEXT
  8
_0-7_枠細線
 62
    5
 10
1140.4018171150183
 20
283.47321710336246
 40
15.000000000000002
 41
0.8
 50
0
  1
記　　号
  0
ARC
  8
_0-7_枠細線
  6
CONTINUOUS
 62
    5
 10
1282.9664605906703
 20
242.85777402966897
 40
12.026499332130607
 50
317.5616290000047
 51
42.438370999994966
  0
ARC
  8
_0-7_枠細線
  6
CONTINUOUS
 62
    5
 10
1300.7176602555628
 20
259.08866002804609
 40
12.026499332130607
 50
137.56162900000001
 51
222.43837100000297
  0
ARC
  8
_0-7_枠細線
  6
CONTINUOUS
 62
    5
 10
1188.0859738141417
 20
242.85777402966897
 40
12.026499332130607
 50
317.5616290000047
 51
42.438370999994966
  0
ARC
  8
_0-7_枠細線
  6
CONTINUOUS
 62
    5
 10
1205.8371734790342
 20
259.08866002804609
 40
12.026499332130607
 50
137.56162900000001
 51
222.43837100000297
  0
LINE
  8
_0-7_枠細線
  6
CONTINUOUS
 62
    5
 10
1194.4553061852557
 20
262.97321702885733
 11
1289.3357929617841
 21
262.97321702885733
  0
LINE
  8
_0-7_枠細線
  6
CONTINUOUS
 62
    5
 10
1294.3483278844485
 20
238.97321702885733
 11
1199.4678411079201
 21
238.97321702885733
  0
ARC
  8
_0-7_枠細線
  6
CONTINUOUS
 62
    5
 10
1392.966460590671
 20
242.85777402966897
 40
12.026499332130607
 50
317.5616290000047
 51
42.438370999994966
  0
ARC
  8
_0-7_枠細線
  6
CONTINUOUS
 62
    5
 10
1410.7176602555635
 20
259.08866002804609
 40
12.026499332130607
 50
137.56162900000001
 51
222.43837100000297
  0
ARC
  8
_0-7_枠細線
  6
CONTINUOUS
 62
    5
 10
1298.0859738141421
 20
242.85777402966897
 40
12.026499332130607
 50
317.5616290000047
 51
42.438370999994966
  0
ARC
  8
_0-7_枠細線
  6
CONTINUOUS
 62
    5
 10
1315.8371734790348
 20
259.08866002804609
 40
12.026499332130607
 50
137.56162900000001
 51
222.43837100000297
  0
LINE
  8
_0-7_枠細線
  6
CONTINUOUS
 62
    5
 10
1304.4553061852562
 20
262.97321702885733
 11
1399.3357929617846
 21
262.97321702885733
  0
LINE
  8
_0-7_枠細線
  6
CONTINUOUS
 62
    5
 10
1404.3483278844492
 20
238.97321702885733
 11
1309.4678411079208
 21
238.97321702885733
  0
LINE
  8
_0-7_枠細線
  6
CONTINUOUS
 62
    5
 10
1310.0055655050667
 20
244.4577803132122
 11
1315.4901287894213
 21
238.9732170288575
  0
LINE
  8
_0-7_枠細線
  6
CONTINUOUS
 62
    5
 10
1304.3960893257238
 20
262.79517855391305
 11
1328.218050850779
 21
238.97321702885748
  0
LINE
  8
_0-7_枠細線
  6
CONTINUOUS
 62
    5
 10
1316.9459729121372
 20
262.97321702885745
 11
1340.9459729121368
 21
238.97321702885748
  0
LINE
  8
_0-7_枠細線
  6
CONTINUOUS
 62
    5
 10
1329.6738949734947
 20
262.97321702885745
 11
1353.6738949734945
 21
238.97321702885748
  0
LINE
  8
_0-7_枠細線
  6
CONTINUOUS
 62
    5
 10
1342.4018170348527
 20
262.97321702885745
 11
1366.4018170348525
 21
238.97321702885745
  0
LINE
  8
_0-7_枠細線
  6
CONTINUOUS
 62
    5
 10
1355.1297390962102
 20
262.97321702885733
 11
1379.12973909621
 21
238.97321702885739
  0
LINE
  8
_0-7_枠細線
  6
CONTINUOUS
 62
    5
 10
1367.8576611575681
 20
262.97321702885733
 11
1391.8576611575677
 21
238.97321702885739
  0
LINE
  8
_0-7_枠細線
  6
CONTINUOUS
 62
    5
 10
1380.5855832189261
 20
262.97321702885733
 11
1404.4075447439814
 21
239.15125550380145
  0
LINE
  8
_0-7_枠細線
  6
CONTINUOUS
 62
    5
 10
1393.3135052802836
 20
262.97321702885733
 11
1398.7980685646389
 21
257.48865374450202
  0
LINE
  8
_0-7_枠細線
  6
CONTINUOUS
 62
    5
 10
1393.3135052802843
 20
238.97321702885739
 11
1403.3188705607763
 21
248.97858230934932
  0
LINE
  8
_0-7_枠細線
  6
CONTINUOUS
 62
    5
 10
1380.5855832189263
 20
238.97321702885739
 11
1398.8365633238182
 21
257.22419713374904
  0
LINE
  8
_0-7_枠細線
  6
CONTINUOUS
 62
    5
 10
1367.8576611575684
 20
238.97321702885745
 11
1391.8576611575686
 21
262.97321702885733
  0
LINE
  8
_0-7_枠細線
  6
CONTINUOUS
 62
    5
 10
1355.1297390962109
 20
238.97321702885748
 11
1379.1297390962106
 21
262.97321702885733
  0
LINE
  8
_0-7_枠細線
  6
CONTINUOUS
 62
    5
 10
1342.4018170348527
 20
238.97321702885748
 11
1366.4018170348527
 21
262.97321702885733
  0
LINE
  8
_0-7_枠細線
  6
CONTINUOUS
 62
    5
 10
1329.673894973495
 20
238.97321702885748
 11
1353.673894973495
 21
262.97321702885733
  0
LINE
  8
_0-7_枠細線
  6
CONTINUOUS
 62
    5
 10
1316.9459729121374
 20
238.9732170288575
 11
1340.9459729121372
 21
262.97321702885745
  0
LINE
  8
_0-7_枠細線
  6
CONTINUOUS
 62
    5
 10
1309.9670707458877
 20
244.72223692396568
 11
1328.2180508507793
 21
262.97321702885745
  0
LINE
  8
_0-7_枠細線
  6
CONTINUOUS
 62
    5
 10
1305.4847635089297
 20
252.96785174836555
 11
1315.4901287894218
 21
262.97321702885745
  0
LINE
  8
_0-5_寸法線
  6
CONTINUOUS
 62
    7
 10
190.93374974210889
 20
526.93908616188639
 11
145.93374974210874
 21
526.93908616188662
  0
LINE
  8
_0-5_寸法線
  6
CONTINUOUS
 62
    7
 10
150.93374974210874
 20
526.93908616188662
 11
148.34555929108362
 21
536.59834442477734
  0
LINE
  8
_0-5_寸法線
  6
CONTINUOUS
 62
    7
 10
150.93374974210874
 20
526.93908616188662
 11
153.52194019313401
 21
536.59834442477734
  0
LINE
  8
_0-5_寸法線
  6
CONTINUOUS
 62
    7
 10
190.9337497421096
 20
556.93908616188889
 11
145.93374974210874
 21
556.93908616188912
  0
LINE
  8
_0-5_寸法線
  6
CONTINUOUS
 62
    7
 10
150.93374974210874
 20
556.93908616188912
 11
153.52194019313396
 21
547.27982789899841
  0
LINE
  8
_0-5_寸法線
  6
CONTINUOUS
 62
    7
 10
150.93374974210874
 20
556.93908616188912
 11
148.34555929108353
 21
547.27982789899841
  0
LINE
  8
_0-5_寸法線
  6
CONTINUOUS
 62
    7
 10
150.93374974210874
 20
526.93908616188662
 11
150.93374974210874
 21
556.93908616188912
  0
TEXT
  8
_0-5_寸法線
 62
    7
 10
150.93374974210874
 20
534.43908616188571
 40
15
 41
1
 50
90
  1
30
  0
LINE
  8
_0-5_寸法線
  6
CONTINUOUS
 62
    7
 10
150.93374974210874
 20
556.93908616188912
 11
148.34555929108362
 21
566.59834442477984
  0
LINE
  8
_0-5_寸法線
  6
CONTINUOUS
 62
    7
 10
150.93374974210874
 20
556.93908616188912
 11
153.52194019313401
 21
566.59834442477984
  0
LINE
  8
_0-5_寸法線
  6
CONTINUOUS
 62
    7
 10
190.93374974211008
 20
806.93908616188821
 11
145.93374974210874
 21
806.93908616188833
  0
LINE
  8
_0-5_寸法線
  6
CONTINUOUS
 62
    7
 10
150.93374974210874
 20
806.93908616188833
 11
153.52194019313396
 21
797.27982789899772
  0
LINE
  8
_0-5_寸法線
  6
CONTINUOUS
 62
    7
 10
150.93374974210874
 20
806.93908616188833
 11
148.34555929108353
 21
797.27982789899772
  0
LINE
  8
_0-5_寸法線
  6
CONTINUOUS
 62
    7
 10
150.93374974210874
 20
556.93908616188912
 11
150.93374974210874
 21
806.93908616188833
  0
TEXT
  8
_0-5_寸法線
 62
    7
 10
150.93374974210874
 20
670.68908616188583
 40
15
 41
1
 50
89.999999999999815
  1
250
  0
LINE
  8
_0-5_寸法線
  6
CONTINUOUS
 62
    7
 10
150.93374974210874
 20
806.93908616188833
 11
148.34555929108362
 21
816.59834442477916
  0
LINE
  8
_0-5_寸法線
  6
CONTINUOUS
 62
    7
 10
150.93374974210874
 20
806.93908616188833
 11
153.52194019313401
 21
816.59834442477916
  0
LINE
  8
_0-5_寸法線
  6
CONTINUOUS
 62
    7
 10
190.93374974211008
 20
836.93908616188924
 11
145.93374974210874
 21
836.93908616188935
  0
LINE
  8
_0-5_寸法線
  6
CONTINUOUS
 62
    7
 10
150.93374974210874
 20
836.93908616188935
 11
153.52194019313396
 21
827.27982789899852
  0
LINE
  8
_0-5_寸法線
  6
CONTINUOUS
 62
    7
 10
150.93374974210874
 20
836.93908616188935
 11
148.34555929108353
 21
827.27982789899852
  0
LINE
  8
_0-5_寸法線
  6
CONTINUOUS
 62
    7
 10
150.93374974210874
 20
806.93908616188833
 11
150.93374974210874
 21
836.93908616188935
  0
TEXT
  8
_0-5_寸法線
 62
    7
 10
150.93374974210874
 20
814.4390861618856
 40
15
 41
1
 50
90
  1
30
  0
LINE
  8
_0-5_寸法線
  6
CONTINUOUS
 62
    7
 10
1258.9337497421088
 20
526.93908616188571
 11
1338.9337497421084
 21
526.93908616188548
  0
LINE
  8
_0-5_寸法線
  6
CONTINUOUS
 62
    7
 10
1333.9337497421084
 20
526.93908616188548
 11
1331.3455592910832
 21
536.5983444247762
  0
LINE
  8
_0-5_寸法線
  6
CONTINUOUS
 62
    7
 10
1333.9337497421084
 20
526.93908616188548
 11
1336.5219401931336
 21
536.5983444247762
  0
LINE
  8
_0-5_寸法線
  6
CONTINUOUS
 62
    7
 10
1258.9337497421097
 20
836.9390861618881
 11
1338.9337497421084
 21
836.93908616188776
  0
LINE
  8
_0-5_寸法線
  6
CONTINUOUS
 62
    7
 10
1333.9337497421084
 20
836.93908616188776
 11
1336.5219401931336
 21
827.27982789899715
  0
LINE
  8
_0-5_寸法線
  6
CONTINUOUS
 62
    7
 10
1333.9337497421084
 20
836.93908616188776
 11
1331.3455592910832
 21
827.27982789899715
  0
LINE
  8
_0-5_寸法線
  6
CONTINUOUS
 62
    7
 10
1333.9337497421084
 20
526.93908616188548
 11
1333.9337497421084
 21
836.93908616188776
  0
TEXT
  8
_0-5_寸法線
 62
    7
 10
1333.9337497421084
 20
670.68908616188492
 40
15
 41
1
 50
90
  1
310
  0
LINE
  8
_0-a_極細3
  6
CONTINUOUS
 62
    7
 10
732.5973264368389
 20
251.5681060246003
 11
728.76399310350553
 21
251.5681060246003
  0
LINE
  8
_0-a_極細3
  6
CONTINUOUS
 62
    7
 10
732.5973264368389
 20
254.90143935793381
 11
728.76399310350553
 21
254.90143935793381
  0
LINE
  8
_0-a_極細3
  6
CONTINUOUS
 62
    7
 10
732.5973264368389
 20
248.23477269126704
 11
728.76399310350553
 21
248.23477269126704
  0
LINE
  8
_0-a_極細3
  6
CONTINUOUS
 62
    7
 10
732.5973264368389
 20
258.23477269126704
 11
728.76399310350553
 21
258.23477269126704
  0
LINE
  8
_0-a_極細3
  6
CONTINUOUS
 62
    7
 10
728.76399310350553
 20
224.90143935793381
 11
732.5973264368389
 21
224.90143935793381
  0
LINE
  8
_0-a_極細3
  6
CONTINUOUS
 62
    7
 10
732.5973264368389
 20
274.90143935793378
 11
728.76399310350553
 21
274.90143935793378
  0
LINE
  8
_0-b_細線3
  6
CONTINUOUS
 62
    7
 10
728.76399310350553
 20
278.23477269126704
 11
728.76399310350553
 21
219.90143935793381
  0
LINE
  8
_0-b_細線3
  6
CONTINUOUS
 62
    7
 10
728.76399310350553
 20
219.90143935793381
 11
732.5973264368389
 21
219.90143935793381
  0
LINE
  8
_0-b_細線3
  6
CONTINUOUS
 62
    7
 10
732.5973264368389
 20
219.90143935793381
 11
732.5973264368389
 21
278.23477269126704
  0
LINE
  8
_0-b_細線3
  6
CONTINUOUS
 62
    7
 10
732.5973264368389
 20
278.23477269126704
 11
728.76399310350553
 21
278.23477269126704
  0
LINE
  8
_0-7_枠細線
  6
CONTINUOUS
 62
    5
 10
751.68319453007837
 20
255.96352268742109
 11
744.18319453007837
 21
270.96352268742112
  0
LINE
  8
_0-7_枠細線
  6
CONTINUOUS
 62
    5
 10
736.68319453007837
 20
255.96352268742109
 11
751.68319453007837
 21
255.96352268742109
  0
LINE
  8
_0-7_枠細線
  6
CONTINUOUS
 62
    5
 10
744.18319453007837
 20
270.96352268742112
 11
736.68319453007837
 21
255.96352268742109
  0
TEXT
  8
_0-7_枠細線
 62
    5
 10
739.04834579822648
 20
255.65652044204055
 40
12.5
 41
0.8
 50
0
  1
１
  0
LINE
  8
_0-a_極細3
  6
CONTINUOUS
 62
    7
 10
208.2639931035051
 20
251.5681060246003
 11
212.0973264368385
 21
251.5681060246003
  0
LINE
  8
_0-a_極細3
  6
CONTINUOUS
 62
    7
 10
208.2639931035051
 20
254.90143935793381
 11
212.0973264368385
 21
254.90143935793381
  0
LINE
  8
_0-a_極細3
  6
CONTINUOUS
 62
    7
 10
208.2639931035051
 20
248.23477269126704
 11
212.0973264368385
 21
248.23477269126704
  0
LINE
  8
_0-a_極細3
  6
CONTINUOUS
 62
    7
 10
208.2639931035051
 20
258.23477269126704
 11
212.0973264368385
 21
258.23477269126704
  0
LINE
  8
_0-a_極細3
  6
CONTINUOUS
 62
    7
 10
212.0973264368385
 20
224.90143935793381
 11
208.2639931035051
 21
224.90143935793381
  0
LINE
  8
_0-a_極細3
  6
CONTINUOUS
 62
    7
 10
208.2639931035051
 20
274.90143935793378
 11
212.0973264368385
 21
274.90143935793378
  0
LINE
  8
_0-b_細線3
  6
CONTINUOUS
 62
    7
 10
212.0973264368385
 20
278.23477269126704
 11
212.0973264368385
 21
219.90143935793381
  0
LINE
  8
_0-b_細線3
  6
CONTINUOUS
 62
    7
 10
212.0973264368385
 20
219.90143935793381
 11
208.2639931035051
 21
219.90143935793381
  0
LINE
  8
_0-b_細線3
  6
CONTINUOUS
 62
    7
 10
208.2639931035051
 20
219.90143935793381
 11
208.2639931035051
 21
278.23477269126704
  0
LINE
  8
_0-b_細線3
  6
CONTINUOUS
 62
    7
 10
208.2639931035051
 20
278.23477269126704
 11
212.0973264368385
 21
278.23477269126704
  0
LINE
  8
_0-7_枠細線
  6
CONTINUOUS
 62
    5
 10
1425
 20
907.5
 11
890
 21
907.5
  0
LINE
  8
_0-7_枠細線
  6
CONTINUOUS
 62
    5
 10
915
 20
908.94233397174708
 11
907.5
 21
923.94233397174708
  0
LINE
  8
_0-7_枠細線
  6
CONTINUOUS
 62
    5
 10
900
 20
908.94233397174708
 11
915
 21
908.94233397174708
  0
LINE
  8
_0-7_枠細線
  6
CONTINUOUS
 62
    5
 10
907.5
 20
923.94233397174708
 11
900
 21
908.94233397174708
  0
TEXT
  8
_0-7_枠細線
 62
    5
 10
902.36515126814822
 20
908.63533172636653
 40
12.5
 41
0.8
 50
0
  1
１
  0
TEXT
  8
_0-7_枠細線
 62
    5
 10
1180
 20
910
 40
12.5
 41
0.7199999999999999
 50
0
  1
２０１９．０９．０１
  0
TEXT
  8
_0-7_枠細線
 62
    5
 10
938.85037037037023
 20
910
 40
12.500000000000002
 41
1
 50
0
  1
アンカー材質･厚み変更
  0
LINE
  8
_0-9_枠極太
  6
CONTINUOUS
 62
    5
 10
60
 20
60
 11
60
 21
960
  0
LINE
  8
_0-9_枠極太
  6
CONTINUOUS
 62
    5
 10
60
 20
960
 11
1425
 21
960
  0
LINE
  8
_0-9_枠極太
  6
CONTINUOUS
 62
    5
 10
1425
 20
960
 11
1425
 21
60
  0
LINE
  8
_0-9_枠極太
  6
CONTINUOUS
 62
    5
 10
1425
 20
60
 11
60
 21
60
  0
LINE
  8
_0-7_枠細線
  6
CONTINUOUS
 62
    5
 10
890
 20
907.5
 11
890
 21
959.99999999999909
  0
LINE
  8
_0-7_枠細線
  6
CONTINUOUS
 62
    5
 10
925
 20
907.5
 11
925
 21
959.99999999999943
  0
LINE
  8
_0-7_枠細線
  6
CONTINUOUS
 62
    5
 10
1175
 20
907.5
 11
1175
 21
959.99999999999943
  0
LINE
  8
_0-7_枠細線
  6
CONTINUOUS
 62
    5
 10
1275
 20
907.5
 11
1275
 21
959.99999999999943
  0
LINE
  8
_0-0_計極細
  6
CENTER2
 62
    2
 10
1248.9337497421072
 20
681.93908616188662
 11
200.93374974210775
 21
681.93908616188662
  0
LINE
  8
_0-5_寸法線
  6
CONTINUOUS
 62
    7
 10
1258.9337497421088
 20
526.93908616188571
 11
1303.9337497421084
 21
526.9390861618856
  0
LINE
  8
_0-5_寸法線
  6
CONTINUOUS
 62
    7
 10
1298.9337497421084
 20
526.9390861618856
 11
1301.5219401931336
 21
517.27982789899488
  0
LINE
  8
_0-5_寸法線
  6
CONTINUOUS
 62
    7
 10
1298.9337497421084
 20
526.9390861618856
 11
1296.3455592910832
 21
517.27982789899488
  0
LINE
  8
_0-5_寸法線
  6
CONTINUOUS
 62
    7
 10
1258.9337497421081
 20
529.93908616188583
 11
1303.9337497421084
 21
529.9390861618856
  0
CIRCLE
  8
_0-5_寸法線
  6
CONTINUOUS
 62
    1
 10
1298.9337497421084
 20
529.9390861618856
 40
1.5000000000000002
  0
LINE
  8
_0-5_寸法線
  6
CONTINUOUS
 62
    7
 10
1298.9337497421084
 20
501.93908616188565
 11
1298.9337497421084
 21
529.9390861618856
  0
TEXT
  8
_0-5_寸法線
 62
    7
 10
1298.9337497421084
 20
506.737206803736
 40
15
 41
1
 50
90
  1
3
  0
LINE
  8
_0-5_寸法線
  6
CONTINUOUS
 62
    7
 10
1258.9337497421084
 20
531.93908616188571
 11
1303.9337497421084
 21
531.9390861618856
  0
LINE
  8
_0-5_寸法線
  6
CONTINUOUS
 62
    7
 10
1298.9337497421084
 20
529.9390861618856
 11
1298.9337497421084
 21
531.9390861618856
  0
TEXT
  8
_0-5_寸法線
 62
    7
 10
1318.0389551924773
 20
529.93908616188583
 40
15
 41
1
 50
90
  1
2
  0
LINE
  8
_0-5_寸法線
  6
CONTINUOUS
 62
    7
 10
1298.9337497421084
 20
531.9390861618856
 11
1296.3455592910832
 21
541.59834442477631
  0
LINE
  8
_0-5_寸法線
  6
CONTINUOUS
 62
    7
 10
1298.9337497421084
 20
531.9390861618856
 11
1301.5219401931336
 21
541.59834442477631
  0
LINE
  8
_0-5_寸法線
  6
CONTINUOUS
 62
    7
 10
1258.9337497421084
 20
831.93908616188583
 11
1303.9337497421084
 21
831.9390861618856
  0
LINE
  8
_0-5_寸法線
  6
CONTINUOUS
 62
    7
 10
1298.9337497421084
 20
831.9390861618856
 11
1301.5219401931336
 21
822.27982789899499
  0
LINE
  8
_0-5_寸法線
  6
CONTINUOUS
 62
    7
 10
1298.9337497421084
 20
831.9390861618856
 11
1296.3455592910832
 21
822.27982789899499
  0
LINE
  8
_0-5_寸法線
  6
CONTINUOUS
 62
    7
 10
1298.9337497421084
 20
531.9390861618856
 11
1298.9337497421084
 21
831.9390861618856
  0
TEXT
  8
_0-5_寸法線
 62
    7
 10
1298.9337497421084
 20
670.68908616188583
 40
15
 41
1
 50
90
  1
300
  0
LINE
  8
_0-5_寸法線
  6
CONTINUOUS
 62
    7
 10
1258.9337497421084
 20
833.93908616188583
 11
1303.9337497421084
 21
833.93908616188583
  0
CIRCLE
  8
_0-5_寸法線
  6
CONTINUOUS
 62
    1
 10
1298.9337497421084
 20
833.93908616188583
 40
1.5000000000000002
  0
LINE
  8
_0-5_寸法線
  6
CONTINUOUS
 62
    7
 10
1298.9337497421084
 20
831.9390861618856
 11
1298.9337497421084
 21
833.93908616188583
  0
TEXT
  8
_0-5_寸法線
 62
    7
 10
1318.0217019424949
 20
826.43908616188583
 40
15
 41
1
 50
90
  1
2
  0
LINE
  8
_0-5_寸法線
  6
CONTINUOUS
 62
    7
 10
1258.9337497421084
 20
836.93908616188583
 11
1303.9337497421084
 21
836.9390861618856
  0
LINE
  8
_0-5_寸法線
  6
CONTINUOUS
 62
    7
 10
1298.9337497421084
 20
836.9390861618856
 11
1296.3455592910832
 21
846.59834442477631
  0
LINE
  8
_0-5_寸法線
  6
CONTINUOUS
 62
    7
 10
1298.9337497421084
 20
836.9390861618856
 11
1301.5219401931336
 21
846.59834442477631
  0
LINE
  8
_0-5_寸法線
  6
CONTINUOUS
 62
    7
 10
1298.9337497421084
 20
833.93908616188583
 11
1298.9337497421084
 21
861.9390861618856
  0
TEXT
  8
_0-5_寸法線
 62
    7
 10
1298.9337497421084
 20
851.27167507490753
 40
15
 41
1
 50
90
  1
3
  0
LINE
  8
_0-d_寸法3
  6
CONTINUOUS
 62
    7
 10
212.09732643683893
 20
381.56810602460041
 11
202.43806817394827
 21
378.97991557357523
  0
LINE
  8
_0-d_寸法3
  6
CONTINUOUS
 62
    7
 10
212.09732643683893
 20
381.56810602460041
 11
202.43806817394827
 21
384.15629647562571
  0
LINE
  8
_0-d_寸法3
  6
CONTINUOUS
 62
    7
 10
217.09732643683878
 20
300.73477269126693
 11
217.09732643683893
 21
386.56810602460041
  0
CIRCLE
  8
_0-d_寸法3
  6
CONTINUOUS
 62
    1
 10
217.09732643683893
 20
381.56810602460041
 40
1.5000000000000002
  0
LINE
  8
_0-d_寸法3
  6
CONTINUOUS
 62
    7
 10
187.09732643683893
 20
381.56810602460041
 11
217.09732643683893
 21
381.56810602460041
  0
TEXT
  8
_0-d_寸法3
 62
    7
 10
190.95265849291579
 20
381.56810602460041
 40
15
 41
1
 50
0
  1
3
  0
LINE
  8
_0-d_寸法3
  6
CONTINUOUS
 62
    7
 10
220.43065977017179
 20
298.23477102292259
 11
220.43065977017199
 21
386.56810602460041
  0
LINE
  8
_0-d_寸法3
  6
CONTINUOUS
 62
    7
 10
217.09732643683893
 20
381.56810602460041
 11
220.43065977017199
 21
381.56810602460041
  0
TEXT
  8
_0-d_寸法3
 62
    7
 10
215.01399310350507
 20
381.56810602460041
 40
15
 41
1
 50
0
  1
2
  0
LINE
  8
_0-d_寸法3
  6
CONTINUOUS
 62
    7
 10
220.43065977017199
 20
381.56810602460041
 11
230.08991803306273
 21
384.1562964756256
  0
LINE
  8
_0-d_寸法3
  6
CONTINUOUS
 62
    7
 10
220.43065977017199
 20
381.56810602460041
 11
230.08991803306273
 21
378.97991557357523
  0
LINE
  8
_0-d_寸法3
  6
CONTINUOUS
 62
    7
 10
720.43065977017204
 20
298.23477102292259
 11
720.43065977017204
 21
386.56810602460041
  0
LINE
  8
_0-d_寸法3
  6
CONTINUOUS
 62
    7
 10
720.43065977017204
 20
381.56810602460041
 11
710.77140150728144
 21
378.97991557357523
  0
LINE
  8
_0-d_寸法3
  6
CONTINUOUS
 62
    7
 10
720.43065977017204
 20
381.56810602460041
 11
710.77140150728144
 21
384.15629647562571
  0
LINE
  8
_0-d_寸法3
  6
CONTINUOUS
 62
    7
 10
220.43065977017199
 20
381.56810602460041
 11
720.43065977017204
 21
381.56810602460041
  0
TEXT
  8
_0-d_寸法3
 62
    7
 10
459.18065977017199
 20
381.56810602460041
 40
15
 41
1
 50
0
  1
300
  0
LINE
  8
_0-d_寸法3
  6
CONTINUOUS
 62
    7
 10
723.76399310350507
 20
300.73477269126693
 11
723.76399310350507
 21
386.56810602460041
  0
CIRCLE
  8
_0-d_寸法3
  6
CONTINUOUS
 62
    1
 10
723.76399310350507
 20
381.56810602460041
 40
1.5000000000000002
  0
LINE
  8
_0-d_寸法3
  6
CONTINUOUS
 62
    7
 10
720.43065977017204
 20
381.56810602460041
 11
723.76399310350507
 21
381.56810602460041
  0
TEXT
  8
_0-d_寸法3
 62
    7
 10
718.34732643683867
 20
381.56810602460041
 40
15
 41
1
 50
0
  1
2
  0
LINE
  8
_0-d_寸法3
  6
CONTINUOUS
 62
    7
 10
728.76399310350507
 20
381.56810602460041
 11
738.4232513663959
 21
384.15629647562554
  0
LINE
  8
_0-d_寸法3
  6
CONTINUOUS
 62
    7
 10
728.76399310350507
 20
381.56810602460041
 11
738.4232513663959
 21
378.97991557357523
  0
LINE
  8
_0-d_寸法3
  6
CONTINUOUS
 62
    7
 10
723.76399310350507
 20
381.56810602460041
 11
753.76399310350507
 21
381.56810602460041
  0
TEXT
  8
_0-d_寸法3
 62
    7
 10
745.28599182624578
 20
381.56810602460041
 40
15
 41
1
 50
0
  1
3
  0
ENDSEC
  0
EOF
