  0
SECTION
  2
HEADER
  9
$ACADVER
  1
AC1009
  9
$INSBASE
 10
0
 20
0
 30
0
  9
$EXTMIN
 10
0
 20
0
  9
$EXTMAX
 10
1485
 20
1050
  9
$LIMMIN
 10
0
 20
0
  9
$LIMMAX
 10
1485
 20
1050
  9
$LTSCALE
 40
5
  0
ENDSEC
  0
SECTION
  2
TABLES
  0
TABLE
  2
LTYPE
 70
     9
  0
LTYPE
  2
CONTINUOUS
 70
    64
  3
実線
 72
    65
 73
     0
 40
0.0
  0
LTYPE
  2
DASHED1
 70
    64
  3
--  --  --  --  --  --  --  --  
 72
    65
 73
     2
 40
2.5
 49
1.25
 49
-1.25
  0
LTYPE
  2
DASHED2
 70
    64
  3
----    ----    ----    ----    
 72
    65
 73
     2
 40
5.0
 49
2.5
 49
-2.5
  0
LTYPE
  2
DASHED3
 70
    64
  3
------  ------  ------  ------  
 72
    65
 73
     2
 40
5.0
 49
3.75
 49
-1.25
  0
LTYPE
  2
CENTER1
 70
    64
  3
----- - ----- - ----- - ----- - 
 72
    65
 73
     4
 40
10.0
 49
6.25
 49
-1.25
 49
1.25
 49
-1.25
  0
LTYPE
  2
CENTER2
 70
    64
  3
----------  --  ----------  --  
 72
    65
 73
     4
 40
20.0
 49
12.5
 49
-2.5
 49
2.5
 49
-2.5
  0
LTYPE
  2
PHANTOM1
 70
    64
  3
--- - - --- - - --- - - --- - - 
 72
    65
 73
     6
 40
10.0
 49
3.25
 49
-1.25
 49
1.25
 49
-1.25
 49
1.25
 49
-1.25
  0
LTYPE
  2
PHANTOM2
 70
    64
  3
--------  -  -  --------  -  -  
 72
    65
 73
     6
 40
20.0
 49
10.0
 49
-2.5
 49
1.25
 49
-2.5
 49
1.25
 49
-2.5
  0
LTYPE
  2
DOT
 70
    64
  3
-   -   -   -   -   -   -   -   
 72
    65
 73
     2
 40
2.5
 49
0.625
 49
-1.875
  0
LTYPE
  2
DUMMY
 70
    64
  3
ダミー
 72
    65
 73
     0
 40
0.0
  0
LTYPE
  2
RAND1
 70
    64
  3
ランダム線1
 72
    65
 73
     4
 40
10.0
 49
1.0
 49
-2.0
 49
3.0
 49
-4.0
  0
LTYPE
  2
RAND2
 70
    64
  3
ランダム線2
 72
    65
 73
     4
 40
14.0
 49
2.0
 49
-3.0
 49
4.0
 49
-5.0
  0
LTYPE
  2
RAND3
 70
    64
  3
ランダム線3
 72
    65
 73
     4
 40
18.0
 49
3.0
 49
-4.0
 49
5.0
 49
-6.0
  0
LTYPE
  2
RAND4
 70
    64
  3
ランダム線4
 72
    65
 73
     4
 40
22.0
 49
4.0
 49
-5.0
 49
6.0
 49
-7.0
  0
LTYPE
  2
RAND5
 70
    64
  3
ランダム線5
 72
    65
 73
     4
 40
26.0
 49
5.0
 49
-6.0
 49
7.0
 49
-8.0
  0
LTYPE
  2
LONG1
 70
    64
  3
----------  --  ----------  --  
 72
    65
 73
     4
 40
40.0
 49
32.5
 49
-2.5
 49
2.5
 49
-2.5
  0
LTYPE
  2
LONG2
 70
    64
  3
--------  -  -  --------  -  -  
 72
    65
 73
     6
 40
40.0
 49
30.0
 49
-2.5
 49
1.25
 49
-2.5
 49
1.25
 49
-2.5
  0
LTYPE
  2
LONG3
 70
    64
  3
+++++++++++++++..+++++++++++++++
 72
    65
 73
     2
 40
40.0
 49
37.5
 49
-2.5
  0
LTYPE
  2
LONG4
 70
    64
  3
+++++++++++++++..+++++++++++++++
 72
    65
 73
     2
 40
80.0
 49
75.0
 49
-5.0
  0
LTYPE
  2
LONG5
 70
    64
  3
----------  --  ----------  --  
 72
    65
 73
     4
 40
60.0
 49
37.5
 49
-7.5
 49
7.5
 49
-7.5
  0
LTYPE
  2
dashed
 70
   64
  3
-------   -------------   ------
 72
   65
 73
    2
 40
7.5
 49
6
 49
-1.5
  0
LTYPE
  2
dashed_spaced
 70
   64
  3
----        --------        ----
 72
   65
 73
    2
 40
12
 49
6
 49
-6
  0
LTYPE
  2
long_dashed_dotted
 70
   64
  3
------------- --- --------------
 72
   65
 73
    4
 40
15.25
 49
12
 49
-1.5
 49
0.25
 49
-1.5
  0
LTYPE
  2
long_dashed_double-dotted
 70
   64
  3
----------- --- --- ------------
 72
   65
 73
    6
 40
17
 49
12
 49
-1.5
 49
0.25
 49
-1.5
 49
0.25
 49
-1.5
  0
LTYPE
  2
long_dashed_triplicate-dotted
 70
   64
  3
--------- --- --- --- ----------
 72
   65
 73
    8
 40
18.75
 49
12
 49
-1.5
 49
0.25
 49
-1.5
 49
0.25
 49
-1.5
 49
0.25
 49
-1.5
  0
LTYPE
  2
dotted
 70
   64
  3
   -       -       -       -    
 72
   65
 73
    2
 40
1.75
 49
0.25
 49
-1.5
  0
LTYPE
  2
chain
 70
   64
  3
-------------- -- --------------
 72
   65
 73
    4
 40
18.5
 49
12
 49
-1.5
 49
3.5
 49
-1.5
  0
LTYPE
  2
chain_double_dash
 70
   64
  3
------------ -- -- -------------
 72
   65
 73
    6
 40
23.5
 49
12
 49
-1.5
 49
3.5
 49
-1.5
 49
3.5
 49
-1.5
  0
LTYPE
  2
dashed_dotted
 70
   64
  3
-----------     -     ----------
 72
   65
 73
    4
 40
9.25
 49
6
 49
-1.5
 49
0.25
 49
-1.5
  0
LTYPE
  2
double-dashed_dotted
 70
   64
  3
------   -----------   -   -----
 72
   65
 73
    6
 40
16.75
 49
6
 49
-1.5
 49
6
 49
-1.5
 49
0.25
 49
-1.5
  0
LTYPE
  2
dashed_double-dotted
 70
   64
  3
---------    -    -    ---------
 72
   65
 73
    6
 40
11
 49
6
 49
-1.5
 49
0.25
 49
-1.5
 49
0.25
 49
-1.5
  0
LTYPE
  2
double-dashed_double-dotted
 70
   64
  3
-----   ---------   -   -   ----
 72
   65
 73
    8
 40
18.5
 49
6
 49
-1.5
 49
6
 49
-1.5
 49
0.25
 49
-1.5
 49
0.25
 49
-1.5
  0
LTYPE
  2
dashed_triplicate-dotted
 70
   64
  3
-------    -    -    -    ------
 72
   65
 73
    8
 40
12.75
 49
6
 49
-1.5
 49
0.25
 49
-1.5
 49
0.25
 49
-1.5
 49
0.25
 49
-1.5
  0
LTYPE
  2
double-dashed_triplicate-dotted
 70
   64
  3
-----  ---------  -  -  -  -----
 72
   65
 73
   10
 40
20.25
 49
6
 49
-1.5
 49
6
 49
-1.5
 49
0.25
 49
-1.5
 49
0.25
 49
-1.5
 49
0.25
 49
-1.5
  0
LTYPE
  2
undefined
 70
   64
  3
--------------------------------
 72
   65
 73
    0
 40
0
  0
ENDTAB
  0
TABLE
  2
STYLE
  5
3
100
AcDbSymbolTable
 70
     1
  0
STYLE
  5
10
100
AcDbSymbolTableRecord
100
AcDbTextStyleTableRecord
  2
STANDARD
 70
     0
 40
0.0
 41
1.0
 50
0.0
 71
     0
 42
0.2
  3
txt
  4
bigfont.shx
  0
STYLE
  5
26
100
AcDbSymbolTableRecord
100
AcDbTextStyleTableRecord
  2
TATEGAKI
 70
    68
 40
0.0
 41
1.0
 50
0.0
 71
     0
 42
1.0
  3
txt
  4
bigfont.shx
  0
ENDTAB
  0
TABLE
  2
LAYER
 70
   10
  0
LAYER
  2
_0-0_計極細
 70
   64
 62
    7
  6
CONTINUOUS
  0
LAYER
  2
_0-1_計細線
 70
   64
 62
    7
  6
CONTINUOUS
  0
LAYER
  2
_0-5_寸法線
 70
   64
 62
    7
  6
CONTINUOUS
  0
LAYER
  2
_0-7_枠細線
 70
   64
 62
    7
  6
CONTINUOUS
  0
LAYER
  2
_0-8_枠中線
 70
   64
 62
    7
  6
CONTINUOUS
  0
LAYER
  2
_0-9_枠極太
 70
   64
 62
    7
  6
CONTINUOUS
  0
LAYER
  2
_0-a_極細3
 70
   64
 62
    7
  6
CONTINUOUS
  0
LAYER
  2
_0-b_細線3
 70
   64
 62
    7
  6
CONTINUOUS
  0
LAYER
  2
_0-d_寸法3
 70
   64
 62
    7
  6
CONTINUOUS
  0
LAYER
  2
ADD_LINE
 70
   64
 62
    7
  6
CONTINUOUS
  0
ENDTAB
  0
ENDSEC
  0
SECTION
  2
BLOCKS
  0
ENDSEC
  0
SECTION
  2
ENTITIES
  0
LINE
  8
_0-7_枠細線
  6
CONTINUOUS
 62
    5
 10
1425
 20
942.5
 11
890
 21
942.5
  0
TEXT
  8
_0-7_枠細線
 62
    5
 10
895
 20
945
 40
12.5
 41
1
 50
0
  1
記号
  0
TEXT
  8
_0-7_枠細線
 62
    5
 10
996.875
 20
945
 40
12.5
 41
1
 50
0
  1
訂　 正　 記　 事
  0
TEXT
  8
_0-7_枠細線
 62
    5
 10
1181.25
 20
945
 40
12.5
 41
1
 50
0
  1
訂 正 年 月 日
  0
TEXT
  8
_0-7_枠細線
 62
    5
 10
1306.25
 20
945
 40
12.5
 41
1
 50
0
  1
備　　　　　考
  0
LINE
  8
_0-7_枠細線
  6
CONTINUOUS
 62
    5
 10
1185
 20
180
 11
1185
 21
100
  0
TEXT
  8
_0-7_枠細線
 62
    5
 10
937.5
 20
97.5
 40
17.5
 41
1
 50
0
  1
備考
  7
TATEGAKI
  0
TEXT
  8
_0-7_枠細線
 62
    5
 10
937.5
 20
137.5
 40
17.5
 41
1
 50
0
  1
品番
  7
TATEGAKI
  0
TEXT
  8
_0-7_枠細線
 62
    5
 10
937.5
 20
177.5
 40
17.5
 41
1
 50
0
  1
品名
  7
TATEGAKI
  0
LINE
  8
_0-7_枠細線
  6
CONTINUOUS
 62
    5
 10
1185
 20
140
 11
925
 21
140
  0
LINE
  8
_0-7_枠細線
  6
CONTINUOUS
 62
    5
 10
950
 20
180
 11
950
 21
60
  0
LINE
  8
_0-8_枠中線
  6
CONTINUOUS
 62
    5
 10
1425
 20
180
 11
925
 21
180
  0
LINE
  8
_0-8_枠中線
  6
CONTINUOUS
 62
    5
 10
925
 20
180
 11
925
 21
60
  0
LINE
  8
_0-7_枠細線
  6
CONTINUOUS
 62
    5
 10
1245
 20
180
 11
1245
 21
60
  0
TEXT
  8
_0-7_枠細線
 62
    5
 10
1192.5
 20
160
 40
15
 41
1
 50
0
  1
縮　尺
  0
TEXT
  8
_0-7_枠細線
 62
    5
 10
1194
 20
117.5
 40
20
 41
0.7000000000000001
 50
0
  1
１：５
  0
LINE
  8
_0-7_枠細線
  6
CONTINUOUS
 62
    5
 10
1185
 20
155
 11
1245
 21
155
  0
LINE
  8
_0-7_枠細線
  6
CONTINUOUS
 62
    5
 10
1245
 20
100
 11
925
 21
100
  0
LINE
  8
_0-7_枠細線
  6
CONTINUOUS
 62
    5
 10
1425
 20
90
 11
1245
 21
90
  0
LINE
  8
_0-7_枠細線
  6
CONTINUOUS
 62
    5
 10
1245
 20
120
 11
1425
 21
120
  0
LINE
  8
_0-7_枠細線
  6
CONTINUOUS
 62
    5
 10
1425
 20
140
 11
1245
 21
140
  0
TEXT
  8
_0-7_枠細線
 62
    5
 10
1255
 20
147.5
 40
25
 41
0.8
 50
0
  1
株式会社シマブン
  0
TEXT
  8
_0-7_枠細線
 62
    5
 10
1252.5
 20
60
 40
15
 41
1
 50
0
  1
年月日
  0
TEXT
  8
_0-7_枠細線
 62
    5
 10
1252.5
 20
75
 40
15
 41
1
 50
0
  1
作　成
  0
TEXT
  8
_0-7_枠細線
 62
    5
 10
1256.25
 20
122.5
 40
15
 41
1
 50
0
  1
承 認
  0
LINE
  8
_0-7_枠細線
  6
CONTINUOUS
 62
    5
 10
1305
 20
140
 11
1305
 21
60
  0
TEXT
  8
_0-7_枠細線
 62
    5
 10
1316.25
 20
122.5
 40
15
 41
1
 50
0
  1
検 図
  0
LINE
  8
_0-7_枠細線
  6
CONTINUOUS
 62
    5
 10
1365
 20
140
 11
1365
 21
90
  0
TEXT
  8
_0-7_枠細線
 62
    5
 10
1375
 20
95
 40
20
 41
1
 50
0
  1
藤戸
  0
TEXT
  8
_0-7_枠細線
 62
    5
 10
1376.25
 20
122.5
 40
15
 41
1
 50
0
  1
設 計
  0
TEXT
  8
_0-7_枠細線
 62
    5
 10
1255
 20
95
 40
20
 41
1
 50
0
  1
隠塚
  0
TEXT
  8
_0-7_枠細線
 62
    5
 10
1315
 20
95
 40
20
 41
1
 50
0
  1
渋田
  0
TEXT
  8
_0-7_枠細線
 62
    5
 10
1310
 20
67.5
 40
15
 41
0.6666666666666666
 50
0
  1
２０１２年０２月２９日
  0
LINE
  8
_0-7_枠細線
  6
CONTINUOUS
 62
    5
 10
1425
 20
925
 11
890
 21
925
  0
TEXT
  8
_0-7_枠細線
 62
    5
 10
938.85037037037023
 20
927.5
 40
12.500000000000002
 41
1
 50
0
  1
品番変更
  0
TEXT
  8
_0-7_枠細線
 62
    5
 10
1180
 20
927.5
 40
12.5
 41
0.7199999999999999
 50
0
  1
２０１５．０４．０１
  0
TEXT
  8
_0-7_枠細線
 62
    5
 10
965.50000000000011
 20
150
 40
20
 41
0.5
 50
0
  1
Ｔバー ステンレスグレーチング Ｈ１５タイプ
  0
LINE
  8
_0-a_極細3
  6
CENTER1
 62
    7
 10
470.43065977017199
 20
252.0489432058173
 11
470.43065977017199
 21
307.16560987249022
  0
LINE
  8
_0-d_寸法3
  6
CONTINUOUS
 62
    7
 10
462.23913932728209
 20
273.97053705477765
 11
426.88679760159658
 21
298.72451322446841
  0
LINE
  8
_0-d_寸法3
  6
CONTINUOUS
 62
    7
 10
430.98255782304159
 20
295.85663104271316
 11
428.3943673720164
 21
305.51588930560388
  0
LINE
  8
_0-d_寸法3
  6
CONTINUOUS
 62
    7
 10
430.98255782304159
 20
295.85663104271316
 11
433.57074827406677
 21
305.51588930560388
  0
LINE
  8
_0-d_寸法3
  6
CONTINUOUS
 62
    7
 10
462.23913932728209
 20
298.97053705477765
 11
426.88679760159658
 21
323.72451322446841
  0
LINE
  8
_0-d_寸法3
  6
CONTINUOUS
 62
    7
 10
430.98255782304159
 20
320.85663104271316
 11
433.57074827406677
 21
311.19737277982244
  0
LINE
  8
_0-d_寸法3
  6
CONTINUOUS
 62
    7
 10
430.98255782304159
 20
320.85663104271316
 11
428.39436737201629
 21
311.19737277982256
  0
LINE
  8
_0-d_寸法3
  6
CONTINUOUS
 62
    7
 10
430.98255782304159
 20
295.85663104271316
 11
430.98255782304159
 21
320.85663104271316
  0
TEXT
  8
_0-d_寸法3
 62
    7
 10
430.98255782304159
 20
300.85663104271293
 40
15
 41
1
 50
90
  1
15
  0
TEXT
  8
_0-7_枠細線
 62
    5
 10
420.50861213093816
 20
118.23440768958903
 40
25
 41
0.8
 50
0
  1
断面詳細図
  0
TEXT
  8
_0-7_枠細線
 62
    5
 10
535.45758188010632
 20
118.23440768958903
 40
20
 41
0.6
 50
0
  1
Ｓ＝１：３
  0
CIRCLE
  8
_0-a_極細3
  6
CONTINUOUS
 62
    7
 10
278.71423256698966
 20
278.19373866348246
 40
0.5530864197530718
  0
LINE
  8
_0-a_極細3
  6
CONTINUOUS
 62
    7
 10
283.76399310350553
 20
293.23477269126715
 11
283.76399310350553
 21
281.56810602460018
  0
LINE
  8
_0-a_極細3
  6
CONTINUOUS
 62
    7
 10
283.76399310350553
 20
293.23477269126715
 11
194.58624595839083
 21
293.23477269126715
  0
LINE
  8
_0-a_極細3
  6
CONTINUOUS
 62
    7
 10
292.0973264368389
 20
281.56810602460018
 11
194.58624595839083
 21
281.56810602460018
  0
LINE
  8
_0-a_極細3
  6
CONTINUOUS
 62
    7
 10
292.0973264368389
 20
293.23477269126715
 11
283.76399310350553
 21
293.23477269126715
  0
LINE
  8
_0-a_極細3
  6
CONTINUOUS
 62
    7
 10
292.0973264368389
 20
292.40143935793367
 11
292.0973264368389
 21
293.23477269126715
  0
LINE
  8
_0-a_極細3
  6
CONTINUOUS
 62
    7
 10
291.89923618047942
 20
281.56810602460018
 11
292.0973264368385
 21
281.76619628095978
  0
LINE
  8
_0-a_極細3
  6
CONTINUOUS
 62
    7
 10
287.65659549336027
 20
281.56810602460018
 11
292.0973264368389
 21
286.00883696807887
  0
LINE
  8
_0-a_極細3
  6
CONTINUOUS
 62
    7
 10
283.76399310350553
 20
281.91814432186493
 11
292.0973264368389
 21
290.25147765519819
  0
LINE
  8
_0-a_極細3
  6
CONTINUOUS
 62
    7
 10
283.76399310350553
 20
286.16078500898402
 11
290.83798078578815
 21
293.23477269126715
  0
LINE
  8
_0-a_極細3
  6
CONTINUOUS
 62
    7
 10
283.76399310350553
 20
290.40342569610357
 11
286.595340098669
 21
293.23477269126715
  0
LINE
  8
_0-a_極細3
  6
CONTINUOUS
 62
    7
 10
292.0973264368389
 20
290.95380581900849
 11
289.81635956458047
 21
293.23477269126715
  0
LINE
  8
_0-a_極細3
  6
CONTINUOUS
 62
    7
 10
292.0973264368389
 20
286.71116513188917
 11
285.57371887746103
 21
293.23477269126715
  0
LINE
  8
_0-a_極細3
  6
CONTINUOUS
 62
    7
 10
283.76399310350553
 20
290.80185777810334
 11
292.0973264368389
 21
282.46852444477008
  0
LINE
  8
_0-a_極細3
  6
CONTINUOUS
 62
    7
 10
283.76399310350553
 20
286.55921709098402
 11
288.75510416988891
 21
281.56810602460018
  0
LINE
  8
_0-a_極細3
  6
CONTINUOUS
 62
    7
 10
283.76399310350553
 20
282.3165764038647
 11
284.51246348276982
 21
281.56810602460018
  0
LINE
  8
_0-a_極細3
  6
CONTINUOUS
 62
    7
 10
274.92867342587488
 20
281.56810601847292
 11
283.76399310350553
 21
290.40342569610357
  0
LINE
  8
_0-a_極細3
  6
CONTINUOUS
 62
    7
 10
253.71546997556734
 20
281.56810600376184
 11
265.38213666307274
 21
293.23477269126693
  0
LINE
  8
_0-a_極細3
  6
CONTINUOUS
 62
    7
 10
232.50226652525953
 20
281.56810598905031
 11
244.16893322747583
 21
293.23477269126715
  0
LINE
  8
_0-a_極細3
  6
CONTINUOUS
 62
    7
 10
211.28906307495157
 20
281.56810597433923
 11
222.95572979187952
 21
293.23477269126715
  0
LINE
  8
_0-a_極細3
  6
CONTINUOUS
 62
    7
 10
194.58624595839083
 20
286.07849229337444
 11
201.74252635628312
 21
293.23477269126693
  0
LINE
  8
_0-a_極細3
  6
DASHED2
 62
    7
 10
264.3220717007211
 20
281.56810601111738
 11
275.98873838087087
 21
293.23477269126715
  0
LINE
  8
_0-a_極細3
  6
DASHED2
 62
    7
 10
243.10886825041322
 20
281.56810599640608
 11
254.77553494527456
 21
293.23477269126715
  0
LINE
  8
_0-a_極細3
  6
DASHED2
 62
    7
 10
221.89566480010575
 20
281.56810598169477
 11
233.56233150967768
 21
293.23477269126715
  0
LINE
  8
_0-a_極細3
  6
DASHED2
 62
    7
 10
200.68246134979788
 20
281.56810596698369
 11
212.34912807408136
 21
293.23477269126715
  0
LINE
  8
_0-a_極細3
  6
CONTINUOUS
 62
    7
 10
225.43065977017199
 20
256.56810602460041
 11
225.43065977017199
 21
188.23477269126712
  0
LINE
  8
_0-a_極細3
  6
CONTINUOUS
 62
    7
 10
308.76399310350553
 20
188.23477269126712
 11
225.43065977017199
 21
188.23477269126712
  0
LINE
  8
_0-a_極細3
  6
CONTINUOUS
 62
    7
 10
225.43065977017199
 20
256.56810602460041
 11
194.58624595839083
 21
256.56810602460041
  0
LINE
  8
_0-a_極細3
  6
CONTINUOUS
 62
    7
 10
308.76399310350553
 20
188.23477269126712
 11
308.76399310350553
 21
161.99317239648806
  0
LINE
  8
_0-a_極細3
  6
CONTINUOUS
 62
    7
 10
271.34201853851562
 20
161.99317251292499
 11
297.58361871685838
 21
188.23477269126712
  0
LINE
  8
_0-a_極細3
  6
CONTINUOUS
 62
    7
 10
200.6313406398744
 20
161.99317273293815
 11
226.87294059820346
 21
188.23477269126712
  0
LINE
  8
_0-a_極細3
  6
CONTINUOUS
 62
    7
 10
194.58624595839083
 20
226.65875617010943
 11
224.49559581288213
 21
256.56810602460041
  0
LINE
  8
_0-a_極細3
  6
CONTINUOUS
 62
    7
 10
264.2709507486515
 20
161.99317253492637
 11
290.51255090499251
 21
188.23477269126712
  0
LINE
  8
_0-a_極細3
  6
CONTINUOUS
 62
    7
 10
194.58624595839083
 20
163.01914586332009
 11
225.43065977017199
 21
193.86355967510141
  0
LINE
  8
_0-a_極細3
  6
CONTINUOUS
 62
    7
 10
194.58624595839083
 20
233.72982398197496
 11
217.42452800101631
 21
256.56810602460041
  0
LINE
  8
_0-a_極細3
  6
CONTINUOUS
 62
    7
 10
257.19988295878778
 20
161.99317255692768
 11
283.44148309312732
 21
188.23477269126712
  0
LINE
  8
_0-a_極細3
  6
CONTINUOUS
 62
    7
 10
194.58624595839083
 20
170.09021367518562
 11
225.43065977017199
 21
200.93462748696695
  0
LINE
  8
_0-a_極細3
  6
CONTINUOUS
 62
    7
 10
194.58624595839083
 20
240.80089179384029
 11
210.35346018915106
 21
256.56810602460041
  0
CIRCLE
  8
_0-a_極細3
  6
CONTINUOUS
 62
    7
 10
212.48213380155804
 20
271.77151644126047
 40
0.5530864197530718
  0
CIRCLE
  8
_0-a_極細3
  6
CONTINUOUS
 62
    7
 10
202.15126960402762
 20
261.81596088570495
 40
0.5530864197530718
  0
CIRCLE
  8
_0-a_極細3
  6
CONTINUOUS
 62
    7
 10
212.75867701143483
 20
262.88262755237156
 40
0.5530864197530718
  0
CIRCLE
  8
_0-a_極細3
  6
CONTINUOUS
 62
    7
 10
225.38089923365709
 20
264.83818310792708
 40
0.5530864197530718
  0
CIRCLE
  8
_0-a_極細3
  6
CONTINUOUS
 62
    7
 10
253.82534367810095
 20
276.57151644126043
 40
0.5530864197530718
  0
CIRCLE
  8
_0-a_極細3
  6
CONTINUOUS
 62
    7
 10
284.40312145587853
 20
270.34929421903826
 40
0.5530864197530718
  0
CIRCLE
  8
_0-a_極細3
  6
CONTINUOUS
 62
    7
 10
259.5142325669899
 20
269.81596088570495
 40
0.5530864197530718
  0
CIRCLE
  8
_0-a_極細3
  6
CONTINUOUS
 62
    7
 10
232.32534367810146
 20
257.5826275523716
 40
0.5530864197530718
  0
CIRCLE
  8
_0-a_極細3
  6
CONTINUOUS
 62
    7
 10
252.76978812254532
 20
256.33818310792708
 40
0.5530864197530718
  0
CIRCLE
  8
_0-a_極細3
  6
CONTINUOUS
 62
    7
 10
277.83645478921193
 20
252.60484977459399
 40
0.5530864197530718
  0
CIRCLE
  8
_0-a_極細3
  6
CONTINUOUS
 62
    7
 10
265.21423256698966
 20
246.91596088570509
 40
0.5530864197530718
  0
CIRCLE
  8
_0-a_極細3
  6
CONTINUOUS
 62
    7
 10
250.45867701143465
 20
233.40484977459394
 40
0.5530864197530718
  0
CIRCLE
  8
_0-a_極細3
  6
CONTINUOUS
 62
    7
 10
277.83645478921193
 20
240.69373866348292
 40
0.5530864197530718
  0
CIRCLE
  8
_0-a_極細3
  6
CONTINUOUS
 62
    7
 10
236.72534367810107
 20
213.58262755237206
 40
0.5530864197530718
  0
CIRCLE
  8
_0-a_極細3
  6
CONTINUOUS
 62
    7
 10
231.03645478921223
 20
195.62707199681654
 40
0.5530864197530718
  0
CIRCLE
  8
_0-a_極細3
  6
CONTINUOUS
 62
    7
 10
239.74756590032342
 20
202.38262755237201
 40
0.5530864197530718
  0
CIRCLE
  8
_0-a_極細3
  6
CONTINUOUS
 62
    7
 10
245.96978812254562
 20
193.84929421903877
 40
0.5530864197530718
  0
CIRCLE
  8
_0-a_極細3
  6
CONTINUOUS
 62
    7
 10
285.26978812254532
 20
211.73818310792765
 40
0.5530864197530718
  0
CIRCLE
  8
_0-a_極細3
  6
CONTINUOUS
 62
    7
 10
274.0697881225455
 20
206.22707199681645
 40
0.5530864197530718
  0
CIRCLE
  8
_0-a_極細3
  6
CONTINUOUS
 62
    7
 10
280.29201034476773
 20
203.73818310792763
 40
0.5530864197530718
  0
CIRCLE
  8
_0-a_極細3
  6
CONTINUOUS
 62
    7
 10
276.73645478921202
 20
194.49373866348338
 40
0.5530864197530718
  0
CIRCLE
  8
_0-a_極細3
  6
CONTINUOUS
 62
    7
 10
296.64756590032312
 20
195.56040533014993
 40
0.5530864197530718
  0
CIRCLE
  8
_0-a_極細3
  6
CONTINUOUS
 62
    7
 10
309.62534367810071
 20
198.76040533015001
 40
0.5530864197530718
  0
CIRCLE
  8
_0-a_極細3
  6
CONTINUOUS
 62
    7
 10
323.31423256698963
 20
183.82707199681681
 40
0.5530864197530718
  0
CIRCLE
  8
_0-a_極細3
  6
CONTINUOUS
 62
    7
 10
316.38089923365618
 20
168.89373866348342
 40
0.5530864197530718
  0
CIRCLE
  8
_0-a_極細3
  6
CONTINUOUS
 62
    7
 10
299.71423256698972
 20
212.50855347829796
 40
0.5530864197530718
  0
CIRCLE
  8
_0-a_極細3
  6
CONTINUOUS
 62
    7
 10
314.46978812254514
 20
246.64188681163114
 40
0.5530864197530718
  0
CIRCLE
  8
_0-a_極細3
  6
CONTINUOUS
 62
    7
 10
329.580899233656
 20
236.68633125607562
 40
0.5530864197530718
  0
CIRCLE
  8
_0-a_極細3
  6
CONTINUOUS
 62
    7
 10
330.11423256698936
 20
218.7307757005201
 40
0.5530864197530718
  0
CIRCLE
  8
_0-a_極細3
  6
CONTINUOUS
 62
    7
 10
294.86978812254517
 20
248.46410903385322
 40
0.5530864197530718
  0
CIRCLE
  8
_0-a_極細3
  6
CONTINUOUS
 62
    7
 10
274.58089923365651
 20
270.4480596511371
 40
1.825531472681392
  0
CIRCLE
  8
_0-a_極細3
  6
CONTINUOUS
 62
    7
 10
222.81877953222141
 20
277.37767392583487
 40
1.825531472681392
  0
CIRCLE
  8
_0-a_極細3
  6
CONTINUOUS
 62
    7
 10
249.35867701143428
 20
247.64805965113715
 40
1.825531472681392
  0
CIRCLE
  8
_0-a_極細3
  6
CONTINUOUS
 62
    7
 10
229.75867701143443
 20
209.6480596511376
 40
1.825531472681392
  0
CIRCLE
  8
_0-a_極細3
  6
CONTINUOUS
 62
    7
 10
282.95867701143379
 20
196.84805965113787
 40
1.825531472681392
  0
CIRCLE
  8
_0-a_極細3
  6
CONTINUOUS
 62
    7
 10
318.93645478921144
 20
193.24805965113796
 40
1.825531472681392
  0
CIRCLE
  8
_0-a_極細3
  6
CONTINUOUS
 62
    7
 10
323.73645478921111
 20
174.58139298447151
 40
1.825531472681392
  0
CIRCLE
  8
_0-a_極細3
  6
CONTINUOUS
 62
    7
 10
202.62169999114207
 20
278.27028187335918
 40
1.825531472681392
  0
LINE
  8
_0-a_極細3
  6
CONTINUOUS
 62
    7
 10
341.26399310350553
 20
263.23477269126715
 11
342.09732643683901
 21
263.23477269126715
  0
LINE
  8
_0-a_極細3
  6
CONTINUOUS
 62
    7
 10
342.09732643683901
 20
263.23477269126715
 11
342.09732643683901
 21
161.99317239648806
  0
CIRCLE
  8
_0-a_極細3
  6
CONTINUOUS
 62
    7
 10
335.20989228921002
 20
247.24805965113774
 40
1.825531472681392
  0
CIRCLE
  8
_0-a_極細3
  6
CONTINUOUS
 62
    7
 10
334.21793627069286
 20
192.53818310792781
 40
0.5530864197530718
  0
CIRCLE
  8
_0-a_極細3
  6
CONTINUOUS
 62
    7
 10
335.5512696040268
 20
169.882112074758
 40
0.5530864197530718
  0
CIRCLE
  8
_0-a_極細3
  6
CONTINUOUS
 62
    7
 10
323.18089923365187
 20
228.13694854002691
 40
1.825531472681392
  0
LINE
  8
_0-a_極細3
  6
CONTINUOUS
 62
    7
 10
248.45725821635369
 20
213.11647385377071
 11
243.32695606646843
 21
227.21186316555918
  0
LINE
  8
_0-a_極細3
  6
CONTINUOUS
 62
    7
 10
298.45130089014987
 20
247.27548386480547
 11
303.58160304003502
 21
233.18009455301694
  0
LINE
  8
_0-a_極細3
  6
CONTINUOUS
 62
    7
 10
243.32695606646843
 20
227.21186316555918
 11
298.45130089014987
 21
247.27548386480547
  0
LINE
  8
_0-a_極細3
  6
CONTINUOUS
 62
    7
 10
248.45725821635369
 20
213.11647385377071
 11
303.58160304003502
 21
233.18009455301694
  0
LINE
  8
_0-a_極細3
  6
CENTER1
 62
    7
 10
240.9366737494183
 20
218.360538469635
 11
304.9676942319843
 21
241.66592395467049
  0
LINE
  8
_0-a_極細3
  6
CONTINUOUS
 62
    7
 10
267.0973264368389
 20
188.23477269126712
 11
267.0973264368389
 21
232.32033403958326
  0
LINE
  8
_0-a_極細3
  6
CONTINUOUS
 62
    7
 10
267.0973264368389
 20
232.32033403958326
 11
252.09732643683893
 21
232.32033403958326
  0
LINE
  8
_0-a_極細3
  6
CONTINUOUS
 62
    7
 10
252.09732643683893
 20
232.32033403958326
 11
252.09732643683893
 21
188.23477269126712
  0
CIRCLE
  8
_0-a_極細3
  6
CONTINUOUS
 62
    7
 10
281.47719552995289
 20
218.15670162644597
 40
1.825531472681392
  0
CIRCLE
  8
_0-a_極細3
  6
CONTINUOUS
 62
    7
 10
303.18583750526159
 20
224.37892384866839
 40
1.825531472681392
  0
LINE
  8
_0-a_極細3
  6
CENTER1
 62
    7
 10
259.5973264368389
 20
179.95803240681425
 11
259.5973264368389
 21
236.59605420419282
  0
LINE
  8
_0-d_寸法3
  6
CONTINUOUS
 62
    7
 10
282.0973264368389
 20
293.23477269126721
 11
236.14729535824921
 21
293.23477269126715
  0
LINE
  8
_0-d_寸法3
  6
CONTINUOUS
 62
    7
 10
241.14729535824921
 20
293.23477269126715
 11
243.73548580927434
 21
283.57551442837644
  0
LINE
  8
_0-d_寸法3
  6
CONTINUOUS
 62
    7
 10
241.14729535824921
 20
293.23477269126715
 11
238.55910490722394
 21
283.57551442837649
  0
LINE
  8
_0-d_寸法3
  6
CONTINUOUS
 62
    7
 10
280.09732643683896
 20
263.23477269126721
 11
236.14729535824964
 21
263.23477269126715
  0
LINE
  8
_0-d_寸法3
  6
CONTINUOUS
 62
    7
 10
241.14729535824964
 20
263.23477269126715
 11
238.55910490722442
 21
272.89403095415781
  0
LINE
  8
_0-d_寸法3
  6
CONTINUOUS
 62
    7
 10
241.14729535824964
 20
263.23477269126715
 11
243.73548580927491
 21
272.89403095415787
  0
LINE
  8
_0-d_寸法3
  6
CONTINUOUS
 62
    7
 10
241.14729535824921
 20
293.23477269126715
 11
241.14729535824964
 21
263.23477269126715
  0
TEXT
  8
_0-d_寸法3
 62
    7
 10
241.14729535824964
 20
270.73477269126715
 40
15
 41
1
 50
90
  1
18
  0
LINE
  8
_0-d_寸法3
  6
CONTINUOUS
 62
    7
 10
282.0973264368389
 20
263.23477269126698
 11
236.14729535824964
 21
263.23477269126693
  0
LINE
  8
_0-d_寸法3
  6
CONTINUOUS
 62
    7
 10
241.14729535824964
 20
263.23477269126693
 11
243.73548580927485
 21
253.57551442837627
  0
LINE
  8
_0-d_寸法3
  6
CONTINUOUS
 62
    7
 10
241.14729535824964
 20
263.23477269126693
 11
238.55910490722442
 21
253.57551442837629
  0
LINE
  8
_0-d_寸法3
  6
CONTINUOUS
 62
    7
 10
280.09732643683896
 20
224.9014393579337
 11
236.14729535824964
 21
224.9014393579337
  0
LINE
  8
_0-d_寸法3
  6
CONTINUOUS
 62
    7
 10
241.14729535824964
 20
224.9014393579337
 11
238.55910490722442
 21
234.56069762082436
  0
LINE
  8
_0-d_寸法3
  6
CONTINUOUS
 62
    7
 10
241.14729535824964
 20
224.9014393579337
 11
243.73548580927491
 21
234.56069762082436
  0
LINE
  8
_0-d_寸法3
  6
CONTINUOUS
 62
    7
 10
241.14729535824964
 20
263.23477269126693
 11
241.14729535824964
 21
224.9014393579337
  0
TEXT
  8
_0-d_寸法3
 62
    7
 10
241.14729535824964
 20
236.56810602460041
 40
15
 41
1
 50
90
  1
23
  0
LINE
  8
_0-d_寸法3
  6
CONTINUOUS
 62
    7
 10
292.0973264368389
 20
214.9014393579339
 11
292.0973264368389
 21
197.7567474570285
  0
LINE
  8
_0-d_寸法3
  6
CONTINUOUS
 62
    7
 10
292.0973264368389
 20
202.7567474570285
 11
301.75658469972961
 21
205.34493790805371
  0
LINE
  8
_0-d_寸法3
  6
CONTINUOUS
 62
    7
 10
292.0973264368389
 20
202.7567474570285
 11
301.75658469972961
 21
200.16855700600331
  0
LINE
  8
_0-d_寸法3
  6
CONTINUOUS
 62
    7
 10
342.09732643683878
 20
253.23477269126715
 11
342.09732643683799
 21
197.7567474570285
  0
LINE
  8
_0-d_寸法3
  6
CONTINUOUS
 62
    7
 10
342.0973264368381
 20
202.7567474570285
 11
332.43806817394733
 21
200.16855700600331
  0
LINE
  8
_0-d_寸法3
  6
CONTINUOUS
 62
    7
 10
342.0973264368381
 20
202.7567474570285
 11
332.43806817394739
 21
205.34493790805374
  0
LINE
  8
_0-d_寸法3
  6
CONTINUOUS
 62
    7
 10
292.0973264368389
 20
202.7567474570285
 11
342.0973264368381
 21
202.7567474570285
  0
TEXT
  8
_0-d_寸法3
 62
    7
 10
309.5973264368385
 20
202.7567474570285
 40
15
 41
1
 50
0
  1
30
  0
ARC
  8
_0-b_細線3
  6
CONTINUOUS
 62
    7
 10
297.0973264368389
 20
268.23477269126715
 40
5
 50
179.99999999999983
 51
269.99999999999977
  0
LINE
  8
_0-b_細線3
  6
CONTINUOUS
 62
    7
 10
292.0973264368389
 20
268.23477269126715
 11
292.0973264368389
 21
292.40143935793367
  0
LINE
  8
_0-b_細線3
  6
CONTINUOUS
 62
    7
 10
297.0973264368389
 20
263.23477269126715
 11
341.26399310350553
 21
263.23477269126715
  0
LINE
  8
_0-b_細線3
  6
CONTINUOUS
 62
    7
 10
342.09732643683901
 20
264.06810602460041
 11
341.26399310350553
 21
263.23477269126715
  0
LINE
  8
_0-b_細線3
  6
CONTINUOUS
 62
    7
 10
342.09732643683901
 20
267.4014393579339
 11
342.09732643683901
 21
264.06810602460041
  0
LINE
  8
_0-b_細線3
  6
CONTINUOUS
 62
    7
 10
341.26399310350553
 20
268.23477269126715
 11
342.09732643683901
 21
267.4014393579339
  0
LINE
  8
_0-b_細線3
  6
CONTINUOUS
 62
    7
 10
297.0973264368389
 20
268.23477269126715
 11
341.26399310350553
 21
268.23477269126715
  0
LINE
  8
_0-b_細線3
  6
CONTINUOUS
 62
    7
 10
292.93065977017199
 20
293.23477269126715
 11
292.0973264368389
 21
292.40143935793367
  0
LINE
  8
_0-b_細線3
  6
CONTINUOUS
 62
    7
 10
296.26399310350553
 20
293.23477269126715
 11
292.93065977017199
 21
293.23477269126715
  0
LINE
  8
_0-b_細線3
  6
CONTINUOUS
 62
    7
 10
297.0973264368389
 20
292.40143935793367
 11
296.26399310350553
 21
293.23477269126715
  0
LINE
  8
_0-b_細線3
  6
CONTINUOUS
 62
    7
 10
297.0973264368389
 20
268.23477269126715
 11
297.0973264368389
 21
292.40143935793367
  0
CIRCLE
  8
_0-a_極細3
  6
CONTINUOUS
 62
    7
 10
720.75867701143079
 20
278.50022014496381
 40
0.5530864197530718
  0
CIRCLE
  8
_0-a_極細3
  6
CONTINUOUS
 62
    7
 10
668.75867701143079
 20
279.4335534782972
 40
0.5530864197530718
  0
LINE
  8
_0-a_極細3
  6
CONTINUOUS
 62
    7
 10
657.09732643683901
 20
293.23477269126715
 11
657.09732643683901
 21
281.56810602460018
  0
LINE
  8
_0-a_極細3
  6
CONTINUOUS
 62
    7
 10
657.09732643683901
 20
293.23477269126715
 11
746.27507358195317
 21
293.23477269126715
  0
LINE
  8
_0-a_極細3
  6
CONTINUOUS
 62
    7
 10
648.76399310350507
 20
281.56810602460018
 11
746.27507358195317
 21
281.56810602460018
  0
LINE
  8
_0-a_極細3
  6
CONTINUOUS
 62
    7
 10
648.76399310350507
 20
293.23477269126715
 11
657.09732643683901
 21
293.23477269126715
  0
LINE
  8
_0-a_極細3
  6
CONTINUOUS
 62
    7
 10
648.76399310350507
 20
292.40143935793367
 11
648.76399310350507
 21
293.23477269126715
  0
LINE
  8
_0-a_極細3
  6
CONTINUOUS
 62
    7
 10
657.09732643683901
 20
285.23719230532515
 11
653.42824015611359
 21
281.56810602460018
  0
LINE
  8
_0-a_極細3
  6
CONTINUOUS
 62
    7
 10
657.09732643683901
 20
289.47983299244424
 11
649.1855994689945
 21
281.56810602460018
  0
LINE
  8
_0-a_極細3
  6
CONTINUOUS
 62
    7
 10
648.76399310350507
 20
285.38914034623031
 11
656.60962544854237
 21
293.23477269126715
  0
LINE
  8
_0-a_極細3
  6
CONTINUOUS
 62
    7
 10
648.76399310350507
 20
289.63178103334963
 11
652.36698476142237
 21
293.23477269126693
  0
LINE
  8
_0-a_極細3
  6
CONTINUOUS
 62
    7
 10
657.09732643683901
 20
291.72545048176153
 11
655.58800422733339
 21
293.23477269126715
  0
LINE
  8
_0-a_極細3
  6
CONTINUOUS
 62
    7
 10
657.09732643683901
 20
287.48280979464221
 11
651.34536354021429
 21
293.23477269126715
  0
LINE
  8
_0-a_極細3
  6
CONTINUOUS
 62
    7
 10
657.09732643683901
 20
283.24016910752289
 11
648.76399310350507
 21
291.57350244085637
  0
LINE
  8
_0-a_極細3
  6
CONTINUOUS
 62
    7
 10
654.52674883264217
 20
281.56810602460018
 11
648.76399310350507
 21
287.33086175373705
  0
LINE
  8
_0-a_極細3
  6
CONTINUOUS
 62
    7
 10
650.28410814552319
 20
281.56810602460018
 11
648.76399310350507
 21
283.08822106661773
  0
LINE
  8
_0-a_極細3
  6
CONTINUOUS
 62
    7
 10
725.55313183714179
 20
281.56810602460018
 11
737.21979787701957
 21
293.23477206447797
  0
LINE
  8
_0-a_極細3
  6
CONTINUOUS
 62
    7
 10
704.33992840154542
 20
281.56810602460041
 11
716.00659460737143
 21
293.23477223042664
  0
LINE
  8
_0-a_極細3
  6
CONTINUOUS
 62
    7
 10
683.12672496594917
 20
281.56810602460018
 11
694.79339133772328
 21
293.23477239637486
  0
LINE
  8
_0-a_極細3
  6
CONTINUOUS
 62
    7
 10
661.91352153035268
 20
281.56810602460018
 11
673.58018806807604
 21
293.23477256232354
  0
LINE
  8
_0-a_極細3
  6
DASHED2
 62
    7
 10
736.15973355494009
 20
281.56810602460041
 11
746.27507358195317
 21
291.68344605161383
  0
LINE
  8
_0-a_極細3
  6
DASHED2
 62
    7
 10
714.94653011934361
 20
281.56810602460018
 11
726.61319624219561
 21
293.23477214745208
  0
LINE
  8
_0-a_極細3
  6
DASHED2
 62
    7
 10
693.73332668374724
 20
281.56810602460018
 11
705.39999297254735
 21
293.23477231340075
  0
LINE
  8
_0-a_極細3
  6
DASHED2
 62
    7
 10
672.52012324815087
 20
281.56810602460018
 11
684.1867897028992
 21
293.2347724793492
  0
LINE
  8
_0-a_極細3
  6
DASHED2
 62
    7
 10
657.09732643683901
 20
287.3585126488847
 11
662.97358643325197
 21
293.23477264529765
  0
LINE
  8
_0-a_極細3
  6
CONTINUOUS
 62
    7
 10
715.43065977017204
 20
256.56810602460041
 11
715.43065977017204
 21
188.23477269126712
  0
LINE
  8
_0-a_極細3
  6
CONTINUOUS
 62
    7
 10
632.09732643683901
 20
188.23477269126712
 11
715.43065977017204
 21
188.23477269126712
  0
LINE
  8
_0-a_極細3
  6
CONTINUOUS
 62
    7
 10
715.43065977017204
 20
256.56810602460041
 11
746.27507358195317
 21
256.56810602460041
  0
LINE
  8
_0-a_極細3
  6
CONTINUOUS
 62
    7
 10
632.09732643683901
 20
188.23477269126712
 11
632.09732643683901
 21
161.99317239648806
  0
LINE
  8
_0-a_極細3
  6
CONTINUOUS
 62
    7
 10
723.72066218476493
 20
161.99317239648806
 11
746.27507362349434
 21
184.54758383521698
  0
LINE
  8
_0-a_極細3
  6
CONTINUOUS
 62
    7
 10
653.00998406611018
 20
161.99317239648806
 11
679.25158436088952
 21
188.23477269126712
  0
LINE
  8
_0-a_極細3
  6
CONTINUOUS
 62
    7
 10
715.43065977017204
 20
224.41384810054981
 11
746.27507358270907
 21
255.2582619130867
  0
LINE
  8
_0-a_極細3
  6
CONTINUOUS
 62
    7
 10
716.64959437289917
 20
161.99317239648806
 11
746.27507361941525
 21
191.61865164300409
  0
LINE
  8
_0-a_極細3
  6
CONTINUOUS
 62
    7
 10
645.9389162542443
 20
161.99317239648806
 11
672.18051654902365
 21
188.23477269126712
  0
LINE
  8
_0-a_極細3
  6
CONTINUOUS
 62
    7
 10
715.43065977017204
 20
231.48491591241535
 11
740.51384970280697
 21
256.56810584505001
  0
LINE
  8
_0-a_極細3
  6
CONTINUOUS
 62
    7
 10
709.57852656103444
 20
161.99317239648806
 11
746.27507361533719
 21
198.68971945079102
  0
LINE
  8
_0-a_極細3
  6
CONTINUOUS
 62
    7
 10
638.86784844237945
 20
161.99317239648806
 11
665.1094487371588
 21
188.23477269126712
  0
LINE
  8
_0-a_極細3
  6
CONTINUOUS
 62
    7
 10
715.43065977017204
 20
238.55598372428088
 11
733.44278194155731
 21
256.56810589566612
  0
CIRCLE
  8
_0-a_極細3
  6
CONTINUOUS
 62
    7
 10
618.50312145587623
 20
247.08910903385322
 40
0.5530864197530718
  0
CIRCLE
  8
_0-a_極細3
  6
CONTINUOUS
 62
    7
 10
628.45867701143152
 20
251.8891090338532
 40
0.5530864197530718
  0
CIRCLE
  8
_0-a_極細3
  6
CONTINUOUS
 62
    7
 10
624.36978812254301
 20
226.91133125607578
 40
0.5530864197530718
  0
CIRCLE
  8
_0-a_極細3
  6
CONTINUOUS
 62
    7
 10
641.90312145587586
 20
209.88910903385363
 40
0.5530864197530718
  0
CIRCLE
  8
_0-a_極細3
  6
CONTINUOUS
 62
    7
 10
624.06978812254283
 20
186.5891090338539
 40
0.5530864197530718
  0
CIRCLE
  8
_0-a_極細3
  6
CONTINUOUS
 62
    7
 10
614.7364547892098
 20
168.72244236718734
 40
0.5530864197530718
  0
CIRCLE
  8
_0-a_極細3
  6
CONTINUOUS
 62
    7
 10
626.20312145587604
 20
198.58910903385365
 40
0.5530864197530718
  0
CIRCLE
  8
_0-a_極細3
  6
CONTINUOUS
 62
    7
 10
640.06978812254283
 20
193.78910903385375
 40
0.5530864197530718
  0
CIRCLE
  8
_0-a_極細3
  6
CONTINUOUS
 62
    7
 10
667.00312145587634
 20
194.05577570052037
 40
0.5530864197530718
  0
CIRCLE
  8
_0-a_極細3
  6
CONTINUOUS
 62
    7
 10
655.00312145587623
 20
203.12244236718698
 40
0.5530864197530718
  0
CIRCLE
  8
_0-a_極細3
  6
CONTINUOUS
 62
    7
 10
666.20312145587604
 20
208.72244236718689
 40
0.5530864197530718
  0
CIRCLE
  8
_0-a_極細3
  6
CONTINUOUS
 62
    7
 10
654.22534367809806
 20
263.01133125607521
 40
0.5530864197530718
  0
CIRCLE
  8
_0-a_極細3
  6
CONTINUOUS
 62
    7
 10
674.7586770114309
 20
262.30022014496421
 40
0.5530864197530718
  0
CIRCLE
  8
_0-a_極細3
  6
CONTINUOUS
 62
    7
 10
663.15867701143134
 20
248.30022014496421
 40
0.5530864197530718
  0
CIRCLE
  8
_0-a_極細3
  6
CONTINUOUS
 62
    7
 10
702.35867701143115
 20
195.10022014496485
 40
0.5530864197530718
  0
CIRCLE
  8
_0-a_極細3
  6
CONTINUOUS
 62
    7
 10
709.55867701143109
 20
209.10022014496488
 40
0.5530864197530718
  0
CIRCLE
  8
_0-a_極細3
  6
CONTINUOUS
 62
    7
 10
707.95867701143061
 20
229.90022014496461
 40
0.5530864197530718
  0
CIRCLE
  8
_0-a_極細3
  6
CONTINUOUS
 62
    7
 10
689.95867701143072
 20
251.1002201449644
 40
0.5530864197530718
  0
CIRCLE
  8
_0-a_極細3
  6
CONTINUOUS
 62
    7
 10
706.75867701143079
 20
270.70022014496408
 40
0.5530864197530718
  0
CIRCLE
  8
_0-a_極細3
  6
CONTINUOUS
 62
    7
 10
703.95867701143061
 20
243.90022014496438
 40
0.5530864197530718
  0
CIRCLE
  8
_0-a_極細3
  6
CONTINUOUS
 62
    7
 10
733.55867701143006
 20
265.10022014496417
 40
0.5530864197530718
  0
CIRCLE
  8
_0-a_極細3
  6
CONTINUOUS
 62
    7
 10
728.75867701142988
 20
278.87028187335909
 40
1.825531472681392
  0
CIRCLE
  8
_0-a_極細3
  6
CONTINUOUS
 62
    7
 10
713.11423256698572
 20
263.40361520669262
 40
1.825531472681392
  0
CIRCLE
  8
_0-a_極細3
  6
CONTINUOUS
 62
    7
 10
657.69201034476418
 20
269.9813929844704
 40
1.825531472681392
  0
CIRCLE
  8
_0-a_極細3
  6
CONTINUOUS
 62
    7
 10
689.6920103447643
 20
237.98139298447066
 40
1.825531472681392
  0
CIRCLE
  8
_0-a_極細3
  6
CONTINUOUS
 62
    7
 10
619.29756590032093
 20
193.43139298447113
 40
1.825531472681392
  0
CIRCLE
  8
_0-a_極細3
  6
CONTINUOUS
 62
    7
 10
629.51978812254265
 20
223.29805965113769
 40
1.825531472681392
  0
CIRCLE
  8
_0-a_極細3
  6
CONTINUOUS
 62
    7
 10
664.71978812254247
 20
200.89805965113783
 40
1.825531472681392
  0
CIRCLE
  8
_0-a_極細3
  6
CONTINUOUS
 62
    7
 10
710.98498075782618
 20
190.71100725916835
 40
1.825531472681392
  0
CIRCLE
  8
_0-a_極細3
  6
CONTINUOUS
 62
    7
 10
660.31978812254192
 20
244.09805965113745
 40
1.825531472681392
  0
CIRCLE
  8
_0-a_極細3
  6
CONTINUOUS
 62
    7
 10
612.85373873982689
 20
238.67485424410097
 40
0.5530864197530718
  0
CIRCLE
  8
_0-a_極細3
  6
CONTINUOUS
 62
    7
 10
613.05373873982762
 20
214.71929868854571
 40
0.5530864197530718
  0
CIRCLE
  8
_0-a_極細3
  6
CONTINUOUS
 62
    7
 10
690.09201034476393
 20
275.4480596511371
 40
1.825531472681392
  0
LINE
  8
_0-a_極細3
  6
CONTINUOUS
 62
    7
 10
599.5973264368381
 20
263.23477269126715
 11
598.76399310350507
 21
263.23477269126715
  0
LINE
  8
_0-a_極細3
  6
CONTINUOUS
 62
    7
 10
598.76399310350507
 20
263.23477269126715
 11
598.76399310350507
 21
161.99317239648806
  0
CIRCLE
  8
_0-a_極細3
  6
CONTINUOUS
 62
    7
 10
604.74838894558843
 20
223.17799792274243
 40
0.5530864197530718
  0
CIRCLE
  8
_0-a_極細3
  6
CONTINUOUS
 62
    7
 10
606.05497330772823
 20
183.92244236718716
 40
0.5530864197530718
  0
CIRCLE
  8
_0-a_極細3
  6
CONTINUOUS
 62
    7
 10
605.41608441883864
 20
249.87583742891573
 40
1.825531472681392
  0
CIRCLE
  8
_0-a_極細3
  6
CONTINUOUS
 62
    7
 10
608.36423256698663
 20
177.25361520669324
 40
1.825531472681392
  0
LINE
  8
_0-a_極細3
  6
CONTINUOUS
 62
    7
 10
692.40406132399085
 20
213.11647385377071
 11
697.53436347387606
 21
227.21186316555918
  0
LINE
  8
_0-a_極細3
  6
CONTINUOUS
 62
    7
 10
642.41001865019416
 20
247.27548386480547
 11
637.27971650030986
 21
233.18009455301694
  0
LINE
  8
_0-a_極細3
  6
CONTINUOUS
 62
    7
 10
697.53436347387606
 20
227.21186316555918
 11
642.41001865019416
 21
247.27548386480547
  0
LINE
  8
_0-a_極細3
  6
CONTINUOUS
 62
    7
 10
692.40406132399085
 20
213.11647385377071
 11
637.27971650030986
 21
233.18009455301694
  0
LINE
  8
_0-a_極細3
  6
CENTER1
 62
    7
 10
699.92464579092621
 20
218.360538469635
 11
635.8936253083607
 21
241.66592395467049
  0
LINE
  8
_0-a_極細3
  6
CONTINUOUS
 62
    7
 10
673.76399310350507
 20
188.23477269126712
 11
673.76399310350507
 21
232.32033403958326
  0
LINE
  8
_0-a_極細3
  6
CONTINUOUS
 62
    7
 10
673.76399310350507
 20
232.32033403958326
 11
688.76399310350507
 21
232.32033403958326
  0
LINE
  8
_0-a_極細3
  6
CONTINUOUS
 62
    7
 10
688.76399310350507
 20
232.32033403958326
 11
688.76399310350507
 21
188.23477269126712
  0
LINE
  8
_0-a_極細3
  6
CENTER1
 62
    7
 10
681.26399310350507
 20
179.95803240681425
 11
681.26399310350507
 21
236.59605420419282
  0
CIRCLE
  8
_0-a_極細3
  6
CONTINUOUS
 62
    7
 10
675.38089923365408
 20
245.3965164412607
 40
0.5530864197530718
  0
CIRCLE
  8
_0-a_極細3
  6
CONTINUOUS
 62
    7
 10
697.59708579058088
 20
232.05330656471779
 40
0.5530864197530718
  0
LINE
  8
_0-d_寸法3
  6
CONTINUOUS
 62
    7
 10
648.7639931035061
 20
214.9014393579339
 11
648.7639931035061
 21
197.7567474570285
  0
LINE
  8
_0-d_寸法3
  6
CONTINUOUS
 62
    7
 10
648.7639931035061
 20
202.7567474570285
 11
639.10473484061527
 21
200.16855700600331
  0
LINE
  8
_0-d_寸法3
  6
CONTINUOUS
 62
    7
 10
648.7639931035061
 20
202.7567474570285
 11
639.10473484061527
 21
205.34493790805371
  0
LINE
  8
_0-d_寸法3
  6
CONTINUOUS
 62
    7
 10
598.76399310350598
 20
253.23477269126715
 11
598.76399310350598
 21
197.7567474570285
  0
LINE
  8
_0-d_寸法3
  6
CONTINUOUS
 62
    7
 10
598.76399310350598
 20
202.7567474570285
 11
608.4232513663967
 21
205.34493790805374
  0
LINE
  8
_0-d_寸法3
  6
CONTINUOUS
 62
    7
 10
598.76399310350598
 20
202.7567474570285
 11
608.4232513663967
 21
200.16855700600331
  0
LINE
  8
_0-d_寸法3
  6
CONTINUOUS
 62
    7
 10
648.7639931035061
 20
202.7567474570285
 11
598.76399310350598
 21
202.7567474570285
  0
TEXT
  8
_0-d_寸法3
 62
    7
 10
616.26399310350598
 20
202.75674745702844
 40
15
 41
1
 50
0.0000000000005428
  1
30
  0
ARC
  8
_0-b_細線3
  6
CONTINUOUS
 62
    7
 10
643.76399310350507
 20
268.23477269126715
 40
5
 50
269.99999999999977
 51
359.99999999999966
  0
LINE
  8
_0-b_細線3
  6
CONTINUOUS
 62
    7
 10
648.76399310350507
 20
268.23477269126715
 11
648.76399310350507
 21
292.40143935793367
  0
LINE
  8
_0-b_細線3
  6
CONTINUOUS
 62
    7
 10
643.76399310350507
 20
263.23477269126715
 11
599.5973264368381
 21
263.23477269126715
  0
LINE
  8
_0-b_細線3
  6
CONTINUOUS
 62
    7
 10
598.76399310350507
 20
264.06810602460041
 11
599.5973264368381
 21
263.23477269126715
  0
LINE
  8
_0-b_細線3
  6
CONTINUOUS
 62
    7
 10
598.76399310350507
 20
267.4014393579339
 11
598.76399310350507
 21
264.06810602460041
  0
LINE
  8
_0-b_細線3
  6
CONTINUOUS
 62
    7
 10
599.5973264368381
 20
268.23477269126715
 11
598.76399310350507
 21
267.4014393579339
  0
LINE
  8
_0-b_細線3
  6
CONTINUOUS
 62
    7
 10
643.76399310350507
 20
268.23477269126715
 11
599.5973264368381
 21
268.23477269126715
  0
LINE
  8
_0-b_細線3
  6
CONTINUOUS
 62
    7
 10
647.93065977017204
 20
293.23477269126715
 11
648.76399310350507
 21
292.40143935793367
  0
LINE
  8
_0-b_細線3
  6
CONTINUOUS
 62
    7
 10
644.59732643683901
 20
293.23477269126715
 11
647.93065977017204
 21
293.23477269126715
  0
LINE
  8
_0-b_細線3
  6
CONTINUOUS
 62
    7
 10
643.76399310350507
 20
292.40143935793367
 11
644.59732643683901
 21
293.23477269126715
  0
LINE
  8
_0-b_細線3
  6
CONTINUOUS
 62
    7
 10
643.76399310350507
 20
268.23477269126715
 11
643.76399310350507
 21
292.40143935793367
  0
LINE
  8
_0-d_寸法3
  6
CONTINUOUS
 62
    7
 10
292.0973264368389
 20
298.23477269126715
 11
292.0973264368389
 21
408.23477102292236
  0
LINE
  8
_0-d_寸法3
  6
CONTINUOUS
 62
    7
 10
292.0973264368389
 20
403.23477102292236
 11
301.75658469972961
 21
405.82296147394754
  0
LINE
  8
_0-d_寸法3
  6
CONTINUOUS
 62
    7
 10
292.0973264368389
 20
403.23477102292236
 11
301.75658469972961
 21
400.64658057189718
  0
LINE
  8
_0-d_寸法3
  6
CONTINUOUS
 62
    7
 10
648.76399310350507
 20
298.23477269126715
 11
648.7639931035061
 21
408.23477102292236
  0
LINE
  8
_0-d_寸法3
  6
CONTINUOUS
 62
    7
 10
648.7639931035061
 20
403.23477102292236
 11
639.10473484061527
 21
400.64658057189718
  0
LINE
  8
_0-d_寸法3
  6
CONTINUOUS
 62
    7
 10
648.7639931035061
 20
403.23477102292236
 11
639.10473484061527
 21
405.82296147394766
  0
LINE
  8
_0-d_寸法3
  6
CONTINUOUS
 62
    7
 10
292.0973264368389
 20
403.23477102292236
 11
648.7639931035061
 21
403.23477102292236
  0
TEXT
  8
_0-d_寸法3
 62
    7
 10
459.18065977017199
 20
403.23477102292236
 40
15
 41
1
 50
0
  1
214
  0
LINE
  8
_0-d_寸法3
  6
CONTINUOUS
 62
    7
 10
342.09732643683901
 20
258.23477269126715
 11
342.09732643683901
 21
197.7567474570285
  0
LINE
  8
_0-d_寸法3
  6
CONTINUOUS
 62
    7
 10
342.09732643683901
 20
202.7567474570285
 11
351.75658469972967
 21
205.34493790805371
  0
LINE
  8
_0-d_寸法3
  6
CONTINUOUS
 62
    7
 10
342.09732643683901
 20
202.7567474570285
 11
351.75658469972967
 21
200.16855700600331
  0
LINE
  8
_0-d_寸法3
  6
CONTINUOUS
 62
    7
 10
598.76399310350507
 20
258.23477269126715
 11
598.76399310350507
 21
197.7567474570285
  0
LINE
  8
_0-d_寸法3
  6
CONTINUOUS
 62
    7
 10
598.76399310350507
 20
202.7567474570285
 11
589.10473484061436
 21
200.16855700600331
  0
LINE
  8
_0-d_寸法3
  6
CONTINUOUS
 62
    7
 10
598.76399310350507
 20
202.7567474570285
 11
589.10473484061436
 21
205.34493790805374
  0
LINE
  8
_0-d_寸法3
  6
CONTINUOUS
 62
    7
 10
342.09732643683901
 20
202.7567474570285
 11
598.76399310350507
 21
202.7567474570285
  0
TEXT
  8
_0-d_寸法3
 62
    7
 10
459.18065977017199
 20
202.7567474570285
 40
15
 41
1
 50
0
  1
154
  0
LINE
  8
_0-a_極細3
  6
CENTER1
 62
    7
 10
651.43074817132731
 20
279.9014393579339
 11
290.44333399229845
 21
279.9014393579339
  0
ARC
  8
_0-b_細線3
  6
CONTINUOUS
 62
    7
 10
505.43065977017199
 20
370.76391364829601
 40
97.696522151886498
 50
263.73185704547706
 51
276.26814295452255
  0
ARC
  8
_0-b_細線3
  6
CONTINUOUS
 62
    7
 10
505.43065977017199
 20
189.03896506757135
 40
97.696522151886498
 50
83.731857045476829
 51
96.268142954522617
  0
ARC
  8
_0-b_細線3
  6
CONTINUOUS
 62
    7
 10
482.09732643683901
 20
370.76391364829601
 40
97.696522151886498
 50
263.73185704547677
 51
276.2681429545222
  0
ARC
  8
_0-b_細線3
  6
CONTINUOUS
 62
    7
 10
482.09732643683901
 20
189.03896506757135
 40
97.696522151886498
 50
83.731857045477398
 51
96.268142954522872
  0
LINE
  8
_0-b_細線3
  6
CONTINUOUS
 62
    7
 10
477.09732643683901
 20
291.23477269126693
 11
477.09732643683901
 21
293.23477269126693
  0
LINE
  8
_0-b_細線3
  6
CONTINUOUS
 62
    7
 10
471.43065977017295
 20
291.23477269126693
 11
477.09732643683901
 21
291.23477269126693
  0
LINE
  8
_0-b_細線3
  6
CONTINUOUS
 62
    7
 10
471.43065977017295
 20
268.23477269126693
 11
471.43065977017295
 21
291.23477269126693
  0
LINE
  8
_0-b_細線3
  6
CONTINUOUS
 62
    7
 10
469.4306597701725
 20
268.23477269126693
 11
471.43065977017295
 21
268.23477269126693
  0
LINE
  8
_0-b_細線3
  6
CONTINUOUS
 62
    7
 10
469.4306597701725
 20
291.23477269126693
 11
469.4306597701725
 21
268.23477269126693
  0
LINE
  8
_0-b_細線3
  6
CONTINUOUS
 62
    7
 10
463.76399310350553
 20
291.23477269126693
 11
469.4306597701725
 21
291.23477269126693
  0
LINE
  8
_0-b_細線3
  6
CONTINUOUS
 62
    7
 10
463.76399310350553
 20
293.23477269126693
 11
463.76399310350553
 21
291.23477269126693
  0
LINE
  8
_0-b_細線3
  6
CONTINUOUS
 62
    7
 10
477.09732643683901
 20
293.23477269126693
 11
463.76399310350553
 21
293.23477269126693
  0
LINE
  8
_0-b_細線3
  6
CONTINUOUS
 62
    7
 10
500.43065977017295
 20
291.23477269126693
 11
500.43065977017295
 21
293.23477269126693
  0
LINE
  8
_0-b_細線3
  6
CONTINUOUS
 62
    7
 10
494.76399310350553
 20
291.23477269126693
 11
500.43065977017295
 21
291.23477269126693
  0
LINE
  8
_0-b_細線3
  6
CONTINUOUS
 62
    7
 10
494.76399310350553
 20
268.23477269126693
 11
494.76399310350553
 21
291.23477269126693
  0
LINE
  8
_0-b_細線3
  6
CONTINUOUS
 62
    7
 10
492.76399310350598
 20
268.23477269126693
 11
494.76399310350553
 21
268.23477269126693
  0
LINE
  8
_0-b_細線3
  6
CONTINUOUS
 62
    7
 10
492.76399310350598
 20
291.23477269126693
 11
492.76399310350598
 21
268.23477269126693
  0
LINE
  8
_0-b_細線3
  6
CONTINUOUS
 62
    7
 10
487.09732643683901
 20
291.23477269126693
 11
492.76399310350598
 21
291.23477269126693
  0
LINE
  8
_0-b_細線3
  6
CONTINUOUS
 62
    7
 10
487.09732643683901
 20
293.23477269126693
 11
487.09732643683901
 21
291.23477269126693
  0
LINE
  8
_0-b_細線3
  6
CONTINUOUS
 62
    7
 10
500.43065977017295
 20
293.23477269126693
 11
487.09732643683901
 21
293.23477269126693
  0
ARC
  8
_0-b_細線3
  6
CONTINUOUS
 62
    7
 10
458.76399310350553
 20
370.76391364829601
 40
97.696522151886498
 50
263.73185704547677
 51
276.26814295452255
  0
ARC
  8
_0-b_細線3
  6
CONTINUOUS
 62
    7
 10
458.76399310350553
 20
189.03896506757135
 40
97.696522151886498
 50
83.731857045477128
 51
96.268142954522872
  0
LINE
  8
_0-b_細線3
  6
CONTINUOUS
 62
    7
 10
453.76399310350553
 20
291.23477269126693
 11
453.76399310350553
 21
293.23477269126693
  0
LINE
  8
_0-b_細線3
  6
CONTINUOUS
 62
    7
 10
448.09732643683901
 20
291.23477269126693
 11
453.76399310350553
 21
291.23477269126693
  0
LINE
  8
_0-b_細線3
  6
CONTINUOUS
 62
    7
 10
448.09732643683901
 20
268.23477269126693
 11
448.09732643683901
 21
291.23477269126693
  0
LINE
  8
_0-b_細線3
  6
CONTINUOUS
 62
    7
 10
446.09732643683901
 20
268.23477269126693
 11
448.09732643683901
 21
268.23477269126693
  0
LINE
  8
_0-b_細線3
  6
CONTINUOUS
 62
    7
 10
446.09732643683901
 20
291.23477269126693
 11
446.09732643683901
 21
268.23477269126693
  0
LINE
  8
_0-b_細線3
  6
CONTINUOUS
 62
    7
 10
440.43065977017199
 20
291.23477269126693
 11
446.09732643683901
 21
291.23477269126693
  0
LINE
  8
_0-b_細線3
  6
CONTINUOUS
 62
    7
 10
440.43065977017199
 20
293.23477269126693
 11
440.43065977017199
 21
291.23477269126693
  0
LINE
  8
_0-b_細線3
  6
CONTINUOUS
 62
    7
 10
453.76399310350553
 20
293.23477269126693
 11
440.43065977017199
 21
293.23477269126693
  0
ARC
  8
_0-b_細線3
  6
CONTINUOUS
 62
    7
 10
435.43065977017199
 20
370.76391364829601
 40
97.696522151886498
 50
263.73185704547706
 51
276.26814295452255
  0
ARC
  8
_0-b_細線3
  6
CONTINUOUS
 62
    7
 10
435.43065977017199
 20
189.03896506757135
 40
97.696522151886498
 50
83.731857045477128
 51
96.268142954522617
  0
ARC
  8
_0-b_細線3
  6
CONTINUOUS
 62
    7
 10
528.76399310350507
 20
370.76391364829601
 40
97.696522151886498
 50
263.73185704547706
 51
276.2681429545222
  0
ARC
  8
_0-b_細線3
  6
CONTINUOUS
 62
    7
 10
528.76399310350507
 20
189.03896506757135
 40
97.696522151886498
 50
83.731857045477128
 51
96.268142954522617
  0
LINE
  8
_0-b_細線3
  6
CONTINUOUS
 62
    7
 10
523.76399310350553
 20
291.23477269126693
 11
523.76399310350553
 21
293.23477269126693
  0
LINE
  8
_0-b_細線3
  6
CONTINUOUS
 62
    7
 10
518.0973264368381
 20
291.23477269126693
 11
523.76399310350553
 21
291.23477269126693
  0
LINE
  8
_0-b_細線3
  6
CONTINUOUS
 62
    7
 10
518.0973264368381
 20
268.23477269126693
 11
518.0973264368381
 21
291.23477269126693
  0
LINE
  8
_0-b_細線3
  6
CONTINUOUS
 62
    7
 10
516.09732643683901
 20
268.23477269126693
 11
518.0973264368381
 21
268.23477269126693
  0
LINE
  8
_0-b_細線3
  6
CONTINUOUS
 62
    7
 10
516.09732643683901
 20
291.23477269126693
 11
516.09732643683901
 21
268.23477269126693
  0
LINE
  8
_0-b_細線3
  6
CONTINUOUS
 62
    7
 10
510.43065977017199
 20
291.23477269126693
 11
516.09732643683901
 21
291.23477269126693
  0
LINE
  8
_0-b_細線3
  6
CONTINUOUS
 62
    7
 10
510.43065977017199
 20
293.23477269126693
 11
510.43065977017199
 21
291.23477269126693
  0
LINE
  8
_0-b_細線3
  6
CONTINUOUS
 62
    7
 10
523.76399310350553
 20
293.23477269126693
 11
510.43065977017199
 21
293.23477269126693
  0
ARC
  8
_0-b_細線3
  6
CONTINUOUS
 62
    7
 10
552.0973264368381
 20
370.76391364829601
 40
97.696522151886498
 50
263.73185704547677
 51
276.2681429545222
  0
ARC
  8
_0-b_細線3
  6
CONTINUOUS
 62
    7
 10
552.0973264368381
 20
189.03896506757135
 40
97.696522151886498
 50
83.731857045477398
 51
96.268142954522872
  0
LINE
  8
_0-b_細線3
  6
CONTINUOUS
 62
    7
 10
547.0973264368381
 20
291.23477269126693
 11
547.0973264368381
 21
293.23477269126693
  0
LINE
  8
_0-b_細線3
  6
CONTINUOUS
 62
    7
 10
541.43065977017113
 20
291.23477269126693
 11
547.0973264368381
 21
291.23477269126693
  0
LINE
  8
_0-b_細線3
  6
CONTINUOUS
 62
    7
 10
541.43065977017113
 20
268.23477269126693
 11
541.43065977017113
 21
291.23477269126693
  0
LINE
  8
_0-b_細線3
  6
CONTINUOUS
 62
    7
 10
539.43065977017159
 20
268.23477269126693
 11
541.43065977017113
 21
268.23477269126693
  0
LINE
  8
_0-b_細線3
  6
CONTINUOUS
 62
    7
 10
539.43065977017159
 20
291.23477269126693
 11
539.43065977017159
 21
268.23477269126693
  0
LINE
  8
_0-b_細線3
  6
CONTINUOUS
 62
    7
 10
533.76399310350507
 20
291.23477269126693
 11
539.43065977017159
 21
291.23477269126693
  0
LINE
  8
_0-b_細線3
  6
CONTINUOUS
 62
    7
 10
533.76399310350507
 20
293.23477269126693
 11
533.76399310350507
 21
291.23477269126693
  0
LINE
  8
_0-b_細線3
  6
CONTINUOUS
 62
    7
 10
547.0973264368381
 20
293.23477269126693
 11
533.76399310350507
 21
293.23477269126693
  0
ARC
  8
_0-b_細線3
  6
CONTINUOUS
 62
    7
 10
575.43065977017068
 20
370.76391364829601
 40
97.696522151886498
 50
263.73185704547677
 51
276.26814295452255
  0
ARC
  8
_0-b_細線3
  6
CONTINUOUS
 62
    7
 10
575.43065977017068
 20
189.03896506757135
 40
97.696522151886498
 50
83.731857045477128
 51
96.268142954522872
  0
LINE
  8
_0-b_細線3
  6
CONTINUOUS
 62
    7
 10
570.43065977017113
 20
291.23477269126693
 11
570.43065977017113
 21
293.23477269126693
  0
LINE
  8
_0-b_細線3
  6
CONTINUOUS
 62
    7
 10
564.76399310350416
 20
291.23477269126693
 11
570.43065977017113
 21
291.23477269126693
  0
LINE
  8
_0-b_細線3
  6
CONTINUOUS
 62
    7
 10
564.76399310350416
 20
268.23477269126693
 11
564.76399310350416
 21
291.23477269126693
  0
LINE
  8
_0-b_細線3
  6
CONTINUOUS
 62
    7
 10
562.76399310350416
 20
268.23477269126693
 11
564.76399310350416
 21
268.23477269126693
  0
LINE
  8
_0-b_細線3
  6
CONTINUOUS
 62
    7
 10
562.76399310350416
 20
291.23477269126693
 11
562.76399310350416
 21
268.23477269126693
  0
LINE
  8
_0-b_細線3
  6
CONTINUOUS
 62
    7
 10
557.09732643683765
 20
291.23477269126693
 11
562.76399310350416
 21
291.23477269126693
  0
LINE
  8
_0-b_細線3
  6
CONTINUOUS
 62
    7
 10
557.09732643683765
 20
293.23477269126693
 11
557.09732643683765
 21
291.23477269126693
  0
LINE
  8
_0-b_細線3
  6
CONTINUOUS
 62
    7
 10
570.43065977017113
 20
293.23477269126693
 11
557.09732643683765
 21
293.23477269126693
  0
LINE
  8
_0-b_細線3
  6
CONTINUOUS
 62
    7
 10
593.76399310350416
 20
291.23477269126693
 11
593.76399310350416
 21
293.23477269126693
  0
LINE
  8
_0-b_細線3
  6
CONTINUOUS
 62
    7
 10
588.09732643683674
 20
291.23477269126693
 11
593.76399310350416
 21
291.23477269126693
  0
LINE
  8
_0-b_細線3
  6
CONTINUOUS
 62
    7
 10
588.09732643683674
 20
268.23477269126693
 11
588.09732643683674
 21
291.23477269126693
  0
LINE
  8
_0-b_細線3
  6
CONTINUOUS
 62
    7
 10
586.09732643683719
 20
268.23477269126693
 11
588.09732643683674
 21
268.23477269126693
  0
LINE
  8
_0-b_細線3
  6
CONTINUOUS
 62
    7
 10
586.09732643683719
 20
291.23477269126693
 11
586.09732643683719
 21
268.23477269126693
  0
LINE
  8
_0-b_細線3
  6
CONTINUOUS
 62
    7
 10
580.43065977017022
 20
291.23477269126693
 11
586.09732643683719
 21
291.23477269126693
  0
LINE
  8
_0-b_細線3
  6
CONTINUOUS
 62
    7
 10
580.43065977017022
 20
293.23477269126693
 11
580.43065977017022
 21
291.23477269126693
  0
LINE
  8
_0-b_細線3
  6
CONTINUOUS
 62
    7
 10
593.76399310350416
 20
293.23477269126693
 11
580.43065977017022
 21
293.23477269126693
  0
LINE
  8
_0-b_細線3
  6
CONTINUOUS
 62
    7
 10
430.43065977017199
 20
291.23477269126693
 11
430.43065977017199
 21
293.23477269126693
  0
LINE
  8
_0-b_細線3
  6
CONTINUOUS
 62
    7
 10
424.76399310350592
 20
291.23477269126693
 11
430.43065977017199
 21
291.23477269126693
  0
LINE
  8
_0-b_細線3
  6
CONTINUOUS
 62
    7
 10
424.76399310350592
 20
268.23477269126693
 11
424.76399310350592
 21
291.23477269126693
  0
LINE
  8
_0-b_細線3
  6
CONTINUOUS
 62
    7
 10
422.76399310350598
 20
268.23477269126693
 11
424.76399310350592
 21
268.23477269126693
  0
LINE
  8
_0-b_細線3
  6
CONTINUOUS
 62
    7
 10
422.76399310350598
 20
291.23477269126693
 11
422.76399310350598
 21
268.23477269126693
  0
LINE
  8
_0-b_細線3
  6
CONTINUOUS
 62
    7
 10
417.09732643683901
 20
291.23477269126693
 11
422.76399310350598
 21
291.23477269126693
  0
LINE
  8
_0-b_細線3
  6
CONTINUOUS
 62
    7
 10
417.09732643683901
 20
293.23477269126693
 11
417.09732643683901
 21
291.23477269126693
  0
LINE
  8
_0-b_細線3
  6
CONTINUOUS
 62
    7
 10
430.43065977017199
 20
293.23477269126693
 11
417.09732643683901
 21
293.23477269126693
  0
ARC
  8
_0-b_細線3
  6
CONTINUOUS
 62
    7
 10
412.09732643683901
 20
370.76391364829601
 40
97.696522151886498
 50
263.73185704547677
 51
276.2681429545222
  0
ARC
  8
_0-b_細線3
  6
CONTINUOUS
 62
    7
 10
412.09732643683901
 20
189.03896506757135
 40
97.696522151886498
 50
83.731857045477398
 51
96.268142954522872
  0
LINE
  8
_0-b_細線3
  6
CONTINUOUS
 62
    7
 10
407.09732643683901
 20
291.23477269126693
 11
407.09732643683901
 21
293.23477269126693
  0
LINE
  8
_0-b_細線3
  6
CONTINUOUS
 62
    7
 10
401.43065977017244
 20
291.23477269126693
 11
407.09732643683901
 21
291.23477269126693
  0
LINE
  8
_0-b_細線3
  6
CONTINUOUS
 62
    7
 10
401.43065977017244
 20
268.23477269126693
 11
401.43065977017244
 21
291.23477269126693
  0
LINE
  8
_0-b_細線3
  6
CONTINUOUS
 62
    7
 10
399.4306597701725
 20
268.23477269126693
 11
401.43065977017244
 21
268.23477269126693
  0
LINE
  8
_0-b_細線3
  6
CONTINUOUS
 62
    7
 10
399.4306597701725
 20
291.23477269126693
 11
399.4306597701725
 21
268.23477269126693
  0
LINE
  8
_0-b_細線3
  6
CONTINUOUS
 62
    7
 10
393.76399310350553
 20
291.23477269126693
 11
399.4306597701725
 21
291.23477269126693
  0
LINE
  8
_0-b_細線3
  6
CONTINUOUS
 62
    7
 10
393.76399310350553
 20
293.23477269126693
 11
393.76399310350553
 21
291.23477269126693
  0
LINE
  8
_0-b_細線3
  6
CONTINUOUS
 62
    7
 10
407.09732643683901
 20
293.23477269126693
 11
393.76399310350553
 21
293.23477269126693
  0
ARC
  8
_0-b_細線3
  6
CONTINUOUS
 62
    7
 10
388.76399310350553
 20
370.76391364829601
 40
97.696522151886498
 50
263.73185704547677
 51
276.26814295452255
  0
ARC
  8
_0-b_細線3
  6
CONTINUOUS
 62
    7
 10
388.76399310350553
 20
189.03896506757135
 40
97.696522151886498
 50
83.731857045477128
 51
96.268142954522872
  0
LINE
  8
_0-b_細線3
  6
CONTINUOUS
 62
    7
 10
383.76399310350553
 20
291.23477269126693
 11
383.76399310350553
 21
293.23477269126693
  0
LINE
  8
_0-b_細線3
  6
CONTINUOUS
 62
    7
 10
378.09732643683896
 20
291.23477269126693
 11
383.76399310350553
 21
291.23477269126693
  0
LINE
  8
_0-b_細線3
  6
CONTINUOUS
 62
    7
 10
378.09732643683896
 20
268.23477269126693
 11
378.09732643683896
 21
291.23477269126693
  0
LINE
  8
_0-b_細線3
  6
CONTINUOUS
 62
    7
 10
376.09732643683901
 20
268.23477269126693
 11
378.09732643683896
 21
268.23477269126693
  0
LINE
  8
_0-b_細線3
  6
CONTINUOUS
 62
    7
 10
376.09732643683901
 20
291.23477269126693
 11
376.09732643683901
 21
268.23477269126693
  0
LINE
  8
_0-b_細線3
  6
CONTINUOUS
 62
    7
 10
370.43065977017199
 20
291.23477269126693
 11
376.09732643683901
 21
291.23477269126693
  0
LINE
  8
_0-b_細線3
  6
CONTINUOUS
 62
    7
 10
370.43065977017199
 20
293.23477269126693
 11
370.43065977017199
 21
291.23477269126693
  0
LINE
  8
_0-b_細線3
  6
CONTINUOUS
 62
    7
 10
383.76399310350553
 20
293.23477269126693
 11
370.43065977017199
 21
293.23477269126693
  0
ARC
  8
_0-b_細線3
  6
CONTINUOUS
 62
    7
 10
365.43065977017199
 20
370.76391364829601
 40
97.696522151886498
 50
263.73185704547677
 51
276.26814295452255
  0
ARC
  8
_0-b_細線3
  6
CONTINUOUS
 62
    7
 10
365.43065977017199
 20
189.03896506757135
 40
97.696522151886498
 50
83.731857045477128
 51
96.268142954522872
  0
LINE
  8
_0-b_細線3
  6
CONTINUOUS
 62
    7
 10
360.43065977017199
 20
291.23477269126693
 11
360.43065977017199
 21
293.23477269126693
  0
LINE
  8
_0-b_細線3
  6
CONTINUOUS
 62
    7
 10
354.76399310350592
 20
291.23477269126693
 11
360.43065977017199
 21
291.23477269126693
  0
LINE
  8
_0-b_細線3
  6
CONTINUOUS
 62
    7
 10
354.76399310350592
 20
268.23477269126693
 11
354.76399310350592
 21
291.23477269126693
  0
LINE
  8
_0-b_細線3
  6
CONTINUOUS
 62
    7
 10
352.76399310350592
 20
268.23477269126693
 11
354.76399310350592
 21
268.23477269126693
  0
LINE
  8
_0-b_細線3
  6
CONTINUOUS
 62
    7
 10
352.76399310350592
 20
291.23477269126693
 11
352.76399310350592
 21
268.23477269126693
  0
LINE
  8
_0-b_細線3
  6
CONTINUOUS
 62
    7
 10
347.09732643683901
 20
291.23477269126693
 11
352.76399310350592
 21
291.23477269126693
  0
LINE
  8
_0-b_細線3
  6
CONTINUOUS
 62
    7
 10
347.09732643683901
 20
293.23477269126693
 11
347.09732643683901
 21
291.23477269126693
  0
LINE
  8
_0-b_細線3
  6
CONTINUOUS
 62
    7
 10
360.43065977017199
 20
293.23477269126693
 11
347.09732643683901
 21
293.23477269126693
  0
LINE
  8
_0-d_寸法3
  6
CONTINUOUS
 62
    7
 10
493.76399310350592
 20
303.23477269126693
 11
493.76399310350592
 21
344.90143935793435
  0
LINE
  8
_0-d_寸法3
  6
CONTINUOUS
 62
    7
 10
493.76399310350592
 20
339.90143935793435
 11
503.42325136639658
 21
342.48962980895953
  0
LINE
  8
_0-d_寸法3
  6
CONTINUOUS
 62
    7
 10
493.76399310350592
 20
339.90143935793435
 11
503.42325136639658
 21
337.31324890690922
  0
LINE
  8
_0-d_寸法3
  6
CONTINUOUS
 62
    7
 10
517.09732643683901
 20
303.23477269126693
 11
517.09732643683901
 21
344.90143935793435
  0
LINE
  8
_0-d_寸法3
  6
CONTINUOUS
 62
    7
 10
517.09732643683901
 20
339.90143935793435
 11
507.43806817394835
 21
337.31324890690922
  0
LINE
  8
_0-d_寸法3
  6
CONTINUOUS
 62
    7
 10
517.09732643683901
 20
339.90143935793435
 11
507.43806817394841
 21
342.48962980895959
  0
LINE
  8
_0-d_寸法3
  6
CONTINUOUS
 62
    7
 10
493.76399310350592
 20
339.90143935793435
 11
517.09732643683901
 21
339.90143935793435
  0
TEXT
  8
_0-d_寸法3
 62
    7
 10
497.93065977017295
 20
339.90143935793435
 40
15
 41
1
 50
0
  1
14
  0
LINE
  8
_0-d_寸法3
  6
CONTINUOUS
 62
    7
 10
517.09732643683901
 20
339.90143935793435
 11
526.75658469972973
 21
342.48962980895948
  0
LINE
  8
_0-d_寸法3
  6
CONTINUOUS
 62
    7
 10
517.09732643683901
 20
339.90143935793435
 11
526.75658469972973
 21
337.31324890690917
  0
LINE
  8
_0-d_寸法3
  6
CONTINUOUS
 62
    7
 10
540.43065977017261
 20
303.23477269126693
 11
540.43065977017295
 21
344.90143935793435
  0
LINE
  8
_0-d_寸法3
  6
CONTINUOUS
 62
    7
 10
540.43065977017295
 20
339.90143935793435
 11
530.77140150728223
 21
337.31324890690922
  0
LINE
  8
_0-d_寸法3
  6
CONTINUOUS
 62
    7
 10
540.43065977017295
 20
339.90143935793435
 11
530.77140150728223
 21
342.48962980895959
  0
LINE
  8
_0-d_寸法3
  6
CONTINUOUS
 62
    7
 10
517.09732643683901
 20
339.90143935793435
 11
540.43065977017295
 21
339.90143935793435
  0
TEXT
  8
_0-d_寸法3
 62
    7
 10
521.26399310350598
 20
339.90143935793435
 40
15
 41
1
 50
0
  1
14
  0
LINE
  8
_0-d_寸法3
  6
CONTINUOUS
 62
    7
 10
393.76399310350553
 20
303.23477269126693
 11
393.76399310350553
 21
344.90143935793435
  0
LINE
  8
_0-d_寸法3
  6
CONTINUOUS
 62
    7
 10
393.76399310350553
 20
339.90143935793435
 11
384.10473484061475
 21
337.31324890690922
  0
LINE
  8
_0-d_寸法3
  6
CONTINUOUS
 62
    7
 10
393.76399310350553
 20
339.90143935793435
 11
384.10473484061481
 21
342.48962980895959
  0
LINE
  8
_0-d_寸法3
  6
CONTINUOUS
 62
    7
 10
407.09732643683901
 20
303.23477269126693
 11
407.09732643683901
 21
344.90143935793435
  0
CIRCLE
  8
_0-d_寸法3
  6
CONTINUOUS
 62
    1
 10
407.09732643683901
 20
339.90143935793435
 40
1.5000000000000002
  0
LINE
  8
_0-d_寸法3
  6
CONTINUOUS
 62
    7
 10
368.76399310350553
 20
339.90143935793435
 11
407.09732643683901
 21
339.90143935793435
  0
TEXT
  8
_0-d_寸法3
 62
    7
 10
376.33997713812909
 20
339.90143935793435
 40
15
 41
1
 50
0
  1
8
  0
LINE
  8
_0-d_寸法3
  6
CONTINUOUS
 62
    7
 10
417.09732643683901
 20
303.23477269126693
 11
417.09732643683901
 21
344.90143935793435
  0
LINE
  8
_0-d_寸法3
  6
CONTINUOUS
 62
    7
 10
417.09732643683901
 20
339.90143935793435
 11
426.75658469972973
 21
342.48962980895948
  0
LINE
  8
_0-d_寸法3
  6
CONTINUOUS
 62
    7
 10
417.09732643683901
 20
339.90143935793435
 11
426.75658469972967
 21
337.31324890690917
  0
LINE
  8
_0-d_寸法3
  6
CONTINUOUS
 62
    7
 10
407.09732643683901
 20
339.90143935793435
 11
442.09732643683901
 21
339.90143935793435
  0
TEXT
  8
_0-d_寸法3
 62
    7
 10
423.38919524512448
 20
339.90143935793435
 40
15
 41
1
 50
0
  1
6
  0
ARC
  8
_0-b_細線3
  6
CONTINUOUS
 62
    7
 10
342.09732643683901
 20
370.76391364829601
 40
97.696522151886498
 50
263.73185704547654
 51
276.2681429545222
  0
ARC
  8
_0-b_細線3
  6
CONTINUOUS
 62
    7
 10
342.09732643683901
 20
189.03896506757135
 40
97.696522151886498
 50
83.731857045477398
 51
96.268142954523142
  0
LINE
  8
_0-b_細線3
  6
CONTINUOUS
 62
    7
 10
337.09732643683901
 20
291.23477269126693
 11
337.09732643683901
 21
293.23477269126693
  0
LINE
  8
_0-b_細線3
  6
CONTINUOUS
 62
    7
 10
331.43065977017244
 20
291.23477269126693
 11
337.09732643683901
 21
291.23477269126693
  0
LINE
  8
_0-b_細線3
  6
CONTINUOUS
 62
    7
 10
331.43065977017244
 20
268.23477269126693
 11
331.43065977017244
 21
291.23477269126693
  0
LINE
  8
_0-b_細線3
  6
CONTINUOUS
 62
    7
 10
329.4306597701725
 20
268.23477269126693
 11
331.43065977017244
 21
268.23477269126693
  0
LINE
  8
_0-b_細線3
  6
CONTINUOUS
 62
    7
 10
329.4306597701725
 20
291.23477269126693
 11
329.4306597701725
 21
268.23477269126693
  0
LINE
  8
_0-b_細線3
  6
CONTINUOUS
 62
    7
 10
323.76399310350553
 20
291.23477269126693
 11
329.4306597701725
 21
291.23477269126693
  0
LINE
  8
_0-b_細線3
  6
CONTINUOUS
 62
    7
 10
323.76399310350553
 20
293.23477269126693
 11
323.76399310350553
 21
291.23477269126693
  0
LINE
  8
_0-b_細線3
  6
CONTINUOUS
 62
    7
 10
337.09732643683901
 20
293.23477269126693
 11
323.76399310350553
 21
293.23477269126693
  0
ARC
  8
_0-b_細線3
  6
CONTINUOUS
 62
    7
 10
318.76399310350553
 20
370.76391364829601
 40
97.696522151886498
 50
263.73185704547677
 51
276.2681429545222
  0
ARC
  8
_0-b_細線3
  6
CONTINUOUS
 62
    7
 10
318.76399310350553
 20
189.03896506757135
 40
97.696522151886498
 50
83.731857045477398
 51
96.268142954522872
  0
LINE
  8
_0-b_細線3
  6
CONTINUOUS
 62
    7
 10
313.76399310350553
 20
291.23477269126693
 11
313.76399310350553
 21
293.23477269126693
  0
LINE
  8
_0-b_細線3
  6
CONTINUOUS
 62
    7
 10
308.09732643683901
 20
291.23477269126693
 11
313.76399310350553
 21
291.23477269126693
  0
LINE
  8
_0-b_細線3
  6
CONTINUOUS
 62
    7
 10
308.09732643683901
 20
268.23477269126693
 11
308.09732643683901
 21
291.23477269126693
  0
LINE
  8
_0-b_細線3
  6
CONTINUOUS
 62
    7
 10
306.09732643683901
 20
268.23477269126693
 11
308.09732643683901
 21
268.23477269126693
  0
LINE
  8
_0-b_細線3
  6
CONTINUOUS
 62
    7
 10
306.09732643683901
 20
291.23477269126693
 11
306.09732643683901
 21
268.23477269126693
  0
LINE
  8
_0-b_細線3
  6
CONTINUOUS
 62
    7
 10
300.43065977017199
 20
291.23477269126693
 11
306.09732643683901
 21
291.23477269126693
  0
LINE
  8
_0-b_細線3
  6
CONTINUOUS
 62
    7
 10
300.43065977017199
 20
293.23477269126693
 11
300.43065977017199
 21
291.23477269126693
  0
LINE
  8
_0-b_細線3
  6
CONTINUOUS
 62
    7
 10
313.76399310350553
 20
293.23477269126693
 11
300.43065977017199
 21
293.23477269126693
  0
ARC
  8
_0-b_細線3
  6
CONTINUOUS
 62
    7
 10
598.76399310350325
 20
370.76391364829601
 40
97.696522151886498
 50
263.73185704547706
 51
276.26814295452255
  0
ARC
  8
_0-b_細線3
  6
CONTINUOUS
 62
    7
 10
598.76399310350325
 20
189.03896506757135
 40
97.696522151886498
 50
83.731857045476872
 51
96.268142954522617
  0
LINE
  8
_0-b_細線3
  6
CONTINUOUS
 62
    7
 10
617.09732643683674
 20
291.23477269126693
 11
617.09732643683674
 21
293.23477269126693
  0
LINE
  8
_0-b_細線3
  6
CONTINUOUS
 62
    7
 10
611.43065977016931
 20
291.23477269126693
 11
617.09732643683674
 21
291.23477269126693
  0
LINE
  8
_0-b_細線3
  6
CONTINUOUS
 62
    7
 10
611.43065977016931
 20
268.23477269126693
 11
611.43065977016931
 21
291.23477269126693
  0
LINE
  8
_0-b_細線3
  6
CONTINUOUS
 62
    7
 10
609.43065977017022
 20
268.23477269126693
 11
611.43065977016931
 21
268.23477269126693
  0
LINE
  8
_0-b_細線3
  6
CONTINUOUS
 62
    7
 10
609.43065977017022
 20
291.23477269126693
 11
609.43065977017022
 21
268.23477269126693
  0
LINE
  8
_0-b_細線3
  6
CONTINUOUS
 62
    7
 10
603.76399310350325
 20
291.23477269126693
 11
609.43065977017022
 21
291.23477269126693
  0
LINE
  8
_0-b_細線3
  6
CONTINUOUS
 62
    7
 10
603.76399310350325
 20
293.23477269126693
 11
603.76399310350325
 21
291.23477269126693
  0
LINE
  8
_0-b_細線3
  6
CONTINUOUS
 62
    7
 10
617.09732643683674
 20
293.23477269126693
 11
603.76399310350325
 21
293.23477269126693
  0
ARC
  8
_0-b_細線3
  6
CONTINUOUS
 62
    7
 10
622.09732643683628
 20
370.76391364829601
 40
97.696522151886498
 50
263.73185704547706
 51
276.2681429545222
  0
ARC
  8
_0-b_細線3
  6
CONTINUOUS
 62
    7
 10
622.09732643683628
 20
189.03896506757135
 40
97.696522151886498
 50
83.731857045477128
 51
96.268142954522617
  0
LINE
  8
_0-b_細線3
  6
CONTINUOUS
 62
    7
 10
640.43065977016931
 20
291.23477269126693
 11
640.43065977016931
 21
293.23477269126693
  0
LINE
  8
_0-b_細線3
  6
CONTINUOUS
 62
    7
 10
634.76399310350234
 20
291.23477269126693
 11
640.43065977016931
 21
291.23477269126693
  0
LINE
  8
_0-b_細線3
  6
CONTINUOUS
 62
    7
 10
634.76399310350234
 20
268.23477269126693
 11
634.76399310350234
 21
291.23477269126693
  0
LINE
  8
_0-b_細線3
  6
CONTINUOUS
 62
    7
 10
632.7639931035028
 20
268.23477269126693
 11
634.76399310350234
 21
268.23477269126693
  0
LINE
  8
_0-b_細線3
  6
CONTINUOUS
 62
    7
 10
632.7639931035028
 20
291.23477269126693
 11
632.7639931035028
 21
268.23477269126693
  0
LINE
  8
_0-b_細線3
  6
CONTINUOUS
 62
    7
 10
627.09732643683628
 20
291.23477269126693
 11
632.7639931035028
 21
291.23477269126693
  0
LINE
  8
_0-b_細線3
  6
CONTINUOUS
 62
    7
 10
627.09732643683628
 20
293.23477269126693
 11
627.09732643683628
 21
291.23477269126693
  0
LINE
  8
_0-b_細線3
  6
CONTINUOUS
 62
    7
 10
640.43065977016931
 20
293.23477269126693
 11
627.09732643683628
 21
293.23477269126693
  0
LINE
  8
_0-7_枠細線
  6
CONTINUOUS
 62
    5
 10
1139.4018171150183
 20
373.42884000293418
 11
1139.4018171150183
 21
453.42884000293418
  0
LINE
  8
_0-7_枠細線
  6
CONTINUOUS
 62
    5
 10
1229.4018171150183
 20
373.42884000293418
 11
1229.4018171150183
 21
453.42884000293418
  0
TEXT
  8
_0-7_枠細線
 62
    5
 10
1251.9018171150183
 20
430.92884000293418
 40
15
 41
1
 50
0
  1
蓋重量
  0
LINE
  8
_0-7_枠細線
  6
CONTINUOUS
 62
    5
 10
1319.4018171150183
 20
373.42884000293418
 11
1319.4018171150183
 21
453.42884000293418
  0
TEXT
  8
_0-7_枠細線
 62
    5
 10
1341.9018171150183
 20
430.92884000293418
 40
15
 41
1
 50
0
  1
枠重量
  0
LINE
  8
_0-7_枠細線
  6
CONTINUOUS
 62
    5
 10
1139.4018171150183
 20
423.42884000293418
 11
1409.4018171150183
 21
423.42884000293418
  0
LINE
  8
_0-7_枠細線
  6
CONTINUOUS
 62
    5
 10
1139.4018171150183
 20
453.42884000293418
 11
1409.4018171150183
 21
453.42884000293418
  0
LINE
  8
_0-7_枠細線
  6
CONTINUOUS
 62
    5
 10
1139.4018171150183
 20
373.42884000293418
 11
1409.4018171150183
 21
373.42884000293418
  0
LINE
  8
_0-7_枠細線
  6
CONTINUOUS
 62
    5
 10
1409.4018171150183
 20
373.42884000293418
 11
1409.4018171150183
 21
453.42884000293418
  0
TEXT
  8
_0-7_枠細線
 62
    5
 10
1154.4018171150183
 20
430.92884000293418
 40
15
 41
1
 50
0
  1
適用荷重
  0
TEXT
  8
_0-7_枠細線
 62
    5
 10
1161.9018171150183
 20
400.92884000293418
 40
15
 41
1
 50
0
  1
歩道用
  0
TEXT
  8
_0-7_枠細線
 62
    5
 10
1139.4018171150183
 20
380.92884000293418
 40
15
 41
1
 50
0
  1
（5.0kN/㎡）
  0
TEXT
  8
_0-7_枠細線
 62
    5
 10
1334.4018171150183
 20
392.17884000293418
 40
15
 41
0.8000000000000001
 50
0
  1
2.2kg/ｍ組
  0
TEXT
  8
_0-7_枠細線
 62
    5
 10
1250.4018171150187
 20
392.17884000293418
 40
15
 41
0.8000000000000001
 50
0
  1
1.7kg/枚
  0
LINE
  8
_0-1_計細線
  6
CONTINUOUS
 62
    3
 10
978.43374992354882
 20
704.68176632391737
 11
978.43374992354882
 21
698.68176632392124
  0
LINE
  8
_0-1_計細線
  6
CONTINUOUS
 62
    3
 10
978.43374992354882
 20
691.68176632391737
 11
978.43374992354882
 21
685.68176632392112
  0
LINE
  8
_0-1_計細線
  6
CONTINUOUS
 62
    3
 10
978.43374992354882
 20
678.68176632391726
 11
978.43374992354882
 21
672.68176632392112
  0
LINE
  8
_0-1_計細線
  6
CONTINUOUS
 62
    3
 10
978.43374992354882
 20
665.68176632391726
 11
978.43374992354882
 21
659.68176632392112
  0
LINE
  8
_0-1_計細線
  6
CONTINUOUS
 62
    3
 10
978.43374992354882
 20
652.68176632391726
 11
978.43374992354882
 21
646.68176632392124
  0
LINE
  8
_0-1_計細線
  6
CONTINUOUS
 62
    3
 10
978.43374992354882
 20
639.68176632391737
 11
978.43374992354882
 21
633.68176632392112
  0
LINE
  8
_0-0_計極細
  6
CENTER2
 62
    2
 10
282.4927671136706
 20
656.18176632391726
 11
1167.3135078544115
 21
656.18176632391726
  0
LINE
  8
_0-1_計細線
  6
CONTINUOUS
 62
    3
 10
471.43374992354927
 20
704.68176632391737
 11
471.43374992354927
 21
698.68176632392124
  0
LINE
  8
_0-1_計細線
  6
CONTINUOUS
 62
    3
 10
471.43374992354927
 20
691.68176632391737
 11
471.43374992354927
 21
685.68176632392112
  0
LINE
  8
_0-1_計細線
  6
CONTINUOUS
 62
    3
 10
471.43374992354927
 20
678.68176632391726
 11
471.43374992354927
 21
672.68176632392112
  0
LINE
  8
_0-1_計細線
  6
CONTINUOUS
 62
    3
 10
471.43374992354927
 20
665.68176632391726
 11
471.43374992354927
 21
659.68176632392112
  0
LINE
  8
_0-1_計細線
  6
CONTINUOUS
 62
    3
 10
471.43374992354927
 20
652.68176632391726
 11
471.43374992354927
 21
646.68176632392124
  0
LINE
  8
_0-1_計細線
  6
CONTINUOUS
 62
    3
 10
471.43374992354927
 20
639.68176632391737
 11
471.43374992354927
 21
633.68176632392112
  0
LINE
  8
_0-1_計細線
  6
CONTINUOUS
 62
    3
 10
1164.9337499235485
 20
763.18176632391715
 11
284.93374992354927
 21
763.18176632391715
  0
ARC
  8
_0-1_計細線
  6
CONTINUOUS
 62
    3
 10
1151.8712499235671
 20
755.68176632391885
 40
15.062499999984542
 50
330.13716564368326
 51
29.862834356304496
  0
ARC
  8
_0-1_計細線
  6
CONTINUOUS
 62
    3
 10
1177.9962499235671
 20
740.68176632391885
 40
15.062500000017272
 50
150.1371656437658
 51
209.86283435624543
  0
LINE
  8
_0-1_計細線
  6
CONTINUOUS
 62
    3
 10
286.24584230907465
 20
760.18176632391703
 11
1166.2458423090748
 21
760.18176632391703
  0
LINE
  8
_0-5_寸法線
  6
CONTINUOUS
 62
    7
 10
475.43374992354927
 20
773.18176632391567
 11
475.43374992354927
 21
853.18176632391715
  0
LINE
  8
_0-5_寸法線
  6
CONTINUOUS
 62
    7
 10
475.43374992354927
 20
848.18176632391715
 11
485.09300818643993
 21
850.76995677494222
  0
LINE
  8
_0-5_寸法線
  6
CONTINUOUS
 62
    7
 10
475.43374992354927
 20
848.18176632391715
 11
485.09300818643993
 21
845.59357587289185
  0
LINE
  8
_0-5_寸法線
  6
CONTINUOUS
 62
    7
 10
974.43374992354893
 20
773.18176632391567
 11
974.43374992354939
 21
853.18176632391715
  0
LINE
  8
_0-5_寸法線
  6
CONTINUOUS
 62
    7
 10
974.43374992354939
 20
848.18176632391715
 11
964.77449166065867
 21
845.59357587289185
  0
LINE
  8
_0-5_寸法線
  6
CONTINUOUS
 62
    7
 10
974.43374992354939
 20
848.18176632391715
 11
964.77449166065867
 21
850.76995677494222
  0
LINE
  8
_0-5_寸法線
  6
CONTINUOUS
 62
    7
 10
475.43374992354927
 20
848.18176632391715
 11
974.43374992354939
 21
848.18176632391715
  0
TEXT
  8
_0-5_寸法線
 62
    7
 10
713.68374992354927
 20
848.18176632391715
 40
15
 41
1
 50
0
  1
499
  0
LINE
  8
_0-5_寸法線
  6
CONTINUOUS
 62
    7
 10
475.43374992354882
 20
773.18176632391715
 11
475.43374992354882
 21
818.18176632391715
  0
LINE
  8
_0-5_寸法線
  6
CONTINUOUS
 62
    7
 10
475.43374992354882
 20
813.18176632391715
 11
485.09300818643953
 21
815.76995677494222
  0
LINE
  8
_0-5_寸法線
  6
CONTINUOUS
 62
    7
 10
475.43374992354882
 20
813.18176632391715
 11
485.09300818643953
 21
810.59357587289185
  0
LINE
  8
_0-5_寸法線
  6
CONTINUOUS
 62
    7
 10
574.93374992354893
 20
773.18176632391715
 11
574.93374992354927
 21
818.18176632391715
  0
LINE
  8
_0-5_寸法線
  6
CONTINUOUS
 62
    7
 10
574.93374992354927
 20
813.18176632391715
 11
565.27449166065855
 21
810.59357587289185
  0
LINE
  8
_0-5_寸法線
  6
CONTINUOUS
 62
    7
 10
574.93374992354927
 20
813.18176632391715
 11
565.27449166065855
 21
815.76995677494222
  0
LINE
  8
_0-5_寸法線
  6
CONTINUOUS
 62
    7
 10
475.43374992354882
 20
813.18176632391715
 11
574.93374992354927
 21
813.18176632391715
  0
TEXT
  8
_0-5_寸法線
 62
    7
 10
510.18374992354887
 20
813.18176632391715
 40
15
 41
1
 50
0
  1
99.5
  0
LINE
  8
_0-5_寸法線
  6
CONTINUOUS
 62
    7
 10
574.93374992354927
 20
813.18176632391715
 11
584.59300818643999
 21
815.76995677494222
  0
LINE
  8
_0-5_寸法線
  6
CONTINUOUS
 62
    7
 10
574.93374992354927
 20
813.18176632391715
 11
584.59300818643999
 21
810.59357587289185
  0
LINE
  8
_0-5_寸法線
  6
CONTINUOUS
 62
    7
 10
674.93374992354904
 20
773.18176632391715
 11
674.93374992354927
 21
818.18176632391715
  0
LINE
  8
_0-5_寸法線
  6
CONTINUOUS
 62
    7
 10
674.93374992354927
 20
813.18176632391715
 11
665.27449166065867
 21
810.59357587289185
  0
LINE
  8
_0-5_寸法線
  6
CONTINUOUS
 62
    7
 10
674.93374992354927
 20
813.18176632391715
 11
665.27449166065867
 21
815.76995677494222
  0
LINE
  8
_0-5_寸法線
  6
CONTINUOUS
 62
    7
 10
574.93374992354927
 20
813.18176632391715
 11
674.93374992354927
 21
813.18176632391715
  0
TEXT
  8
_0-5_寸法線
 62
    7
 10
613.68374992354927
 20
813.18176632391715
 40
15
 41
1
 50
0
  1
100
  0
LINE
  8
_0-5_寸法線
  6
CONTINUOUS
 62
    7
 10
674.93374992354927
 20
813.18176632391715
 11
684.59300818643999
 21
815.76995677494222
  0
LINE
  8
_0-5_寸法線
  6
CONTINUOUS
 62
    7
 10
674.93374992354927
 20
813.18176632391715
 11
684.59300818643999
 21
810.59357587289185
  0
LINE
  8
_0-5_寸法線
  6
CONTINUOUS
 62
    7
 10
774.93374992354893
 20
773.18176632391726
 11
774.93374992354893
 21
818.18176632391715
  0
LINE
  8
_0-5_寸法線
  6
CONTINUOUS
 62
    7
 10
774.93374992354893
 20
813.18176632391715
 11
765.2744916606581
 21
810.59357587289185
  0
LINE
  8
_0-5_寸法線
  6
CONTINUOUS
 62
    7
 10
774.93374992354893
 20
813.18176632391715
 11
765.2744916606581
 21
815.76995677494222
  0
LINE
  8
_0-5_寸法線
  6
CONTINUOUS
 62
    7
 10
674.93374992354927
 20
813.18176632391715
 11
774.93374992354893
 21
813.18176632391715
  0
TEXT
  8
_0-5_寸法線
 62
    7
 10
713.68374992354893
 20
813.18176632391715
 40
15
 41
1
 50
0
  1
100
  0
LINE
  8
_0-5_寸法線
  6
CONTINUOUS
 62
    7
 10
774.93374992354893
 20
813.18176632391715
 11
784.59300818643953
 21
815.76995677494222
  0
LINE
  8
_0-5_寸法線
  6
CONTINUOUS
 62
    7
 10
774.93374992354893
 20
813.18176632391715
 11
784.59300818643953
 21
810.59357587289185
  0
LINE
  8
_0-5_寸法線
  6
CONTINUOUS
 62
    7
 10
874.93374992354893
 20
773.18176632391715
 11
874.93374992354893
 21
818.18176632391715
  0
LINE
  8
_0-5_寸法線
  6
CONTINUOUS
 62
    7
 10
874.93374992354893
 20
813.18176632391715
 11
865.27449166065821
 21
810.59357587289185
  0
LINE
  8
_0-5_寸法線
  6
CONTINUOUS
 62
    7
 10
874.93374992354893
 20
813.18176632391715
 11
865.27449166065821
 21
815.76995677494222
  0
LINE
  8
_0-5_寸法線
  6
CONTINUOUS
 62
    7
 10
774.93374992354893
 20
813.18176632391715
 11
874.93374992354893
 21
813.18176632391715
  0
TEXT
  8
_0-5_寸法線
 62
    7
 10
813.68374992354893
 20
813.18176632391715
 40
15
 41
1
 50
0
  1
100
  0
LINE
  8
_0-5_寸法線
  6
CONTINUOUS
 62
    7
 10
874.93374992354893
 20
813.18176632391715
 11
884.59300818643953
 21
815.76995677494222
  0
LINE
  8
_0-5_寸法線
  6
CONTINUOUS
 62
    7
 10
874.93374992354893
 20
813.18176632391715
 11
884.59300818643953
 21
810.59357587289185
  0
LINE
  8
_0-5_寸法線
  6
CONTINUOUS
 62
    7
 10
974.43374992354939
 20
773.18176632391715
 11
974.43374992354939
 21
818.18176632391715
  0
LINE
  8
_0-5_寸法線
  6
CONTINUOUS
 62
    7
 10
974.43374992354939
 20
813.18176632391715
 11
964.77449166065867
 21
810.59357587289185
  0
LINE
  8
_0-5_寸法線
  6
CONTINUOUS
 62
    7
 10
974.43374992354939
 20
813.18176632391715
 11
964.77449166065867
 21
815.76995677494222
  0
LINE
  8
_0-5_寸法線
  6
CONTINUOUS
 62
    7
 10
874.93374992354893
 20
813.18176632391715
 11
974.43374992354939
 21
813.18176632391715
  0
TEXT
  8
_0-5_寸法線
 62
    7
 10
909.68374992354939
 20
813.18176632391715
 40
15
 41
1
 50
0
  1
99.5
  0
LINE
  8
_0-1_計細線
  6
CONTINUOUS
 62
    3
 10
978.43374992354882
 20
758.18176632391317
 11
978.43374992354882
 21
752.18176632391703
  0
LINE
  8
_0-1_計細線
  6
CONTINUOUS
 62
    3
 10
978.43374992354882
 20
745.18176632391703
 11
978.43374992354882
 21
739.18176632392124
  0
LINE
  8
_0-1_計細線
  6
CONTINUOUS
 62
    3
 10
978.43374992354882
 20
732.18176632391703
 11
978.43374992354882
 21
726.18176632392124
  0
LINE
  8
_0-1_計細線
  6
CONTINUOUS
 62
    3
 10
978.43374992354882
 20
719.18176632391703
 11
978.43374992354882
 21
713.18176632392112
  0
LINE
  8
_0-0_計極細
  6
CONTINUOUS
 62
    2
 10
1124.9337499235489
 20
656.18176632391726
 11
1125.02887835769
 21
656.52188143923331
  0
LINE
  8
_0-0_計極細
  6
CONTINUOUS
 62
    2
 10
1125.02887835769
 20
656.52188143923331
 11
1125.3115822043035
 21
657.53295631532887
  0
LINE
  8
_0-0_計極細
  6
CONTINUOUS
 62
    2
 10
1125.3115822043035
 20
657.53295631532887
 11
1125.7734028367424
 21
659.18747172353937
  0
LINE
  8
_0-0_計極細
  6
CONTINUOUS
 62
    2
 10
1125.7734028367424
 20
659.18747172353937
 11
1126.3990455490882
 21
661.44051433224934
  0
LINE
  8
_0-0_計極細
  6
CONTINUOUS
 62
    2
 10
1126.3990455490882
 20
661.44051433224934
 11
1127.1651750236745
 21
664.2311326103536
  0
LINE
  8
_0-0_計極細
  6
CONTINUOUS
 62
    2
 10
1127.1651750236745
 20
664.2311326103536
 11
1128.0397351555209
 21
667.48410561179696
  0
LINE
  8
_0-0_計極細
  6
CONTINUOUS
 62
    2
 10
1128.0397351555209
 20
667.48410561179696
 11
1128.9824356348443
 21
671.11202608306462
  0
LINE
  8
_0-0_計極細
  6
CONTINUOUS
 62
    2
 10
1128.9824356348443
 20
671.11202608306462
 11
1129.9468189969502
 21
675.01760663784182
  0
LINE
  8
_0-0_計極細
  6
CONTINUOUS
 62
    2
 10
1129.9468189969502
 20
675.01760663784182
 11
1130.8839428075175
 21
679.09613874953538
  0
LINE
  8
_0-0_計極細
  6
CONTINUOUS
 62
    2
 10
1130.8839428075175
 20
679.09613874953538
 11
1131.7472745623884
 21
683.23806184000546
  0
LINE
  8
_0-0_計極細
  6
CONTINUOUS
 62
    2
 10
1131.7472745623884
 20
683.23806184000546
 11
1132.4980132038136
 21
687.33162501372647
  0
LINE
  8
_0-0_計極細
  6
CONTINUOUS
 62
    2
 10
1132.4980132038136
 20
687.33162501372647
 11
1133.1098239527757
 21
691.26563884375764
  0
LINE
  8
_0-0_計極細
  6
CONTINUOUS
 62
    2
 10
1133.1098239527757
 20
691.26563884375764
 11
1133.5719710883152
 21
694.93231361694313
  0
LINE
  8
_0-0_計極細
  6
CONTINUOUS
 62
    2
 10
1133.5719710883152
 20
694.93231361694313
 11
1133.8900725570904
 21
698.2301623170215
  0
LINE
  8
_0-0_計極細
  6
CONTINUOUS
 62
    2
 10
1133.8900725570904
 20
698.2301623170215
 11
1134.0841389798074
 21
701.06691471221211
  0
LINE
  8
_0-0_計極細
  6
CONTINUOUS
 62
    2
 10
1134.0841389798074
 20
701.06691471221211
 11
1134.1841061596292
 21
703.36235050902917
  0
LINE
  8
_0-0_計極細
  6
CONTINUOUS
 62
    2
 10
1134.1841061596292
 20
703.36235050902917
 11
1134.223603879534
 21
705.05092421663744
  0
LINE
  8
_0-0_計極細
  6
CONTINUOUS
 62
    2
 10
1134.223603879534
 20
705.05092421663744
 11
1134.2331026741922
 21
706.08403175821354
  0
LINE
  8
_0-0_計極細
  6
CONTINUOUS
 62
    2
 10
1134.2331026741922
 20
706.08403175821354
 11
1134.2337499235487
 21
706.43176632391533
  0
LINE
  8
_0-0_計極細
  6
CONTINUOUS
 62
    2
 10
1134.2337499235487
 20
706.43176632391533
 11
1134.2331026741922
 21
706.77960528467463
  0
LINE
  8
_0-0_計極細
  6
CONTINUOUS
 62
    2
 10
1134.2331026741922
 20
706.77960528467463
 11
1134.223603879534
 21
707.81424488990513
  0
LINE
  8
_0-0_計極細
  6
CONTINUOUS
 62
    2
 10
1134.223603879534
 20
707.81424488990513
 11
1134.1841061596292
 21
709.50918919749813
  0
LINE
  8
_0-0_計極細
  6
CONTINUOUS
 62
    2
 10
1134.1841061596292
 20
709.50918919749813
 11
1134.0841389798079
 21
711.82074873299598
  0
LINE
  8
_0-0_計極細
  6
CONTINUOUS
 62
    2
 10
1134.0841389798079
 20
711.82074873299598
 11
1133.8900725570904
 21
714.68880216410878
  0
LINE
  8
_0-0_計極細
  6
CONTINUOUS
 62
    2
 10
1133.8900725570904
 20
714.68880216410878
 11
1133.5719710883152
 21
718.03795755269948
  0
LINE
  8
_0-0_計極細
  6
CONTINUOUS
 62
    2
 10
1133.5719710883152
 20
718.03795755269948
 11
1133.1098239527757
 21
721.77917218645621
  0
LINE
  8
_0-0_計極細
  6
CONTINUOUS
 62
    2
 10
1133.1098239527757
 20
721.77917218645621
 11
1132.4980132038136
 21
725.81186516954574
  0
LINE
  8
_0-0_計極細
  6
CONTINUOUS
 62
    2
 10
1132.4980132038136
 20
725.81186516954574
 11
1131.7472745623884
 21
730.02651522091651
  0
LINE
  8
_0-0_計極細
  6
CONTINUOUS
 62
    2
 10
1131.7472745623884
 20
730.02651522091651
 11
1130.8839428075175
 21
734.30768536862399
  0
LINE
  8
_0-0_計極細
  6
CONTINUOUS
 62
    2
 10
1130.8839428075175
 20
734.30768536862399
 11
1129.9468189969502
 21
738.53736648202243
  0
LINE
  8
_0-0_計極細
  6
CONTINUOUS
 62
    2
 10
1129.9468189969502
 20
738.53736648202243
 11
1128.982435634844
 21
742.59849274036571
  0
LINE
  8
_0-0_計極細
  6
CONTINUOUS
 62
    2
 10
1128.982435634844
 20
742.59849274036571
 11
1128.0397351555209
 21
746.3784616760405
  0
LINE
  8
_0-0_計極細
  6
CONTINUOUS
 62
    2
 10
1128.0397351555209
 20
746.3784616760405
 11
1127.1651750236745
 21
749.7724927632662
  0
LINE
  8
_0-0_計極細
  6
CONTINUOUS
 62
    2
 10
1127.1651750236745
 20
749.7724927632662
 11
1126.3990455490882
 21
752.68668031146512
  0
LINE
  8
_0-0_計極細
  6
CONTINUOUS
 62
    2
 10
1126.3990455490882
 20
752.68668031146512
 11
1125.7734028367424
 21
755.04063303506996
  0
LINE
  8
_0-0_計極細
  6
CONTINUOUS
 62
    2
 10
1125.7734028367424
 20
755.04063303506996
 11
1125.3115822043035
 21
756.76963564206108
  0
LINE
  8
_0-0_計極細
  6
CONTINUOUS
 62
    2
 10
1125.3115822043035
 20
756.76963564206108
 11
1125.02887835769
 21
757.82630791277188
  0
LINE
  8
_0-0_計極細
  6
CONTINUOUS
 62
    2
 10
1125.02887835769
 20
757.82630791277188
 11
1124.9337499235489
 21
758.18176632391715
  0
LINE
  8
_0-1_計細線
  6
CONTINUOUS
 62
    3
 10
1164.9337499235485
 20
733.18176632391715
 11
1131.2896022856803
 21
733.18176632391715
  0
ARC
  8
_0-1_計細線
  6
CONTINUOUS
 62
    3
 10
297.99624992353063
 20
755.68176632391885
 40
15.062499999984542
 50
150.13716564369517
 51
209.86283435631691
  0
ARC
  8
_0-1_計細線
  6
CONTINUOUS
 62
    3
 10
271.87124992353063
 20
740.68176632391885
 40
15.062500000017272
 50
330.13716564375471
 51
29.862834356232135
  0
LINE
  8
_0-1_計細線
  6
CONTINUOUS
 62
    3
 10
471.43374992354927
 20
758.18176632391317
 11
471.43374992354927
 21
752.18176632391703
  0
LINE
  8
_0-1_計細線
  6
CONTINUOUS
 62
    3
 10
471.43374992354927
 20
745.18176632391703
 11
471.43374992354927
 21
739.18176632392124
  0
LINE
  8
_0-1_計細線
  6
CONTINUOUS
 62
    3
 10
471.43374992354927
 20
732.18176632391703
 11
471.43374992354927
 21
726.18176632392124
  0
LINE
  8
_0-1_計細線
  6
CONTINUOUS
 62
    3
 10
471.43374992354927
 20
719.18176632391703
 11
471.43374992354927
 21
713.18176632392112
  0
LINE
  8
_0-0_計極細
  6
CONTINUOUS
 62
    2
 10
324.93374992354973
 20
656.18176632391726
 11
324.83862148940864
 21
656.52188143923331
  0
LINE
  8
_0-0_計極細
  6
CONTINUOUS
 62
    2
 10
324.83862148940864
 20
656.52188143923331
 11
324.55591764279512
 21
657.53295631532887
  0
LINE
  8
_0-0_計極細
  6
CONTINUOUS
 62
    2
 10
324.55591764279512
 20
657.53295631532887
 11
324.09409701035611
 21
659.18747172353937
  0
LINE
  8
_0-0_計極細
  6
CONTINUOUS
 62
    2
 10
324.09409701035611
 20
659.18747172353937
 11
323.46845429801044
 21
661.44051433224934
  0
LINE
  8
_0-0_計極細
  6
CONTINUOUS
 62
    2
 10
323.46845429801044
 20
661.44051433224934
 11
322.70232482342431
 21
664.2311326103536
  0
LINE
  8
_0-0_計極細
  6
CONTINUOUS
 62
    2
 10
322.70232482342431
 20
664.2311326103536
 11
321.82776469157761
 21
667.48410561179696
  0
LINE
  8
_0-0_計極細
  6
CONTINUOUS
 62
    2
 10
321.82776469157761
 20
667.48410561179696
 11
320.88506421225429
 21
671.11202608306462
  0
LINE
  8
_0-0_計極細
  6
CONTINUOUS
 62
    2
 10
320.88506421225429
 20
671.11202608306462
 11
319.92068085014819
 21
675.01760663784182
  0
LINE
  8
_0-0_計極細
  6
CONTINUOUS
 62
    2
 10
319.92068085014819
 20
675.01760663784182
 11
318.98355703958077
 21
679.09613874953538
  0
LINE
  8
_0-0_計極細
  6
CONTINUOUS
 62
    2
 10
318.98355703958077
 20
679.09613874953538
 11
318.12022528470993
 21
683.23806184000546
  0
LINE
  8
_0-0_計極細
  6
CONTINUOUS
 62
    2
 10
318.12022528470993
 20
683.23806184000546
 11
317.36948664328463
 21
687.33162501372647
  0
LINE
  8
_0-0_計極細
  6
CONTINUOUS
 62
    2
 10
317.36948664328463
 20
687.33162501372647
 11
316.75767589432257
 21
691.26563884375764
  0
LINE
  8
_0-0_計極細
  6
CONTINUOUS
 62
    2
 10
316.75767589432257
 20
691.26563884375764
 11
316.29552875878318
 21
694.93231361694313
  0
LINE
  8
_0-0_計極細
  6
CONTINUOUS
 62
    2
 10
316.29552875878318
 20
694.93231361694313
 11
315.97742729000754
 21
698.2301623170215
  0
LINE
  8
_0-0_計極細
  6
CONTINUOUS
 62
    2
 10
315.97742729000754
 20
698.2301623170215
 11
315.78336086729064
 21
701.06691471221211
  0
LINE
  8
_0-0_計極細
  6
CONTINUOUS
 62
    2
 10
315.78336086729064
 20
701.06691471221211
 11
315.68339368746911
 21
703.36235050902917
  0
LINE
  8
_0-0_計極細
  6
CONTINUOUS
 62
    2
 10
315.68339368746911
 20
703.36235050902917
 11
315.64389596756416
 21
705.05092421663744
  0
LINE
  8
_0-0_計極細
  6
CONTINUOUS
 62
    2
 10
315.64389596756416
 20
705.05092421663744
 11
315.63439717290612
 21
706.08403175821354
  0
LINE
  8
_0-0_計極細
  6
CONTINUOUS
 62
    2
 10
315.63439717290612
 20
706.08403175821354
 11
315.63374992354954
 21
706.43176632391533
  0
LINE
  8
_0-0_計極細
  6
CONTINUOUS
 62
    2
 10
315.63374992354954
 20
706.43176632391533
 11
315.63439717290612
 21
706.77960528467463
  0
LINE
  8
_0-0_計極細
  6
CONTINUOUS
 62
    2
 10
315.63439717290612
 20
706.77960528467463
 11
315.64389596756416
 21
707.81424488990513
  0
LINE
  8
_0-0_計極細
  6
CONTINUOUS
 62
    2
 10
315.64389596756416
 20
707.81424488990513
 11
315.68339368746922
 21
709.50918919749813
  0
LINE
  8
_0-0_計極細
  6
CONTINUOUS
 62
    2
 10
315.68339368746922
 20
709.50918919749813
 11
315.78336086729064
 21
711.82074873299598
  0
LINE
  8
_0-0_計極細
  6
CONTINUOUS
 62
    2
 10
315.78336086729064
 20
711.82074873299598
 11
315.97742729000754
 21
714.68880216410878
  0
LINE
  8
_0-0_計極細
  6
CONTINUOUS
 62
    2
 10
315.97742729000754
 20
714.68880216410878
 11
316.29552875878301
 21
718.03795755269948
  0
LINE
  8
_0-0_計極細
  6
CONTINUOUS
 62
    2
 10
316.29552875878301
 20
718.03795755269948
 11
316.75767589432257
 21
721.77917218645621
  0
LINE
  8
_0-0_計極細
  6
CONTINUOUS
 62
    2
 10
316.75767589432257
 20
721.77917218645621
 11
317.36948664328463
 21
725.81186516954574
  0
LINE
  8
_0-0_計極細
  6
CONTINUOUS
 62
    2
 10
317.36948664328463
 20
725.81186516954574
 11
318.12022528470993
 21
730.02651522091651
  0
LINE
  8
_0-0_計極細
  6
CONTINUOUS
 62
    2
 10
318.12022528470993
 20
730.02651522091651
 11
318.98355703958077
 21
734.30768536862399
  0
LINE
  8
_0-0_計極細
  6
CONTINUOUS
 62
    2
 10
318.98355703958077
 20
734.30768536862399
 11
319.92068085014819
 21
738.53736648202243
  0
LINE
  8
_0-0_計極細
  6
CONTINUOUS
 62
    2
 10
319.92068085014819
 20
738.53736648202243
 11
320.88506421225424
 21
742.59849274036571
  0
LINE
  8
_0-0_計極細
  6
CONTINUOUS
 62
    2
 10
320.88506421225424
 20
742.59849274036571
 11
321.8277646915775
 21
746.3784616760405
  0
LINE
  8
_0-0_計極細
  6
CONTINUOUS
 62
    2
 10
321.8277646915775
 20
746.3784616760405
 11
322.70232482342431
 21
749.7724927632662
  0
LINE
  8
_0-0_計極細
  6
CONTINUOUS
 62
    2
 10
322.70232482342431
 20
749.7724927632662
 11
323.46845429801033
 21
752.68668031146512
  0
LINE
  8
_0-0_計極細
  6
CONTINUOUS
 62
    2
 10
323.46845429801033
 20
752.68668031146512
 11
324.09409701035611
 21
755.04063303506996
  0
LINE
  8
_0-0_計極細
  6
CONTINUOUS
 62
    2
 10
324.09409701035611
 20
755.04063303506996
 11
324.55591764279512
 21
756.76963564206108
  0
LINE
  8
_0-0_計極細
  6
CONTINUOUS
 62
    2
 10
324.55591764279512
 20
756.76963564206108
 11
324.83862148940864
 21
757.82630791277188
  0
LINE
  8
_0-0_計極細
  6
CONTINUOUS
 62
    2
 10
324.83862148940864
 20
757.82630791277188
 11
324.93374992354973
 21
758.18176632391715
  0
LINE
  8
_0-1_計細線
  6
CONTINUOUS
 62
    3
 10
284.93374992354973
 20
733.18176632391715
 11
318.57789756141841
 21
733.18176632391715
  0
LINE
  8
_0-1_計細線
  6
CONTINUOUS
 62
    3
 10
1163.6216575380231
 20
552.18176632391737
 11
283.6216575380239
 21
552.18176632391737
  0
LINE
  8
_0-1_計細線
  6
CONTINUOUS
 62
    3
 10
1164.9337499235485
 20
549.18176632391726
 11
284.93374992354927
 21
549.18176632391726
  0
ARC
  8
_0-1_計細線
  6
CONTINUOUS
 62
    3
 10
1177.996249923538
 20
556.68176632391908
 40
15.06249999999028
 50
150.13716564371109
 51
209.86283435630014
  0
ARC
  8
_0-1_計細線
  6
CONTINUOUS
 62
    3
 10
1151.8712499235817
 20
571.68176632390771
 40
15.062499999975882
 50
330.13716564369304
 51
29.862834356369127
  0
LINE
  8
_0-5_寸法線
  6
CONTINUOUS
 62
    7
 10
789.91333553286086
 20
595.83756053718764
 11
794.91333553286086
 21
587.17730649934322
  0
LINE
  8
_0-5_寸法線
  6
CONTINUOUS
 62
    7
 10
789.91333553286086
 20
595.83756053718764
 11
789.91333553286086
 21
585.83756053718764
  0
LINE
  8
_0-5_寸法線
  6
CONTINUOUS
 62
    7
 10
789.91333553286086
 20
595.83756053718764
 11
813.27081865291473
 21
508.66624679621293
  0
LINE
  8
_0-5_寸法線
  6
CONTINUOUS
 62
    7
 10
813.27081865291473
 20
508.66624679621293
 11
947.70983086803471
 21
508.66624679621293
  0
TEXT
  8
_0-5_寸法線
 62
    7
 10
815.70983086803471
 20
508.66624679621293
 40
15
 41
0.8000000000000001
 50
0
  1
ステンレスグレーチング
  0
LINE
  8
_0-5_寸法線
  6
CONTINUOUS
 62
    7
 10
582.48907012112102
 20
550.39677801545031
 11
587.48907012112102
 21
541.73652397760577
  0
LINE
  8
_0-5_寸法線
  6
CONTINUOUS
 62
    7
 10
582.48907012112102
 20
550.39677801545031
 11
582.48907012112102
 21
540.39677801545031
  0
LINE
  8
_0-5_寸法線
  6
CONTINUOUS
 62
    7
 10
582.48907012112102
 20
550.39677801545031
 11
593.67073226103719
 21
508.66624679621293
  0
LINE
  8
_0-5_寸法線
  6
CONTINUOUS
 62
    7
 10
593.67073226103719
 20
508.66624679621293
 11
701.7216054724712
 21
508.66624679621293
  0
TEXT
  8
_0-5_寸法線
 62
    7
 10
593.7216054724712
 20
508.66624679621293
 40
15
 41
0.8000000000000001
 50
0
  1
ＳＵＳアングル受枠
  0
LINE
  8
_0-1_計細線
  6
CONTINUOUS
 62
    3
 10
978.43374992354882
 20
625.18176632391726
 11
978.43374992354882
 21
619.18176632392124
  0
LINE
  8
_0-1_計細線
  6
CONTINUOUS
 62
    3
 10
978.43374992354882
 20
612.18176632391737
 11
978.43374992354882
 21
606.18176632392112
  0
LINE
  8
_0-1_計細線
  6
CONTINUOUS
 62
    3
 10
978.43374992354882
 20
599.18176632391726
 11
978.43374992354882
 21
593.18176632392112
  0
LINE
  8
_0-1_計細線
  6
CONTINUOUS
 62
    3
 10
978.43374992354882
 20
586.18176632391726
 11
978.43374992354882
 21
580.18176632392112
  0
LINE
  8
_0-1_計細線
  6
CONTINUOUS
 62
    3
 10
978.43374992354882
 20
573.18176632391726
 11
978.43374992354882
 21
567.18176632392112
  0
LINE
  8
_0-1_計細線
  6
CONTINUOUS
 62
    3
 10
978.43374992354882
 20
560.18176632391726
 11
978.43374992354882
 21
554.18176632392124
  0
LINE
  8
_0-0_計極細
  6
CONTINUOUS
 62
    2
 10
1124.9337499235489
 20
554.18176632391635
 11
1124.8386214894078
 21
554.52188143923229
  0
LINE
  8
_0-0_計極細
  6
CONTINUOUS
 62
    2
 10
1124.8386214894078
 20
554.52188143923229
 11
1124.5559176427944
 21
555.53295631532797
  0
LINE
  8
_0-0_計極細
  6
CONTINUOUS
 62
    2
 10
1124.5559176427944
 20
555.53295631532797
 11
1124.0940970103554
 21
557.18747172353835
  0
LINE
  8
_0-0_計極細
  6
CONTINUOUS
 62
    2
 10
1124.0940970103554
 20
557.18747172353835
 11
1123.4684542980096
 21
559.44051433224831
  0
LINE
  8
_0-0_計極細
  6
CONTINUOUS
 62
    2
 10
1123.4684542980096
 20
559.44051433224831
 11
1122.7023248234236
 21
562.23113261035257
  0
LINE
  8
_0-0_計極細
  6
CONTINUOUS
 62
    2
 10
1122.7023248234236
 20
562.23113261035257
 11
1121.8277646915767
 21
565.48410561179605
  0
LINE
  8
_0-0_計極細
  6
CONTINUOUS
 62
    2
 10
1121.8277646915767
 20
565.48410561179605
 11
1120.8850642122534
 21
569.1120260830636
  0
LINE
  8
_0-0_計極細
  6
CONTINUOUS
 62
    2
 10
1120.8850642122534
 20
569.1120260830636
 11
1119.9206808501476
 21
573.01760663784091
  0
LINE
  8
_0-0_計極細
  6
CONTINUOUS
 62
    2
 10
1119.9206808501476
 20
573.01760663784091
 11
1118.9835570395801
 21
577.09613874953436
  0
LINE
  8
_0-0_計極細
  6
CONTINUOUS
 62
    2
 10
1118.9835570395801
 20
577.09613874953436
 11
1118.120225284709
 21
581.23806184000455
  0
LINE
  8
_0-0_計極細
  6
CONTINUOUS
 62
    2
 10
1118.120225284709
 20
581.23806184000455
 11
1117.3694866432838
 21
585.33162501372556
  0
LINE
  8
_0-0_計極細
  6
CONTINUOUS
 62
    2
 10
1117.3694866432838
 20
585.33162501372556
 11
1116.7576758943219
 21
589.26563884375673
  0
LINE
  8
_0-0_計極細
  6
CONTINUOUS
 62
    2
 10
1116.7576758943219
 20
589.26563884375673
 11
1116.2955287587824
 21
592.93231361694222
  0
LINE
  8
_0-0_計極細
  6
CONTINUOUS
 62
    2
 10
1116.2955287587824
 20
592.93231361694222
 11
1115.9774272900067
 21
596.23016231702059
  0
LINE
  8
_0-0_計極細
  6
CONTINUOUS
 62
    2
 10
1115.9774272900067
 20
596.23016231702059
 11
1115.7833608672897
 21
599.0669147122112
  0
LINE
  8
_0-0_計極細
  6
CONTINUOUS
 62
    2
 10
1115.7833608672897
 20
599.0669147122112
 11
1115.6833936874682
 21
601.36235050902815
  0
LINE
  8
_0-0_計極細
  6
CONTINUOUS
 62
    2
 10
1115.6833936874682
 20
601.36235050902815
 11
1115.6438959675634
 21
603.05092421663642
  0
LINE
  8
_0-0_計極細
  6
CONTINUOUS
 62
    2
 10
1115.6438959675634
 20
603.05092421663642
 11
1115.6343971729052
 21
604.0840317582124
  0
LINE
  8
_0-0_計極細
  6
CONTINUOUS
 62
    2
 10
1115.6343971729052
 20
604.0840317582124
 11
1115.6337499235487
 21
604.4317663239143
  0
LINE
  8
_0-0_計極細
  6
CONTINUOUS
 62
    2
 10
1115.6337499235487
 20
604.4317663239143
 11
1115.6343971729052
 21
604.77960528467383
  0
LINE
  8
_0-0_計極細
  6
CONTINUOUS
 62
    2
 10
1115.6343971729052
 20
604.77960528467383
 11
1115.6438959675634
 21
605.8142448899041
  0
LINE
  8
_0-0_計極細
  6
CONTINUOUS
 62
    2
 10
1115.6438959675634
 20
605.8142448899041
 11
1115.6833936874682
 21
607.50918919749722
  0
LINE
  8
_0-0_計極細
  6
CONTINUOUS
 62
    2
 10
1115.6833936874682
 20
607.50918919749722
 11
1115.7833608672897
 21
609.82074873299507
  0
LINE
  8
_0-0_計極細
  6
CONTINUOUS
 62
    2
 10
1115.7833608672897
 20
609.82074873299507
 11
1115.977427290007
 21
612.68880216410798
  0
LINE
  8
_0-0_計極細
  6
CONTINUOUS
 62
    2
 10
1115.977427290007
 20
612.68880216410798
 11
1116.2955287587824
 21
616.03795755269846
  0
LINE
  8
_0-0_計極細
  6
CONTINUOUS
 62
    2
 10
1116.2955287587824
 20
616.03795755269846
 11
1116.7576758943219
 21
619.77917218645518
  0
LINE
  8
_0-0_計極細
  6
CONTINUOUS
 62
    2
 10
1116.7576758943219
 20
619.77917218645518
 11
1117.3694866432841
 21
623.81186516954494
  0
LINE
  8
_0-0_計極細
  6
CONTINUOUS
 62
    2
 10
1117.3694866432841
 20
623.81186516954494
 11
1118.120225284709
 21
628.0265152209156
  0
LINE
  8
_0-0_計極細
  6
CONTINUOUS
 62
    2
 10
1118.120225284709
 20
628.0265152209156
 11
1118.9835570395801
 21
632.30768536862331
  0
LINE
  8
_0-0_計極細
  6
CONTINUOUS
 62
    2
 10
1118.9835570395801
 20
632.30768536862331
 11
1119.9206808501476
 21
636.53736648202175
  0
LINE
  8
_0-0_計極細
  6
CONTINUOUS
 62
    2
 10
1119.9206808501476
 20
636.53736648202175
 11
1120.8850642122534
 21
640.59849274036492
  0
LINE
  8
_0-0_計極細
  6
CONTINUOUS
 62
    2
 10
1120.8850642122534
 20
640.59849274036492
 11
1121.8277646915767
 21
644.37846167603982
  0
LINE
  8
_0-0_計極細
  6
CONTINUOUS
 62
    2
 10
1121.8277646915767
 20
644.37846167603982
 11
1122.7023248234236
 21
647.7724927632654
  0
LINE
  8
_0-0_計極細
  6
CONTINUOUS
 62
    2
 10
1122.7023248234236
 20
647.7724927632654
 11
1123.4684542980096
 21
650.68668031146444
  0
LINE
  8
_0-0_計極細
  6
CONTINUOUS
 62
    2
 10
1123.4684542980096
 20
650.68668031146444
 11
1124.0940970103554
 21
653.04063303506939
  0
LINE
  8
_0-0_計極細
  6
CONTINUOUS
 62
    2
 10
1124.0940970103554
 20
653.04063303506939
 11
1124.5559176427942
 21
654.76963564206039
  0
LINE
  8
_0-0_計極細
  6
CONTINUOUS
 62
    2
 10
1124.5559176427942
 20
654.76963564206039
 11
1124.8386214894078
 21
655.8263079127712
  0
LINE
  8
_0-0_計極細
  6
CONTINUOUS
 62
    2
 10
1124.8386214894078
 20
655.8263079127712
 11
1124.9337499235489
 21
656.18176632391635
  0
LINE
  8
_0-1_計細線
  6
CONTINUOUS
 62
    3
 10
1164.9337499235485
 20
579.18176632391726
 11
1118.5778975614166
 21
579.18176632391726
  0
ARC
  8
_0-1_計細線
  6
CONTINUOUS
 62
    3
 10
271.87124992355973
 20
556.68176632391908
 40
15.06249999999028
 50
330.13716564369918
 51
29.862834356287706
  0
ARC
  8
_0-1_計細線
  6
CONTINUOUS
 62
    3
 10
297.99624992351607
 20
571.68176632390771
 40
15.062499999975882
 50
150.13716564362966
 51
209.86283435630799
  0
LINE
  8
_0-1_計細線
  6
CONTINUOUS
 62
    3
 10
471.43374992354927
 20
625.18176632391726
 11
471.43374992354927
 21
619.18176632392124
  0
LINE
  8
_0-1_計細線
  6
CONTINUOUS
 62
    3
 10
471.43374992354927
 20
612.18176632391737
 11
471.43374992354927
 21
606.18176632392112
  0
LINE
  8
_0-1_計細線
  6
CONTINUOUS
 62
    3
 10
471.43374992354927
 20
599.18176632391726
 11
471.43374992354927
 21
593.18176632392112
  0
LINE
  8
_0-1_計細線
  6
CONTINUOUS
 62
    3
 10
471.43374992354927
 20
586.18176632391726
 11
471.43374992354927
 21
580.18176632392112
  0
LINE
  8
_0-1_計細線
  6
CONTINUOUS
 62
    3
 10
471.43374992354927
 20
573.18176632391726
 11
471.43374992354927
 21
567.18176632392112
  0
LINE
  8
_0-1_計細線
  6
CONTINUOUS
 62
    3
 10
471.43374992354927
 20
560.18176632391726
 11
471.43374992354927
 21
554.18176632392124
  0
LINE
  8
_0-0_計極細
  6
CONTINUOUS
 62
    2
 10
324.93374992354973
 20
554.18176632391635
 11
325.02887835769081
 21
554.52188143923229
  0
LINE
  8
_0-0_計極細
  6
CONTINUOUS
 62
    2
 10
325.02887835769081
 20
554.52188143923229
 11
325.31158220430433
 21
555.53295631532797
  0
LINE
  8
_0-0_計極細
  6
CONTINUOUS
 62
    2
 10
325.31158220430433
 20
555.53295631532797
 11
325.77340283674334
 21
557.18747172353835
  0
LINE
  8
_0-0_計極細
  6
CONTINUOUS
 62
    2
 10
325.77340283674334
 20
557.18747172353835
 11
326.39904554908901
 21
559.44051433224831
  0
LINE
  8
_0-0_計極細
  6
CONTINUOUS
 62
    2
 10
326.39904554908901
 20
559.44051433224831
 11
327.16517502367509
 21
562.23113261035257
  0
LINE
  8
_0-0_計極細
  6
CONTINUOUS
 62
    2
 10
327.16517502367509
 20
562.23113261035257
 11
328.03973515552178
 21
565.48410561179605
  0
LINE
  8
_0-0_計極細
  6
CONTINUOUS
 62
    2
 10
328.03973515552178
 20
565.48410561179605
 11
328.98243563484499
 21
569.1120260830636
  0
LINE
  8
_0-0_計極細
  6
CONTINUOUS
 62
    2
 10
328.98243563484499
 20
569.1120260830636
 11
329.94681899695104
 21
573.01760663784091
  0
LINE
  8
_0-0_計極細
  6
CONTINUOUS
 62
    2
 10
329.94681899695104
 20
573.01760663784091
 11
330.88394280751834
 21
577.09613874953436
  0
LINE
  8
_0-0_計極細
  6
CONTINUOUS
 62
    2
 10
330.88394280751834
 20
577.09613874953436
 11
331.74727456238929
 21
581.23806184000455
  0
LINE
  8
_0-0_計極細
  6
CONTINUOUS
 62
    2
 10
331.74727456238929
 20
581.23806184000455
 11
332.49801320381442
 21
585.33162501372556
  0
LINE
  8
_0-0_計極細
  6
CONTINUOUS
 62
    2
 10
332.49801320381442
 20
585.33162501372556
 11
333.10982395277648
 21
589.26563884375673
  0
LINE
  8
_0-0_計極細
  6
CONTINUOUS
 62
    2
 10
333.10982395277648
 20
589.26563884375673
 11
333.57197108831593
 21
592.93231361694222
  0
LINE
  8
_0-0_計極細
  6
CONTINUOUS
 62
    2
 10
333.57197108831593
 20
592.93231361694222
 11
333.8900725570914
 21
596.23016231702059
  0
LINE
  8
_0-0_計極細
  6
CONTINUOUS
 62
    2
 10
333.8900725570914
 20
596.23016231702059
 11
334.08413897980836
 21
599.0669147122112
  0
LINE
  8
_0-0_計極細
  6
CONTINUOUS
 62
    2
 10
334.08413897980836
 20
599.0669147122112
 11
334.18410615962989
 21
601.36235050902815
  0
LINE
  8
_0-0_計極細
  6
CONTINUOUS
 62
    2
 10
334.18410615962989
 20
601.36235050902815
 11
334.22360387953489
 21
603.05092421663642
  0
LINE
  8
_0-0_計極細
  6
CONTINUOUS
 62
    2
 10
334.22360387953489
 20
603.05092421663642
 11
334.23310267419288
 21
604.0840317582124
  0
LINE
  8
_0-0_計極細
  6
CONTINUOUS
 62
    2
 10
334.23310267419288
 20
604.0840317582124
 11
334.23374992354945
 21
604.4317663239143
  0
LINE
  8
_0-0_計極細
  6
CONTINUOUS
 62
    2
 10
334.23374992354945
 20
604.4317663239143
 11
334.23310267419288
 21
604.77960528467383
  0
LINE
  8
_0-0_計極細
  6
CONTINUOUS
 62
    2
 10
334.23310267419288
 20
604.77960528467383
 11
334.22360387953489
 21
605.8142448899041
  0
LINE
  8
_0-0_計極細
  6
CONTINUOUS
 62
    2
 10
334.22360387953489
 20
605.8142448899041
 11
334.18410615962989
 21
607.50918919749722
  0
LINE
  8
_0-0_計極細
  6
CONTINUOUS
 62
    2
 10
334.18410615962989
 20
607.50918919749722
 11
334.08413897980836
 21
609.82074873299507
  0
LINE
  8
_0-0_計極細
  6
CONTINUOUS
 62
    2
 10
334.08413897980836
 20
609.82074873299507
 11
333.8900725570914
 21
612.68880216410798
  0
LINE
  8
_0-0_計極細
  6
CONTINUOUS
 62
    2
 10
333.8900725570914
 20
612.68880216410798
 11
333.57197108831593
 21
616.03795755269846
  0
LINE
  8
_0-0_計極細
  6
CONTINUOUS
 62
    2
 10
333.57197108831593
 20
616.03795755269846
 11
333.10982395277654
 21
619.77917218645518
  0
LINE
  8
_0-0_計極細
  6
CONTINUOUS
 62
    2
 10
333.10982395277654
 20
619.77917218645518
 11
332.49801320381442
 21
623.81186516954494
  0
LINE
  8
_0-0_計極細
  6
CONTINUOUS
 62
    2
 10
332.49801320381442
 20
623.81186516954494
 11
331.74727456238929
 21
628.0265152209156
  0
LINE
  8
_0-0_計極細
  6
CONTINUOUS
 62
    2
 10
331.74727456238929
 20
628.0265152209156
 11
330.88394280751834
 21
632.30768536862331
  0
LINE
  8
_0-0_計極細
  6
CONTINUOUS
 62
    2
 10
330.88394280751834
 20
632.30768536862331
 11
329.94681899695104
 21
636.53736648202175
  0
LINE
  8
_0-0_計極細
  6
CONTINUOUS
 62
    2
 10
329.94681899695104
 20
636.53736648202175
 11
328.98243563484499
 21
640.59849274036492
  0
LINE
  8
_0-0_計極細
  6
CONTINUOUS
 62
    2
 10
328.98243563484499
 20
640.59849274036492
 11
328.03973515552178
 21
644.37846167603982
  0
LINE
  8
_0-0_計極細
  6
CONTINUOUS
 62
    2
 10
328.03973515552178
 20
644.37846167603982
 11
327.16517502367515
 21
647.7724927632654
  0
LINE
  8
_0-0_計極細
  6
CONTINUOUS
 62
    2
 10
327.16517502367515
 20
647.7724927632654
 11
326.39904554908901
 21
650.68668031146444
  0
LINE
  8
_0-0_計極細
  6
CONTINUOUS
 62
    2
 10
326.39904554908901
 20
650.68668031146444
 11
325.77340283674334
 21
653.04063303506939
  0
LINE
  8
_0-0_計極細
  6
CONTINUOUS
 62
    2
 10
325.77340283674334
 20
653.04063303506939
 11
325.31158220430433
 21
654.76963564206039
  0
LINE
  8
_0-0_計極細
  6
CONTINUOUS
 62
    2
 10
325.31158220430433
 20
654.76963564206039
 11
325.02887835769081
 21
655.8263079127712
  0
LINE
  8
_0-0_計極細
  6
CONTINUOUS
 62
    2
 10
325.02887835769081
 20
655.8263079127712
 11
324.93374992354973
 21
656.18176632391635
  0
LINE
  8
_0-1_計細線
  6
CONTINUOUS
 62
    3
 10
284.93374992354973
 20
579.18176632391726
 11
331.28960228568155
 21
579.18176632391726
  0
LINE
  8
_0-1_計細線
  6
CONTINUOUS
 62
    3
 10
471.43374992354927
 20
758.18176632391715
 11
474.43374992354933
 21
758.18176632391715
  0
LINE
  8
_0-1_計細線
  6
CONTINUOUS
 62
    3
 10
474.43374992354933
 20
758.18176632391715
 11
474.43374992354933
 21
554.18176632391726
  0
LINE
  8
_0-1_計細線
  6
CONTINUOUS
 62
    3
 10
474.43374992354933
 20
554.18176632391726
 11
471.43374992354927
 21
554.18176632391726
  0
LINE
  8
_0-1_計細線
  6
CONTINUOUS
 62
    3
 10
471.43374992354927
 20
554.18176632391726
 11
471.43374992354927
 21
758.18176632391715
  0
LINE
  8
_0-1_計細線
  6
CONTINUOUS
 62
    3
 10
978.43374992354882
 20
758.18176632391715
 11
975.43374992354882
 21
758.18176632391715
  0
LINE
  8
_0-1_計細線
  6
CONTINUOUS
 62
    3
 10
975.43374992354882
 20
758.18176632391715
 11
975.43374992354882
 21
554.18176632391726
  0
LINE
  8
_0-1_計細線
  6
CONTINUOUS
 62
    3
 10
975.43374992354882
 20
554.18176632391726
 11
978.43374992354882
 21
554.18176632391726
  0
LINE
  8
_0-1_計細線
  6
CONTINUOUS
 62
    3
 10
978.43374992354882
 20
554.18176632391726
 11
978.43374992354882
 21
758.18176632391715
  0
LINE
  8
_0-1_計細線
  6
CONTINUOUS
 62
    3
 10
974.43374992354893
 20
758.18176632391715
 11
971.43374992354893
 21
758.18176632391715
  0
LINE
  8
_0-1_計細線
  6
CONTINUOUS
 62
    3
 10
971.43374992354893
 20
758.18176632391715
 11
971.43374992354893
 21
554.18176632391726
  0
LINE
  8
_0-1_計細線
  6
CONTINUOUS
 62
    3
 10
971.43374992354893
 20
554.18176632391726
 11
974.43374992354893
 21
554.18176632391726
  0
LINE
  8
_0-1_計細線
  6
CONTINUOUS
 62
    3
 10
974.43374992354893
 20
554.18176632391726
 11
974.43374992354893
 21
758.18176632391715
  0
LINE
  8
_0-1_計細線
  6
CONTINUOUS
 62
    3
 10
478.43374992354882
 20
758.18176632391715
 11
475.43374992354882
 21
758.18176632391715
  0
LINE
  8
_0-1_計細線
  6
CONTINUOUS
 62
    3
 10
475.43374992354882
 20
758.18176632391715
 11
475.43374992354882
 21
554.18176632391726
  0
LINE
  8
_0-1_計細線
  6
CONTINUOUS
 62
    3
 10
475.43374992354882
 20
554.18176632391726
 11
478.43374992354882
 21
554.18176632391726
  0
LINE
  8
_0-1_計細線
  6
CONTINUOUS
 62
    3
 10
478.43374992354882
 20
554.18176632391726
 11
478.43374992354882
 21
758.18176632391715
  0
LINE
  8
_0-0_計極細
  6
CENTER2
 62
    2
 10
1074.9337499235489
 20
752.18176632391703
 11
1074.9337499235489
 21
560.18176632391726
  0
LINE
  8
_0-0_計極細
  6
CENTER2
 62
    2
 10
874.93374992354893
 20
752.18176632391703
 11
874.93374992354893
 21
560.18176632391726
  0
LINE
  8
_0-0_計極細
  6
CENTER2
 62
    2
 10
774.93374992354893
 20
752.18176632391703
 11
774.93374992354893
 21
560.18176632391726
  0
LINE
  8
_0-0_計極細
  6
CENTER2
 62
    2
 10
674.93374992354893
 20
752.18176632391703
 11
674.93374992354893
 21
560.18176632391726
  0
LINE
  8
_0-0_計極細
  6
CENTER2
 62
    2
 10
574.93374992354893
 20
752.18176632391703
 11
574.93374992354893
 21
560.18176632391726
  0
LINE
  8
_0-5_寸法線
  6
CONTINUOUS
 62
    7
 10
272.933749923547
 20
549.18176632391567
 11
227.933749923547
 21
549.18176632391589
  0
LINE
  8
_0-5_寸法線
  6
CONTINUOUS
 62
    7
 10
232.933749923547
 20
549.18176632391589
 11
230.34555947252187
 21
558.84102458680661
  0
LINE
  8
_0-5_寸法線
  6
CONTINUOUS
 62
    7
 10
232.933749923547
 20
549.18176632391589
 11
235.52194037457227
 21
558.84102458680661
  0
LINE
  8
_0-5_寸法線
  6
CONTINUOUS
 62
    7
 10
272.933749923547
 20
579.18176632391726
 11
227.933749923547
 21
579.18176632391726
  0
LINE
  8
_0-5_寸法線
  6
CONTINUOUS
 62
    7
 10
232.933749923547
 20
579.18176632391726
 11
235.52194037457213
 21
569.52250806102654
  0
LINE
  8
_0-5_寸法線
  6
CONTINUOUS
 62
    7
 10
232.933749923547
 20
579.18176632391726
 11
230.34555947252173
 21
569.52250806102654
  0
LINE
  8
_0-5_寸法線
  6
CONTINUOUS
 62
    7
 10
232.933749923547
 20
549.18176632391589
 11
232.933749923547
 21
579.18176632391726
  0
TEXT
  8
_0-5_寸法線
 62
    7
 10
232.933749923547
 20
556.68176632391669
 40
15
 41
1
 50
90
  1
30
  0
LINE
  8
_0-5_寸法線
  6
CONTINUOUS
 62
    7
 10
232.933749923547
 20
579.18176632391726
 11
230.34555947252187
 21
588.84102458680798
  0
LINE
  8
_0-5_寸法線
  6
CONTINUOUS
 62
    7
 10
232.933749923547
 20
579.18176632391726
 11
235.52194037457227
 21
588.84102458680798
  0
LINE
  8
_0-5_寸法線
  6
CONTINUOUS
 62
    7
 10
272.933749923547
 20
733.18176632391715
 11
227.933749923547
 21
733.18176632391726
  0
LINE
  8
_0-5_寸法線
  6
CONTINUOUS
 62
    7
 10
232.933749923547
 20
733.18176632391726
 11
235.52194037457213
 21
723.52250806102666
  0
LINE
  8
_0-5_寸法線
  6
CONTINUOUS
 62
    7
 10
232.933749923547
 20
733.18176632391726
 11
230.34555947252173
 21
723.52250806102666
  0
LINE
  8
_0-5_寸法線
  6
CONTINUOUS
 62
    7
 10
232.933749923547
 20
579.18176632391726
 11
232.933749923547
 21
733.18176632391726
  0
TEXT
  8
_0-5_寸法線
 62
    7
 10
232.933749923547
 20
644.93176632391726
 40
15
 41
1
 50
90
  1
154
  0
LINE
  8
_0-5_寸法線
  6
CONTINUOUS
 62
    7
 10
232.933749923547
 20
733.18176632391726
 11
230.34555947252187
 21
742.84102458680809
  0
LINE
  8
_0-5_寸法線
  6
CONTINUOUS
 62
    7
 10
232.933749923547
 20
733.18176632391726
 11
235.52194037457227
 21
742.84102458680809
  0
LINE
  8
_0-5_寸法線
  6
CONTINUOUS
 62
    7
 10
272.933749923547
 20
763.18176632391567
 11
227.933749923547
 21
763.18176632391601
  0
LINE
  8
_0-5_寸法線
  6
CONTINUOUS
 62
    7
 10
232.933749923547
 20
763.18176632391601
 11
235.52194037457213
 21
753.52250806102518
  0
LINE
  8
_0-5_寸法線
  6
CONTINUOUS
 62
    7
 10
232.933749923547
 20
763.18176632391601
 11
230.34555947252173
 21
753.52250806102518
  0
LINE
  8
_0-5_寸法線
  6
CONTINUOUS
 62
    7
 10
232.933749923547
 20
733.18176632391726
 11
232.933749923547
 21
763.18176632391601
  0
TEXT
  8
_0-5_寸法線
 62
    7
 10
232.933749923547
 20
740.68176632391658
 40
15
 41
1
 50
90
  1
30
  0
LINE
  8
_0-5_寸法線
  6
CONTINUOUS
 62
    7
 10
1176.9337499235517
 20
549.18176632391567
 11
1256.9337499235517
 21
549.18176632391555
  0
LINE
  8
_0-5_寸法線
  6
CONTINUOUS
 62
    7
 10
1251.9337499235517
 20
549.18176632391555
 11
1249.3455594725265
 21
558.84102458680616
  0
LINE
  8
_0-5_寸法線
  6
CONTINUOUS
 62
    7
 10
1251.9337499235517
 20
549.18176632391555
 11
1254.5219403745768
 21
558.84102458680616
  0
LINE
  8
_0-5_寸法線
  6
CONTINUOUS
 62
    7
 10
1176.9337499235517
 20
763.18176632391567
 11
1256.9337499235517
 21
763.18176632391544
  0
LINE
  8
_0-5_寸法線
  6
CONTINUOUS
 62
    7
 10
1251.9337499235517
 20
763.18176632391544
 11
1254.5219403745768
 21
753.52250806102472
  0
LINE
  8
_0-5_寸法線
  6
CONTINUOUS
 62
    7
 10
1251.9337499235517
 20
763.18176632391544
 11
1249.3455594725265
 21
753.52250806102472
  0
LINE
  8
_0-5_寸法線
  6
CONTINUOUS
 62
    7
 10
1251.9337499235517
 20
549.18176632391555
 11
1251.9337499235517
 21
763.18176632391544
  0
TEXT
  8
_0-5_寸法線
 62
    7
 10
1251.9337499235517
 20
644.93176632391555
 40
15
 41
1
 50
90
  1
214
  0
LINE
  8
_0-0_計極細
  6
CENTER2
 62
    2
 10
374.93374992354882
 20
752.18176632391703
 11
374.93374992354882
 21
560.18176632391726
  0
LINE
  8
_0-1_計細線
  6
CONTINUOUS
 62
    3
 10
478.43374992354882
 20
758.18176632391715
 11
478.43374992354882
 21
750.18176632391726
  0
LINE
  8
_0-1_計細線
  6
CONTINUOUS
 62
    3
 10
478.43374992354882
 20
750.18176632391726
 11
971.43374992354893
 21
750.18176632391726
  0
LINE
  8
_0-1_計細線
  6
CONTINUOUS
 62
    3
 10
971.43374992354893
 20
750.18176632391726
 11
971.43374992354893
 21
758.18176632391715
  0
LINE
  8
_0-1_計細線
  6
CONTINUOUS
 62
    3
 10
971.43374992354893
 20
758.18176632391715
 11
478.43374992354882
 21
758.18176632391715
  0
LINE
  8
_0-1_計細線
  6
CONTINUOUS
 62
    3
 10
478.43374992354882
 20
744.18176632391703
 11
478.43374992354882
 21
736.18176632391726
  0
LINE
  8
_0-1_計細線
  6
CONTINUOUS
 62
    3
 10
478.43374992354882
 20
736.18176632391726
 11
971.43374992354893
 21
736.18176632391726
  0
LINE
  8
_0-1_計細線
  6
CONTINUOUS
 62
    3
 10
971.43374992354893
 20
736.18176632391726
 11
971.43374992354893
 21
744.18176632391703
  0
LINE
  8
_0-1_計細線
  6
CONTINUOUS
 62
    3
 10
971.43374992354893
 20
744.18176632391703
 11
478.43374992354882
 21
744.18176632391703
  0
LINE
  8
_0-1_計細線
  6
CONTINUOUS
 62
    3
 10
478.43374992354882
 20
730.18176632391726
 11
478.43374992354882
 21
722.18176632391771
  0
LINE
  8
_0-1_計細線
  6
CONTINUOUS
 62
    3
 10
478.43374992354882
 20
722.18176632391771
 11
971.43374992354893
 21
722.18176632391771
  0
LINE
  8
_0-1_計細線
  6
CONTINUOUS
 62
    3
 10
971.43374992354893
 20
722.18176632391771
 11
971.43374992354893
 21
730.18176632391726
  0
LINE
  8
_0-1_計細線
  6
CONTINUOUS
 62
    3
 10
971.43374992354893
 20
730.18176632391726
 11
478.43374992354882
 21
730.18176632391726
  0
LINE
  8
_0-1_計細線
  6
CONTINUOUS
 62
    3
 10
478.43374992354882
 20
716.18176632391726
 11
478.43374992354882
 21
708.1817663239176
  0
LINE
  8
_0-1_計細線
  6
CONTINUOUS
 62
    3
 10
478.43374992354882
 20
708.1817663239176
 11
971.43374992354893
 21
708.1817663239176
  0
LINE
  8
_0-1_計細線
  6
CONTINUOUS
 62
    3
 10
971.43374992354893
 20
708.1817663239176
 11
971.43374992354893
 21
716.18176632391726
  0
LINE
  8
_0-1_計細線
  6
CONTINUOUS
 62
    3
 10
971.43374992354893
 20
716.18176632391726
 11
478.43374992354882
 21
716.18176632391726
  0
LINE
  8
_0-1_計細線
  6
CONTINUOUS
 62
    3
 10
478.43374992354882
 20
702.18176632391737
 11
478.43374992354882
 21
694.18176632391749
  0
LINE
  8
_0-1_計細線
  6
CONTINUOUS
 62
    3
 10
478.43374992354882
 20
694.18176632391749
 11
971.43374992354893
 21
694.18176632391749
  0
LINE
  8
_0-1_計細線
  6
CONTINUOUS
 62
    3
 10
971.43374992354893
 20
694.18176632391749
 11
971.43374992354893
 21
702.18176632391737
  0
LINE
  8
_0-1_計細線
  6
CONTINUOUS
 62
    3
 10
971.43374992354893
 20
702.18176632391737
 11
478.43374992354882
 21
702.18176632391737
  0
LINE
  8
_0-1_計細線
  6
CONTINUOUS
 62
    3
 10
478.43374992354882
 20
688.18176632391715
 11
478.43374992354882
 21
680.18176632391726
  0
LINE
  8
_0-1_計細線
  6
CONTINUOUS
 62
    3
 10
478.43374992354882
 20
680.18176632391726
 11
971.43374992354893
 21
680.18176632391726
  0
LINE
  8
_0-1_計細線
  6
CONTINUOUS
 62
    3
 10
971.43374992354893
 20
680.18176632391726
 11
971.43374992354893
 21
688.18176632391715
  0
LINE
  8
_0-1_計細線
  6
CONTINUOUS
 62
    3
 10
971.43374992354893
 20
688.18176632391715
 11
478.43374992354882
 21
688.18176632391715
  0
LINE
  8
_0-1_計細線
  6
CONTINUOUS
 62
    3
 10
478.43374992354882
 20
674.18176632391703
 11
478.43374992354882
 21
666.18176632391726
  0
LINE
  8
_0-1_計細線
  6
CONTINUOUS
 62
    3
 10
478.43374992354882
 20
666.18176632391726
 11
971.43374992354893
 21
666.18176632391726
  0
LINE
  8
_0-1_計細線
  6
CONTINUOUS
 62
    3
 10
971.43374992354893
 20
666.18176632391726
 11
971.43374992354893
 21
674.18176632391703
  0
LINE
  8
_0-1_計細線
  6
CONTINUOUS
 62
    3
 10
971.43374992354893
 20
674.18176632391703
 11
478.43374992354882
 21
674.18176632391703
  0
LINE
  8
_0-0_計極細
  6
CONTINUOUS
 62
    2
 10
577.43374992354893
 20
750.18176632391726
 11
577.43374992354893
 21
744.18176632391703
  0
LINE
  8
_0-0_計極細
  6
CONTINUOUS
 62
    2
 10
572.43374992354893
 20
744.1817663239168
 11
572.43374992354893
 21
750.18176632391726
  0
LINE
  8
_0-0_計極細
  6
CONTINUOUS
 62
    2
 10
577.43374992354893
 20
736.18176632391726
 11
577.43374992354893
 21
730.18176632391692
  0
LINE
  8
_0-0_計極細
  6
CONTINUOUS
 62
    2
 10
572.43374992354893
 20
730.18176632391692
 11
572.43374992354893
 21
736.18176632391726
  0
LINE
  8
_0-0_計極細
  6
CONTINUOUS
 62
    2
 10
577.43374992354893
 20
722.18176632391737
 11
577.43374992354893
 21
716.1817663239168
  0
LINE
  8
_0-0_計極細
  6
CONTINUOUS
 62
    2
 10
572.43374992354893
 20
716.1817663239168
 11
572.43374992354893
 21
722.18176632391737
  0
LINE
  8
_0-0_計極細
  6
CONTINUOUS
 62
    2
 10
577.43374992354893
 20
708.1817663239168
 11
577.43374992354893
 21
702.18176632391658
  0
LINE
  8
_0-0_計極細
  6
CONTINUOUS
 62
    2
 10
572.43374992354893
 20
702.18176632391635
 11
572.43374992354893
 21
708.1817663239168
  0
LINE
  8
_0-0_計極細
  6
CONTINUOUS
 62
    2
 10
577.43374992354893
 20
694.1817663239168
 11
577.43374992354893
 21
688.18176632391658
  0
LINE
  8
_0-0_計極細
  6
CONTINUOUS
 62
    2
 10
572.43374992354893
 20
688.18176632391646
 11
572.43374992354893
 21
694.1817663239168
  0
LINE
  8
_0-0_計極細
  6
CONTINUOUS
 62
    2
 10
577.43374992354893
 20
680.18176632391692
 11
577.43374992354893
 21
674.18176632391669
  0
LINE
  8
_0-0_計極細
  6
CONTINUOUS
 62
    2
 10
572.43374992354893
 20
674.18176632391635
 11
572.43374992354893
 21
680.18176632391692
  0
LINE
  8
_0-0_計極細
  6
CONTINUOUS
 62
    2
 10
677.43374992354893
 20
750.18176632391726
 11
677.43374992354893
 21
744.18176632391703
  0
LINE
  8
_0-0_計極細
  6
CONTINUOUS
 62
    2
 10
672.43374992354893
 20
744.1817663239168
 11
672.43374992354893
 21
750.18176632391726
  0
LINE
  8
_0-0_計極細
  6
CONTINUOUS
 62
    2
 10
677.43374992354893
 20
736.18176632391726
 11
677.43374992354893
 21
730.18176632391692
  0
LINE
  8
_0-0_計極細
  6
CONTINUOUS
 62
    2
 10
672.43374992354893
 20
730.18176632391692
 11
672.43374992354893
 21
736.18176632391726
  0
LINE
  8
_0-0_計極細
  6
CONTINUOUS
 62
    2
 10
677.43374992354893
 20
722.18176632391737
 11
677.43374992354893
 21
716.1817663239168
  0
LINE
  8
_0-0_計極細
  6
CONTINUOUS
 62
    2
 10
672.43374992354893
 20
716.1817663239168
 11
672.43374992354893
 21
722.18176632391737
  0
LINE
  8
_0-0_計極細
  6
CONTINUOUS
 62
    2
 10
677.43374992354893
 20
708.1817663239168
 11
677.43374992354893
 21
702.18176632391658
  0
LINE
  8
_0-0_計極細
  6
CONTINUOUS
 62
    2
 10
672.43374992354893
 20
702.18176632391635
 11
672.43374992354893
 21
708.1817663239168
  0
LINE
  8
_0-0_計極細
  6
CONTINUOUS
 62
    2
 10
677.43374992354893
 20
694.1817663239168
 11
677.43374992354893
 21
688.18176632391658
  0
LINE
  8
_0-0_計極細
  6
CONTINUOUS
 62
    2
 10
672.43374992354893
 20
688.18176632391646
 11
672.43374992354893
 21
694.1817663239168
  0
LINE
  8
_0-0_計極細
  6
CONTINUOUS
 62
    2
 10
677.43374992354893
 20
680.18176632391692
 11
677.43374992354893
 21
674.18176632391669
  0
LINE
  8
_0-0_計極細
  6
CONTINUOUS
 62
    2
 10
672.43374992354893
 20
674.18176632391635
 11
672.43374992354893
 21
680.18176632391692
  0
LINE
  8
_0-0_計極細
  6
CONTINUOUS
 62
    2
 10
777.43374992354893
 20
750.18176632391726
 11
777.43374992354893
 21
744.18176632391703
  0
LINE
  8
_0-0_計極細
  6
CONTINUOUS
 62
    2
 10
772.43374992354893
 20
744.1817663239168
 11
772.43374992354893
 21
750.18176632391726
  0
LINE
  8
_0-0_計極細
  6
CONTINUOUS
 62
    2
 10
777.43374992354893
 20
736.18176632391726
 11
777.43374992354893
 21
730.18176632391692
  0
LINE
  8
_0-0_計極細
  6
CONTINUOUS
 62
    2
 10
772.43374992354893
 20
730.18176632391692
 11
772.43374992354893
 21
736.18176632391726
  0
LINE
  8
_0-0_計極細
  6
CONTINUOUS
 62
    2
 10
777.43374992354893
 20
722.18176632391737
 11
777.43374992354893
 21
716.1817663239168
  0
LINE
  8
_0-0_計極細
  6
CONTINUOUS
 62
    2
 10
772.43374992354893
 20
716.1817663239168
 11
772.43374992354893
 21
722.18176632391737
  0
LINE
  8
_0-0_計極細
  6
CONTINUOUS
 62
    2
 10
777.43374992354893
 20
708.1817663239168
 11
777.43374992354893
 21
702.18176632391658
  0
LINE
  8
_0-0_計極細
  6
CONTINUOUS
 62
    2
 10
772.43374992354893
 20
702.18176632391635
 11
772.43374992354893
 21
708.1817663239168
  0
LINE
  8
_0-0_計極細
  6
CONTINUOUS
 62
    2
 10
777.43374992354893
 20
694.1817663239168
 11
777.43374992354893
 21
688.18176632391658
  0
LINE
  8
_0-0_計極細
  6
CONTINUOUS
 62
    2
 10
772.43374992354893
 20
688.18176632391646
 11
772.43374992354893
 21
694.1817663239168
  0
LINE
  8
_0-0_計極細
  6
CONTINUOUS
 62
    2
 10
777.43374992354893
 20
680.18176632391692
 11
777.43374992354893
 21
674.18176632391669
  0
LINE
  8
_0-0_計極細
  6
CONTINUOUS
 62
    2
 10
772.43374992354893
 20
674.18176632391635
 11
772.43374992354893
 21
680.18176632391692
  0
LINE
  8
_0-0_計極細
  6
CONTINUOUS
 62
    2
 10
877.43374992354893
 20
750.18176632391726
 11
877.43374992354893
 21
744.18176632391703
  0
LINE
  8
_0-0_計極細
  6
CONTINUOUS
 62
    2
 10
872.43374992354893
 20
744.1817663239168
 11
872.43374992354893
 21
750.18176632391726
  0
LINE
  8
_0-0_計極細
  6
CONTINUOUS
 62
    2
 10
877.43374992354893
 20
736.18176632391726
 11
877.43374992354893
 21
730.18176632391692
  0
LINE
  8
_0-0_計極細
  6
CONTINUOUS
 62
    2
 10
872.43374992354893
 20
730.18176632391692
 11
872.43374992354893
 21
736.18176632391726
  0
LINE
  8
_0-0_計極細
  6
CONTINUOUS
 62
    2
 10
877.43374992354893
 20
722.18176632391737
 11
877.43374992354893
 21
716.1817663239168
  0
LINE
  8
_0-0_計極細
  6
CONTINUOUS
 62
    2
 10
872.43374992354893
 20
716.1817663239168
 11
872.43374992354893
 21
722.18176632391737
  0
LINE
  8
_0-0_計極細
  6
CONTINUOUS
 62
    2
 10
877.43374992354893
 20
708.1817663239168
 11
877.43374992354893
 21
702.18176632391658
  0
LINE
  8
_0-0_計極細
  6
CONTINUOUS
 62
    2
 10
872.43374992354893
 20
702.18176632391635
 11
872.43374992354893
 21
708.1817663239168
  0
LINE
  8
_0-0_計極細
  6
CONTINUOUS
 62
    2
 10
877.43374992354893
 20
694.1817663239168
 11
877.43374992354893
 21
688.18176632391658
  0
LINE
  8
_0-0_計極細
  6
CONTINUOUS
 62
    2
 10
872.43374992354893
 20
688.18176632391646
 11
872.43374992354893
 21
694.1817663239168
  0
LINE
  8
_0-0_計極細
  6
CONTINUOUS
 62
    2
 10
877.43374992354893
 20
680.18176632391692
 11
877.43374992354893
 21
674.18176632391669
  0
LINE
  8
_0-0_計極細
  6
CONTINUOUS
 62
    2
 10
872.43374992354893
 20
674.18176632391635
 11
872.43374992354893
 21
680.18176632391692
  0
LINE
  8
_0-1_計細線
  6
CONTINUOUS
 62
    3
 10
478.43374992354882
 20
660.18176632391703
 11
478.43374992354882
 21
652.18176632391737
  0
LINE
  8
_0-1_計細線
  6
CONTINUOUS
 62
    3
 10
478.43374992354882
 20
652.18176632391737
 11
971.43374992354893
 21
652.18176632391737
  0
LINE
  8
_0-1_計細線
  6
CONTINUOUS
 62
    3
 10
971.43374992354893
 20
652.18176632391737
 11
971.43374992354893
 21
660.18176632391703
  0
LINE
  8
_0-1_計細線
  6
CONTINUOUS
 62
    3
 10
971.43374992354893
 20
660.18176632391703
 11
478.43374992354882
 21
660.18176632391703
  0
LINE
  8
_0-0_計極細
  6
CONTINUOUS
 62
    2
 10
577.43374992354893
 20
666.1817663239168
 11
577.43374992354893
 21
660.18176632391658
  0
LINE
  8
_0-0_計極細
  6
CONTINUOUS
 62
    2
 10
572.43374992354893
 20
660.18176632391646
 11
572.43374992354893
 21
666.1817663239168
  0
LINE
  8
_0-0_計極細
  6
CONTINUOUS
 62
    2
 10
677.43374992354893
 20
666.1817663239168
 11
677.43374992354893
 21
660.18176632391658
  0
LINE
  8
_0-0_計極細
  6
CONTINUOUS
 62
    2
 10
672.43374992354893
 20
660.18176632391646
 11
672.43374992354893
 21
666.1817663239168
  0
LINE
  8
_0-0_計極細
  6
CONTINUOUS
 62
    2
 10
777.43374992354893
 20
666.1817663239168
 11
777.43374992354893
 21
660.18176632391658
  0
LINE
  8
_0-0_計極細
  6
CONTINUOUS
 62
    2
 10
772.43374992354893
 20
660.18176632391646
 11
772.43374992354893
 21
666.1817663239168
  0
LINE
  8
_0-0_計極細
  6
CONTINUOUS
 62
    2
 10
877.43374992354893
 20
666.1817663239168
 11
877.43374992354893
 21
660.18176632391658
  0
LINE
  8
_0-0_計極細
  6
CONTINUOUS
 62
    2
 10
872.43374992354893
 20
660.18176632391646
 11
872.43374992354893
 21
666.1817663239168
  0
LINE
  8
_0-1_計細線
  6
CONTINUOUS
 62
    3
 10
478.43374992354882
 20
646.18176632391715
 11
478.43374992354882
 21
638.18176632391726
  0
LINE
  8
_0-1_計細線
  6
CONTINUOUS
 62
    3
 10
478.43374992354882
 20
638.18176632391726
 11
971.43374992354893
 21
638.18176632391726
  0
LINE
  8
_0-1_計細線
  6
CONTINUOUS
 62
    3
 10
971.43374992354893
 20
638.18176632391726
 11
971.43374992354893
 21
646.18176632391715
  0
LINE
  8
_0-1_計細線
  6
CONTINUOUS
 62
    3
 10
971.43374992354893
 20
646.18176632391715
 11
478.43374992354882
 21
646.18176632391715
  0
LINE
  8
_0-0_計極細
  6
CONTINUOUS
 62
    2
 10
577.43374992354893
 20
652.18176632391692
 11
577.43374992354893
 21
646.18176632391669
  0
LINE
  8
_0-0_計極細
  6
CONTINUOUS
 62
    2
 10
572.43374992354893
 20
646.18176632391635
 11
572.43374992354893
 21
652.18176632391692
  0
LINE
  8
_0-0_計極細
  6
CONTINUOUS
 62
    2
 10
677.43374992354893
 20
652.18176632391692
 11
677.43374992354893
 21
646.18176632391669
  0
LINE
  8
_0-0_計極細
  6
CONTINUOUS
 62
    2
 10
672.43374992354893
 20
646.18176632391635
 11
672.43374992354893
 21
652.18176632391692
  0
LINE
  8
_0-0_計極細
  6
CONTINUOUS
 62
    2
 10
777.43374992354893
 20
652.18176632391692
 11
777.43374992354893
 21
646.18176632391669
  0
LINE
  8
_0-0_計極細
  6
CONTINUOUS
 62
    2
 10
772.43374992354893
 20
646.18176632391635
 11
772.43374992354893
 21
652.18176632391692
  0
LINE
  8
_0-0_計極細
  6
CONTINUOUS
 62
    2
 10
877.43374992354893
 20
652.18176632391692
 11
877.43374992354893
 21
646.18176632391669
  0
LINE
  8
_0-0_計極細
  6
CONTINUOUS
 62
    2
 10
872.43374992354893
 20
646.18176632391635
 11
872.43374992354893
 21
652.18176632391692
  0
LINE
  8
_0-1_計細線
  6
CONTINUOUS
 62
    3
 10
478.43374992354882
 20
632.18176632391703
 11
478.43374992354882
 21
624.18176632391726
  0
LINE
  8
_0-1_計細線
  6
CONTINUOUS
 62
    3
 10
478.43374992354882
 20
624.18176632391726
 11
971.43374992354893
 21
624.18176632391726
  0
LINE
  8
_0-1_計細線
  6
CONTINUOUS
 62
    3
 10
971.43374992354893
 20
624.18176632391726
 11
971.43374992354893
 21
632.18176632391703
  0
LINE
  8
_0-1_計細線
  6
CONTINUOUS
 62
    3
 10
971.43374992354893
 20
632.18176632391703
 11
478.43374992354882
 21
632.18176632391703
  0
LINE
  8
_0-0_計極細
  6
CONTINUOUS
 62
    2
 10
577.43374992354893
 20
638.1817663239168
 11
577.43374992354893
 21
632.18176632391658
  0
LINE
  8
_0-0_計極細
  6
CONTINUOUS
 62
    2
 10
572.43374992354893
 20
632.18176632391635
 11
572.43374992354893
 21
638.1817663239168
  0
LINE
  8
_0-0_計極細
  6
CONTINUOUS
 62
    2
 10
677.43374992354893
 20
638.1817663239168
 11
677.43374992354893
 21
632.18176632391658
  0
LINE
  8
_0-0_計極細
  6
CONTINUOUS
 62
    2
 10
672.43374992354893
 20
632.18176632391635
 11
672.43374992354893
 21
638.1817663239168
  0
LINE
  8
_0-0_計極細
  6
CONTINUOUS
 62
    2
 10
777.43374992354893
 20
638.1817663239168
 11
777.43374992354893
 21
632.18176632391658
  0
LINE
  8
_0-0_計極細
  6
CONTINUOUS
 62
    2
 10
772.43374992354893
 20
632.18176632391635
 11
772.43374992354893
 21
638.1817663239168
  0
LINE
  8
_0-0_計極細
  6
CONTINUOUS
 62
    2
 10
877.43374992354893
 20
638.1817663239168
 11
877.43374992354893
 21
632.18176632391658
  0
LINE
  8
_0-0_計極細
  6
CONTINUOUS
 62
    2
 10
872.43374992354893
 20
632.18176632391635
 11
872.43374992354893
 21
638.1817663239168
  0
LINE
  8
_0-1_計細線
  6
CONTINUOUS
 62
    3
 10
478.43374992354882
 20
618.18176632391703
 11
478.43374992354882
 21
610.18176632391726
  0
LINE
  8
_0-1_計細線
  6
CONTINUOUS
 62
    3
 10
478.43374992354882
 20
610.18176632391726
 11
971.43374992354893
 21
610.18176632391726
  0
LINE
  8
_0-1_計細線
  6
CONTINUOUS
 62
    3
 10
971.43374992354893
 20
610.18176632391726
 11
971.43374992354893
 21
618.18176632391703
  0
LINE
  8
_0-1_計細線
  6
CONTINUOUS
 62
    3
 10
971.43374992354893
 20
618.18176632391703
 11
478.43374992354882
 21
618.18176632391703
  0
LINE
  8
_0-0_計極細
  6
CONTINUOUS
 62
    2
 10
577.43374992354893
 20
624.1817663239168
 11
577.43374992354893
 21
618.18176632391658
  0
LINE
  8
_0-0_計極細
  6
CONTINUOUS
 62
    2
 10
572.43374992354893
 20
618.18176632391646
 11
572.43374992354893
 21
624.1817663239168
  0
LINE
  8
_0-0_計極細
  6
CONTINUOUS
 62
    2
 10
677.43374992354893
 20
624.1817663239168
 11
677.43374992354893
 21
618.18176632391658
  0
LINE
  8
_0-0_計極細
  6
CONTINUOUS
 62
    2
 10
672.43374992354893
 20
618.18176632391646
 11
672.43374992354893
 21
624.1817663239168
  0
LINE
  8
_0-0_計極細
  6
CONTINUOUS
 62
    2
 10
777.43374992354893
 20
624.1817663239168
 11
777.43374992354893
 21
618.18176632391658
  0
LINE
  8
_0-0_計極細
  6
CONTINUOUS
 62
    2
 10
772.43374992354893
 20
618.18176632391646
 11
772.43374992354893
 21
624.1817663239168
  0
LINE
  8
_0-0_計極細
  6
CONTINUOUS
 62
    2
 10
877.43374992354893
 20
624.1817663239168
 11
877.43374992354893
 21
618.18176632391658
  0
LINE
  8
_0-0_計極細
  6
CONTINUOUS
 62
    2
 10
872.43374992354893
 20
618.18176632391646
 11
872.43374992354893
 21
624.1817663239168
  0
LINE
  8
_0-1_計細線
  6
CONTINUOUS
 62
    3
 10
478.43374992354882
 20
604.18176632391703
 11
478.43374992354882
 21
596.18176632391726
  0
LINE
  8
_0-1_計細線
  6
CONTINUOUS
 62
    3
 10
478.43374992354882
 20
596.18176632391726
 11
971.43374992354893
 21
596.18176632391726
  0
LINE
  8
_0-1_計細線
  6
CONTINUOUS
 62
    3
 10
971.43374992354893
 20
596.18176632391726
 11
971.43374992354893
 21
604.18176632391703
  0
LINE
  8
_0-1_計細線
  6
CONTINUOUS
 62
    3
 10
971.43374992354893
 20
604.18176632391703
 11
478.43374992354882
 21
604.18176632391703
  0
LINE
  8
_0-0_計極細
  6
CONTINUOUS
 62
    2
 10
577.43374992354893
 20
610.18176632391692
 11
577.43374992354893
 21
604.18176632391669
  0
LINE
  8
_0-0_計極細
  6
CONTINUOUS
 62
    2
 10
572.43374992354893
 20
604.18176632391635
 11
572.43374992354893
 21
610.18176632391692
  0
LINE
  8
_0-0_計極細
  6
CONTINUOUS
 62
    2
 10
677.43374992354893
 20
610.18176632391692
 11
677.43374992354893
 21
604.18176632391669
  0
LINE
  8
_0-0_計極細
  6
CONTINUOUS
 62
    2
 10
672.43374992354893
 20
604.18176632391635
 11
672.43374992354893
 21
610.18176632391692
  0
LINE
  8
_0-0_計極細
  6
CONTINUOUS
 62
    2
 10
777.43374992354893
 20
610.18176632391692
 11
777.43374992354893
 21
604.18176632391669
  0
LINE
  8
_0-0_計極細
  6
CONTINUOUS
 62
    2
 10
772.43374992354893
 20
604.18176632391635
 11
772.43374992354893
 21
610.18176632391692
  0
LINE
  8
_0-0_計極細
  6
CONTINUOUS
 62
    2
 10
877.43374992354893
 20
610.18176632391692
 11
877.43374992354893
 21
604.18176632391669
  0
LINE
  8
_0-0_計極細
  6
CONTINUOUS
 62
    2
 10
872.43374992354893
 20
604.18176632391635
 11
872.43374992354893
 21
610.18176632391692
  0
LINE
  8
_0-1_計細線
  6
CONTINUOUS
 62
    3
 10
478.43374992354882
 20
590.18176632391703
 11
478.43374992354882
 21
582.18176632391737
  0
LINE
  8
_0-1_計細線
  6
CONTINUOUS
 62
    3
 10
478.43374992354882
 20
582.18176632391737
 11
971.43374992354893
 21
582.18176632391737
  0
LINE
  8
_0-1_計細線
  6
CONTINUOUS
 62
    3
 10
971.43374992354893
 20
582.18176632391737
 11
971.43374992354893
 21
590.18176632391703
  0
LINE
  8
_0-1_計細線
  6
CONTINUOUS
 62
    3
 10
971.43374992354893
 20
590.18176632391703
 11
478.43374992354882
 21
590.18176632391703
  0
LINE
  8
_0-0_計極細
  6
CONTINUOUS
 62
    2
 10
577.43374992354893
 20
596.1817663239168
 11
577.43374992354893
 21
590.18176632391658
  0
LINE
  8
_0-0_計極細
  6
CONTINUOUS
 62
    2
 10
572.43374992354893
 20
590.18176632391635
 11
572.43374992354893
 21
596.1817663239168
  0
LINE
  8
_0-0_計極細
  6
CONTINUOUS
 62
    2
 10
677.43374992354893
 20
596.1817663239168
 11
677.43374992354893
 21
590.18176632391658
  0
LINE
  8
_0-0_計極細
  6
CONTINUOUS
 62
    2
 10
672.43374992354893
 20
590.18176632391635
 11
672.43374992354893
 21
596.1817663239168
  0
LINE
  8
_0-0_計極細
  6
CONTINUOUS
 62
    2
 10
777.43374992354893
 20
596.1817663239168
 11
777.43374992354893
 21
590.18176632391658
  0
LINE
  8
_0-0_計極細
  6
CONTINUOUS
 62
    2
 10
772.43374992354893
 20
590.18176632391635
 11
772.43374992354893
 21
596.1817663239168
  0
LINE
  8
_0-0_計極細
  6
CONTINUOUS
 62
    2
 10
877.43374992354893
 20
596.1817663239168
 11
877.43374992354893
 21
590.18176632391658
  0
LINE
  8
_0-0_計極細
  6
CONTINUOUS
 62
    2
 10
872.43374992354893
 20
590.18176632391635
 11
872.43374992354893
 21
596.1817663239168
  0
LINE
  8
_0-1_計細線
  6
CONTINUOUS
 62
    3
 10
478.43374992354882
 20
576.18176632391715
 11
478.43374992354882
 21
568.18176632391726
  0
LINE
  8
_0-1_計細線
  6
CONTINUOUS
 62
    3
 10
478.43374992354882
 20
568.18176632391726
 11
971.43374992354893
 21
568.18176632391726
  0
LINE
  8
_0-1_計細線
  6
CONTINUOUS
 62
    3
 10
971.43374992354893
 20
568.18176632391726
 11
971.43374992354893
 21
576.18176632391715
  0
LINE
  8
_0-1_計細線
  6
CONTINUOUS
 62
    3
 10
971.43374992354893
 20
576.18176632391715
 11
478.43374992354882
 21
576.18176632391715
  0
LINE
  8
_0-0_計極細
  6
CONTINUOUS
 62
    2
 10
577.43374992354893
 20
582.1817663239168
 11
577.43374992354893
 21
576.18176632391658
  0
LINE
  8
_0-0_計極細
  6
CONTINUOUS
 62
    2
 10
572.43374992354893
 20
576.18176632391635
 11
572.43374992354893
 21
582.1817663239168
  0
LINE
  8
_0-0_計極細
  6
CONTINUOUS
 62
    2
 10
677.43374992354893
 20
582.1817663239168
 11
677.43374992354893
 21
576.18176632391658
  0
LINE
  8
_0-0_計極細
  6
CONTINUOUS
 62
    2
 10
672.43374992354893
 20
576.18176632391635
 11
672.43374992354893
 21
582.1817663239168
  0
LINE
  8
_0-0_計極細
  6
CONTINUOUS
 62
    2
 10
777.43374992354893
 20
582.1817663239168
 11
777.43374992354893
 21
576.18176632391658
  0
LINE
  8
_0-0_計極細
  6
CONTINUOUS
 62
    2
 10
772.43374992354893
 20
576.18176632391635
 11
772.43374992354893
 21
582.1817663239168
  0
LINE
  8
_0-0_計極細
  6
CONTINUOUS
 62
    2
 10
877.43374992354893
 20
582.1817663239168
 11
877.43374992354893
 21
576.18176632391658
  0
LINE
  8
_0-0_計極細
  6
CONTINUOUS
 62
    2
 10
872.43374992354893
 20
576.18176632391635
 11
872.43374992354893
 21
582.1817663239168
  0
LINE
  8
_0-1_計細線
  6
CONTINUOUS
 62
    3
 10
478.43374992354882
 20
562.18176632391703
 11
478.43374992354882
 21
554.18176632391726
  0
LINE
  8
_0-1_計細線
  6
CONTINUOUS
 62
    3
 10
478.43374992354882
 20
554.18176632391726
 11
971.43374992354893
 21
554.18176632391726
  0
LINE
  8
_0-1_計細線
  6
CONTINUOUS
 62
    3
 10
971.43374992354893
 20
554.18176632391726
 11
971.43374992354893
 21
562.18176632391703
  0
LINE
  8
_0-1_計細線
  6
CONTINUOUS
 62
    3
 10
971.43374992354893
 20
562.18176632391703
 11
478.43374992354882
 21
562.18176632391703
  0
LINE
  8
_0-0_計極細
  6
CONTINUOUS
 62
    2
 10
577.43374992354893
 20
568.1817663239168
 11
577.43374992354893
 21
562.18176632391658
  0
LINE
  8
_0-0_計極細
  6
CONTINUOUS
 62
    2
 10
572.43374992354893
 20
562.18176632391635
 11
572.43374992354893
 21
568.1817663239168
  0
LINE
  8
_0-0_計極細
  6
CONTINUOUS
 62
    2
 10
677.43374992354893
 20
568.1817663239168
 11
677.43374992354893
 21
562.18176632391658
  0
LINE
  8
_0-0_計極細
  6
CONTINUOUS
 62
    2
 10
672.43374992354893
 20
562.18176632391635
 11
672.43374992354893
 21
568.1817663239168
  0
LINE
  8
_0-0_計極細
  6
CONTINUOUS
 62
    2
 10
777.43374992354893
 20
568.1817663239168
 11
777.43374992354893
 21
562.18176632391658
  0
LINE
  8
_0-0_計極細
  6
CONTINUOUS
 62
    2
 10
772.43374992354893
 20
562.18176632391635
 11
772.43374992354893
 21
568.1817663239168
  0
LINE
  8
_0-0_計極細
  6
CONTINUOUS
 62
    2
 10
877.43374992354893
 20
568.1817663239168
 11
877.43374992354893
 21
562.18176632391658
  0
LINE
  8
_0-0_計極細
  6
CONTINUOUS
 62
    2
 10
872.43374992354893
 20
562.18176632391635
 11
872.43374992354893
 21
568.1817663239168
  0
LINE
  8
_0-0_計極細
  6
CONTINUOUS
 62
    2
 10
377.43374992354882
 20
750.18176632391726
 11
377.43374992354882
 21
744.18176632391703
  0
LINE
  8
_0-0_計極細
  6
CONTINUOUS
 62
    2
 10
372.43374992354882
 20
744.1817663239168
 11
372.43374992354882
 21
750.18176632391726
  0
LINE
  8
_0-0_計極細
  6
CONTINUOUS
 62
    2
 10
377.43374992354882
 20
736.18176632391726
 11
377.43374992354882
 21
730.18176632391692
  0
LINE
  8
_0-0_計極細
  6
CONTINUOUS
 62
    2
 10
372.43374992354882
 20
730.18176632391692
 11
372.43374992354882
 21
736.18176632391726
  0
LINE
  8
_0-0_計極細
  6
CONTINUOUS
 62
    2
 10
377.43374992354882
 20
722.18176632391737
 11
377.43374992354882
 21
716.1817663239168
  0
LINE
  8
_0-0_計極細
  6
CONTINUOUS
 62
    2
 10
372.43374992354882
 20
716.1817663239168
 11
372.43374992354882
 21
722.18176632391737
  0
LINE
  8
_0-0_計極細
  6
CONTINUOUS
 62
    2
 10
377.43374992354882
 20
708.1817663239168
 11
377.43374992354882
 21
702.18176632391658
  0
LINE
  8
_0-0_計極細
  6
CONTINUOUS
 62
    2
 10
372.43374992354882
 20
702.18176632391635
 11
372.43374992354882
 21
708.1817663239168
  0
LINE
  8
_0-0_計極細
  6
CONTINUOUS
 62
    2
 10
377.43374992354882
 20
694.1817663239168
 11
377.43374992354882
 21
688.18176632391658
  0
LINE
  8
_0-0_計極細
  6
CONTINUOUS
 62
    2
 10
372.43374992354882
 20
688.18176632391646
 11
372.43374992354882
 21
694.1817663239168
  0
LINE
  8
_0-0_計極細
  6
CONTINUOUS
 62
    2
 10
377.43374992354882
 20
680.18176632391692
 11
377.43374992354882
 21
674.18176632391669
  0
LINE
  8
_0-0_計極細
  6
CONTINUOUS
 62
    2
 10
372.43374992354882
 20
674.18176632391635
 11
372.43374992354882
 21
680.18176632391692
  0
LINE
  8
_0-0_計極細
  6
CONTINUOUS
 62
    2
 10
377.43374992354882
 20
666.1817663239168
 11
377.43374992354882
 21
660.18176632391658
  0
LINE
  8
_0-0_計極細
  6
CONTINUOUS
 62
    2
 10
372.43374992354882
 20
660.18176632391646
 11
372.43374992354882
 21
666.1817663239168
  0
LINE
  8
_0-0_計極細
  6
CONTINUOUS
 62
    2
 10
377.43374992354882
 20
652.18176632391692
 11
377.43374992354882
 21
646.18176632391669
  0
LINE
  8
_0-0_計極細
  6
CONTINUOUS
 62
    2
 10
372.43374992354882
 20
646.18176632391635
 11
372.43374992354882
 21
652.18176632391692
  0
LINE
  8
_0-0_計極細
  6
CONTINUOUS
 62
    2
 10
377.43374992354882
 20
638.1817663239168
 11
377.43374992354882
 21
632.18176632391658
  0
LINE
  8
_0-0_計極細
  6
CONTINUOUS
 62
    2
 10
372.43374992354882
 20
632.18176632391635
 11
372.43374992354882
 21
638.1817663239168
  0
LINE
  8
_0-0_計極細
  6
CONTINUOUS
 62
    2
 10
377.43374992354882
 20
624.1817663239168
 11
377.43374992354882
 21
618.18176632391658
  0
LINE
  8
_0-0_計極細
  6
CONTINUOUS
 62
    2
 10
372.43374992354882
 20
618.18176632391646
 11
372.43374992354882
 21
624.1817663239168
  0
LINE
  8
_0-1_計細線
  6
CONTINUOUS
 62
    3
 10
324.93374992354882
 20
758.18176632391715
 11
471.43374992354927
 21
758.18176632391715
  0
LINE
  8
_0-0_計極細
  6
CONTINUOUS
 62
    2
 10
377.43374992354882
 20
610.18176632391692
 11
377.43374992354882
 21
604.18176632391669
  0
LINE
  8
_0-0_計極細
  6
CONTINUOUS
 62
    2
 10
372.43374992354882
 20
604.18176632391635
 11
372.43374992354882
 21
610.18176632391692
  0
LINE
  8
_0-0_計極細
  6
CONTINUOUS
 62
    2
 10
377.43374992354882
 20
596.1817663239168
 11
377.43374992354882
 21
590.18176632391658
  0
LINE
  8
_0-0_計極細
  6
CONTINUOUS
 62
    2
 10
372.43374992354882
 20
590.18176632391635
 11
372.43374992354882
 21
596.1817663239168
  0
LINE
  8
_0-0_計極細
  6
CONTINUOUS
 62
    2
 10
377.43374992354882
 20
582.1817663239168
 11
377.43374992354882
 21
576.18176632391658
  0
LINE
  8
_0-0_計極細
  6
CONTINUOUS
 62
    2
 10
372.43374992354882
 20
576.18176632391635
 11
372.43374992354882
 21
582.1817663239168
  0
LINE
  8
_0-0_計極細
  6
CONTINUOUS
 62
    2
 10
377.43374992354882
 20
568.1817663239168
 11
377.43374992354882
 21
562.18176632391658
  0
LINE
  8
_0-0_計極細
  6
CONTINUOUS
 62
    2
 10
372.43374992354882
 20
562.18176632391635
 11
372.43374992354882
 21
568.1817663239168
  0
LINE
  8
_0-1_計細線
  6
CONTINUOUS
 62
    3
 10
471.43374992354927
 20
554.18176632391726
 11
324.8953909156138
 21
554.18176632391726
  0
LINE
  8
_0-1_計細線
  6
CONTINUOUS
 62
    3
 10
471.43374992354927
 20
750.18176632391726
 11
322.80992137745437
 21
750.18176632391726
  0
LINE
  8
_0-1_計細線
  6
CONTINUOUS
 62
    3
 10
321.2799226863616
 20
744.18176632391703
 11
471.43374992354927
 21
744.18176632391703
  0
LINE
  8
_0-1_計細線
  6
CONTINUOUS
 62
    3
 10
471.43374992354927
 20
736.18176632391726
 11
319.39877649444031
 21
736.18176632391726
  0
LINE
  8
_0-1_計細線
  6
CONTINUOUS
 62
    3
 10
318.15153289514717
 20
730.18176632391726
 11
471.43374992354927
 21
730.18176632391726
  0
LINE
  8
_0-1_計細線
  6
CONTINUOUS
 62
    3
 10
471.43374992354927
 20
722.18176632391771
 11
316.81875453874261
 21
722.18176632391771
  0
LINE
  8
_0-1_計細線
  6
CONTINUOUS
 62
    3
 10
316.11922844192839
 20
716.18176632391726
 11
471.43374992354927
 21
716.18176632391726
  0
LINE
  8
_0-1_計細線
  6
CONTINUOUS
 62
    3
 10
471.43374992354927
 20
708.1817663239176
 11
315.65246041336638
 21
708.1817663239176
  0
LINE
  8
_0-1_計細線
  6
CONTINUOUS
 62
    3
 10
315.73480861778069
 20
702.18176632391737
 11
471.43374992354927
 21
702.18176632391737
  0
LINE
  8
_0-1_計細線
  6
CONTINUOUS
 62
    3
 10
471.43374992354927
 20
694.18176632391749
 11
316.39012762642585
 21
694.18176632391749
  0
LINE
  8
_0-1_計細線
  6
CONTINUOUS
 62
    3
 10
317.23727419712066
 20
688.18176632391715
 11
471.43374992354927
 21
688.18176632391715
  0
LINE
  8
_0-1_計細線
  6
CONTINUOUS
 62
    3
 10
471.43374992354927
 20
680.18176632391726
 11
318.75727163097821
 21
680.18176632391726
  0
LINE
  8
_0-1_計細線
  6
CONTINUOUS
 62
    3
 10
320.12707026673331
 20
674.18176632391703
 11
471.43374992354927
 21
674.18176632391703
  0
LINE
  8
_0-1_計細線
  6
CONTINUOUS
 62
    3
 10
471.43374992354927
 20
666.18176632391726
 11
322.17789794470031
 21
666.18176632391726
  0
LINE
  8
_0-1_計細線
  6
CONTINUOUS
 62
    3
 10
323.81799341238315
 20
660.18176632391703
 11
471.43374992354927
 21
660.18176632391703
  0
LINE
  8
_0-1_計細線
  6
CONTINUOUS
 62
    3
 10
471.43374992354927
 20
652.18176632391737
 11
326.00167577243963
 21
652.18176632391737
  0
LINE
  8
_0-1_計細線
  6
CONTINUOUS
 62
    3
 10
327.57506694533811
 20
646.18176632391715
 11
471.43374992354927
 21
646.18176632391715
  0
LINE
  8
_0-1_計細線
  6
CONTINUOUS
 62
    3
 10
471.43374992354927
 20
638.18176632391726
 11
329.55632834305504
 21
638.18176632391726
  0
LINE
  8
_0-1_計細線
  6
CONTINUOUS
 62
    3
 10
330.90933537685976
 20
632.18176632391703
 11
471.43374992354927
 21
632.18176632391703
  0
LINE
  8
_0-1_計細線
  6
CONTINUOUS
 62
    3
 10
471.43374992354927
 20
624.18176632391726
 11
332.43212420076304
 21
624.18176632391726
  0
LINE
  8
_0-1_計細線
  6
CONTINUOUS
 62
    3
 10
333.30714931791442
 20
618.18176632391703
 11
471.43374992354927
 21
618.18176632391703
  0
LINE
  8
_0-1_計細線
  6
CONTINUOUS
 62
    3
 10
471.43374992354927
 20
610.18176632391726
 11
334.05971077646734
 21
610.18176632391726
  0
LINE
  8
_0-1_計細線
  6
CONTINUOUS
 62
    3
 10
334.23328459063436
 20
604.18176632391703
 11
471.43374992354927
 21
604.18176632391703
  0
LINE
  8
_0-1_計細線
  6
CONTINUOUS
 62
    3
 10
471.43374992354927
 20
596.18176632391726
 11
333.88540441191878
 21
596.18176632391726
  0
LINE
  8
_0-1_計細線
  6
CONTINUOUS
 62
    3
 10
333.2252925222391
 20
590.18176632391703
 11
471.43374992354927
 21
590.18176632391703
  0
LINE
  8
_0-1_計細線
  6
CONTINUOUS
 62
    3
 10
471.43374992354927
 20
582.18176632391737
 11
331.9203451593466
 21
582.18176632391737
  0
LINE
  8
_0-1_計細線
  6
CONTINUOUS
 62
    3
 10
330.67384757023541
 20
576.18176632391715
 11
471.43374992354927
 21
576.18176632391715
  0
LINE
  8
_0-1_計細線
  6
CONTINUOUS
 62
    3
 10
471.43374992354927
 20
568.18176632391726
 11
328.74071139425348
 21
568.18176632391726
  0
LINE
  8
_0-1_計細線
  6
CONTINUOUS
 62
    3
 10
327.15162212488337
 20
562.18176632391703
 11
471.43374992354927
 21
562.18176632391703
  0
LINE
  8
_0-0_計極細
  6
CONTINUOUS
 62
    2
 10
1077.4337499235489
 20
750.1817663239176
 11
1077.4337499235489
 21
744.18176632391737
  0
LINE
  8
_0-0_計極細
  6
CONTINUOUS
 62
    2
 10
1072.4337499235489
 20
744.18176632391703
 11
1072.4337499235489
 21
750.1817663239176
  0
LINE
  8
_0-0_計極細
  6
CONTINUOUS
 62
    2
 10
1077.4337499235489
 20
736.18176632391749
 11
1077.4337499235489
 21
730.18176632391703
  0
LINE
  8
_0-0_計極細
  6
CONTINUOUS
 62
    2
 10
1072.4337499235489
 20
730.18176632391703
 11
1072.4337499235489
 21
736.18176632391749
  0
LINE
  8
_0-0_計極細
  6
CONTINUOUS
 62
    2
 10
1077.4337499235489
 20
722.18176632391749
 11
1077.4337499235489
 21
716.18176632391715
  0
LINE
  8
_0-0_計極細
  6
CONTINUOUS
 62
    2
 10
1072.4337499235489
 20
716.18176632391715
 11
1072.4337499235489
 21
722.18176632391749
  0
LINE
  8
_0-0_計極細
  6
CONTINUOUS
 62
    2
 10
1077.4337499235489
 20
708.18176632391715
 11
1077.4337499235489
 21
702.18176632391692
  0
LINE
  8
_0-0_計極細
  6
CONTINUOUS
 62
    2
 10
1072.4337499235489
 20
702.18176632391658
 11
1072.4337499235489
 21
708.18176632391715
  0
LINE
  8
_0-0_計極細
  6
CONTINUOUS
 62
    2
 10
1077.4337499235489
 20
694.18176632391703
 11
1077.4337499235489
 21
688.1817663239168
  0
LINE
  8
_0-0_計極細
  6
CONTINUOUS
 62
    2
 10
1072.4337499235489
 20
688.18176632391658
 11
1072.4337499235489
 21
694.18176632391703
  0
LINE
  8
_0-0_計極細
  6
CONTINUOUS
 62
    2
 10
1077.4337499235489
 20
680.18176632391703
 11
1077.4337499235489
 21
674.1817663239168
  0
LINE
  8
_0-0_計極細
  6
CONTINUOUS
 62
    2
 10
1072.4337499235489
 20
674.18176632391669
 11
1072.4337499235489
 21
680.18176632391703
  0
LINE
  8
_0-0_計極細
  6
CONTINUOUS
 62
    2
 10
1077.4337499235489
 20
666.18176632391715
 11
1077.4337499235489
 21
660.18176632391692
  0
LINE
  8
_0-0_計極細
  6
CONTINUOUS
 62
    2
 10
1072.4337499235489
 20
660.18176632391658
 11
1072.4337499235489
 21
666.18176632391715
  0
LINE
  8
_0-0_計極細
  6
CONTINUOUS
 62
    2
 10
1077.4337499235489
 20
652.18176632391703
 11
1077.4337499235489
 21
646.1817663239168
  0
LINE
  8
_0-0_計極細
  6
CONTINUOUS
 62
    2
 10
1072.4337499235489
 20
646.18176632391669
 11
1072.4337499235489
 21
652.18176632391703
  0
LINE
  8
_0-0_計極細
  6
CONTINUOUS
 62
    2
 10
1077.4337499235489
 20
638.18176632391703
 11
1077.4337499235489
 21
632.1817663239168
  0
LINE
  8
_0-0_計極細
  6
CONTINUOUS
 62
    2
 10
1072.4337499235489
 20
632.18176632391658
 11
1072.4337499235489
 21
638.18176632391703
  0
LINE
  8
_0-0_計極細
  6
CONTINUOUS
 62
    2
 10
1077.4337499235489
 20
624.18176632391703
 11
1077.4337499235489
 21
618.1817663239168
  0
LINE
  8
_0-0_計極細
  6
CONTINUOUS
 62
    2
 10
1072.4337499235489
 20
618.18176632391658
 11
1072.4337499235489
 21
624.18176632391703
  0
LINE
  8
_0-1_計細線
  6
CONTINUOUS
 62
    3
 10
1124.9337499235489
 20
758.18176632391726
 11
978.43374992354882
 21
758.18176632391726
  0
LINE
  8
_0-1_計細線
  6
CONTINUOUS
 62
    3
 10
1134.03633517871
 20
716.18176632391749
 11
978.43374992354882
 21
716.18176632391749
  0
LINE
  8
_0-0_計極細
  6
CONTINUOUS
 62
    2
 10
1077.4337499235489
 20
610.18176632391703
 11
1077.4337499235489
 21
604.1817663239168
  0
LINE
  8
_0-0_計極細
  6
CONTINUOUS
 62
    2
 10
1072.4337499235489
 20
604.18176632391669
 11
1072.4337499235489
 21
610.18176632391703
  0
LINE
  8
_0-0_計極細
  6
CONTINUOUS
 62
    2
 10
1077.4337499235489
 20
596.18176632391715
 11
1077.4337499235489
 21
590.18176632391692
  0
LINE
  8
_0-0_計極細
  6
CONTINUOUS
 62
    2
 10
1072.4337499235489
 20
590.18176632391658
 11
1072.4337499235489
 21
596.18176632391715
  0
LINE
  8
_0-0_計極細
  6
CONTINUOUS
 62
    2
 10
1077.4337499235489
 20
582.18176632391703
 11
1077.4337499235489
 21
576.1817663239168
  0
LINE
  8
_0-0_計極細
  6
CONTINUOUS
 62
    2
 10
1072.4337499235489
 20
576.18176632391658
 11
1072.4337499235489
 21
582.18176632391703
  0
LINE
  8
_0-0_計極細
  6
CONTINUOUS
 62
    2
 10
1077.4337499235489
 20
568.18176632391703
 11
1077.4337499235489
 21
562.1817663239168
  0
LINE
  8
_0-0_計極細
  6
CONTINUOUS
 62
    2
 10
1072.4337499235489
 20
562.18176632391658
 11
1072.4337499235489
 21
568.18176632391703
  0
LINE
  8
_0-1_計細線
  6
CONTINUOUS
 62
    3
 10
978.43374992354882
 20
554.18176632391749
 11
1124.998890229881
 21
554.18176632391749
  0
LINE
  8
_0-1_計細線
  6
CONTINUOUS
 62
    3
 10
978.43374992354882
 20
750.1817663239176
 11
1127.0575784696439
 21
750.1817663239176
  0
LINE
  8
_0-1_計細線
  6
CONTINUOUS
 62
    3
 10
1128.5875771607366
 20
744.18176632391737
 11
978.43374992354882
 21
744.18176632391737
  0
LINE
  8
_0-1_計細線
  6
CONTINUOUS
 62
    3
 10
978.43374992354882
 20
736.18176632391749
 11
1130.4687233526574
 21
736.18176632391749
  0
LINE
  8
_0-1_計細線
  6
CONTINUOUS
 62
    3
 10
1131.7159669519515
 20
730.1817663239176
 11
978.43374992354882
 21
730.1817663239176
  0
LINE
  8
_0-1_計細線
  6
CONTINUOUS
 62
    3
 10
978.43374992354882
 20
722.18176632391805
 11
1133.048745308356
 21
722.18176632391805
  0
LINE
  8
_0-1_計細線
  6
CONTINUOUS
 62
    3
 10
978.43374992354882
 20
708.18176632391771
 11
1134.2150394337323
 21
708.18176632391771
  0
LINE
  8
_0-1_計細線
  6
CONTINUOUS
 62
    3
 10
1134.132691229318
 20
702.18176632391749
 11
978.43374992354882
 21
702.18176632391749
  0
LINE
  8
_0-1_計細線
  6
CONTINUOUS
 62
    3
 10
978.43374992354882
 20
694.18176632391783
 11
1133.4773722206719
 21
694.18176632391783
  0
LINE
  8
_0-1_計細線
  6
CONTINUOUS
 62
    3
 10
1132.6302256499775
 20
688.18176632391726
 11
978.43374992354882
 21
688.18176632391726
  0
LINE
  8
_0-1_計細線
  6
CONTINUOUS
 62
    3
 10
978.43374992354882
 20
680.1817663239176
 11
1131.11022821612
 21
680.1817663239176
  0
LINE
  8
_0-1_計細線
  6
CONTINUOUS
 62
    3
 10
1129.7404295803653
 20
674.18176632391737
 11
978.43374992354882
 21
674.18176632391737
  0
LINE
  8
_0-1_計細線
  6
CONTINUOUS
 62
    3
 10
978.43374992354882
 20
666.18176632391749
 11
1127.689601902398
 21
666.18176632391749
  0
LINE
  8
_0-1_計細線
  6
CONTINUOUS
 62
    3
 10
1126.0495064347151
 20
660.18176632391726
 11
978.43374992354882
 21
660.18176632391726
  0
LINE
  8
_0-1_計細線
  6
CONTINUOUS
 62
    3
 10
978.43374992354882
 20
652.18176632391749
 11
1123.8658240746581
 21
652.18176632391749
  0
LINE
  8
_0-1_計細線
  6
CONTINUOUS
 62
    3
 10
1122.2924329017596
 20
646.18176632391726
 11
978.43374992354882
 21
646.18176632391726
  0
LINE
  8
_0-1_計細線
  6
CONTINUOUS
 62
    3
 10
978.43374992354882
 20
638.1817663239176
 11
1120.3111715040432
 21
638.1817663239176
  0
LINE
  8
_0-1_計細線
  6
CONTINUOUS
 62
    3
 10
1118.9581644702384
 20
632.18176632391737
 11
978.43374992354882
 21
632.18176632391737
  0
LINE
  8
_0-1_計細線
  6
CONTINUOUS
 62
    3
 10
978.43374992354882
 20
624.18176632391749
 11
1117.4353756463352
 21
624.18176632391749
  0
LINE
  8
_0-1_計細線
  6
CONTINUOUS
 62
    3
 10
1116.5603505291838
 20
618.18176632391726
 11
978.43374992354882
 21
618.18176632391726
  0
LINE
  8
_0-1_計細線
  6
CONTINUOUS
 62
    3
 10
978.43374992354882
 20
610.18176632391749
 11
1115.8077890706309
 21
610.18176632391749
  0
LINE
  8
_0-1_計細線
  6
CONTINUOUS
 62
    3
 10
1115.6342152564639
 20
604.18176632391726
 11
978.43374992354882
 21
604.18176632391726
  0
LINE
  8
_0-1_計細線
  6
CONTINUOUS
 62
    3
 10
978.43374992354882
 20
596.18176632391749
 11
1115.9820954351794
 21
596.18176632391749
  0
LINE
  8
_0-1_計細線
  6
CONTINUOUS
 62
    3
 10
1116.6422073248586
 20
590.18176632391726
 11
978.43374992354882
 21
590.18176632391726
  0
LINE
  8
_0-1_計細線
  6
CONTINUOUS
 62
    3
 10
978.43374992354882
 20
582.18176632391749
 11
1117.9471546877512
 21
582.18176632391749
  0
LINE
  8
_0-1_計細線
  6
CONTINUOUS
 62
    3
 10
1119.1936522768628
 20
576.18176632391726
 11
978.43374992354882
 21
576.18176632391726
  0
LINE
  8
_0-1_計細線
  6
CONTINUOUS
 62
    3
 10
978.43374992354882
 20
568.1817663239176
 11
1121.1267884528443
 21
568.1817663239176
  0
LINE
  8
_0-1_計細線
  6
CONTINUOUS
 62
    3
 10
1122.7158777222148
 20
562.18176632391737
 11
978.43374992354882
 21
562.18176632391737
  0
TEXT
  8
_0-5_寸法線
 62
    7
 10
593.67073231849054
 20
493.66624679621293
 40
15
 41
0.8000000000000001
 50
0
  1
ＧＳＬ－１５
  0
TEXT
  8
_0-5_寸法線
 62
    7
 10
813.27081865291473
 20
493.66624679621293
 40
15
 41
0.8000000000000001
 50
0
  1
ＧＳＴ－１５Ｗ２０４
  0
TEXT
  8
_0-7_枠細線
 62
    5
 10
965.50000000000011
 20
110
 40
20
 41
0.6
 50
0
  1
ＧＳＴ－１５Ｗ２０４
  0
TEXT
  8
_0-7_枠細線
 62
    5
 10
965.49999999999966
 20
70
 40
20.000000000000004
 41
0.5999999999999997
 50
0
  1
表面形状については記号表参照のこと
  0
LINE
  8
_0-7_枠細線
  6
CONTINUOUS
 62
    5
 10
1409.4018171150183
 20
328.47321710336234
 11
1409.4018171150183
 21
223.47321710336274
  0
TEXT
  8
_0-7_枠細線
 62
    5
 10
1318.4018171150192
 20
308.47321710336234
 40
15.000000000000002
 41
0.8
 50
0
  1
ノンスリップ
  0
TEXT
  8
_0-7_枠細線
 62
    5
 10
1330.4018171150185
 20
283.47321710336234
 40
15.000000000000002
 41
0.8
 50
0
  1
品番－Ｄ
  0
LINE
  8
_0-7_枠細線
  6
CONTINUOUS
 62
    5
 10
1299.4018171150176
 20
328.47321710336234
 11
1299.4018171150176
 21
223.47321710336274
  0
TEXT
  8
_0-7_枠細線
 62
    5
 10
1220.4018171150176
 20
308.4732171033624
 40
15.000000000000002
 41
0.8
 50
0
  1
プレーン
  0
TEXT
  8
_0-7_枠細線
 62
    5
 10
1220.4018171150183
 20
283.47321710336234
 40
15.000000000000002
 41
0.8
 50
0
  1
品番－Ｆ
  0
TEXT
  8
_0-7_枠細線
 62
    5
 10
1140.4018171150178
 20
308.47321710336234
 40
15.000000000000002
 41
0.8
 50
0
  1
タ イ プ
  0
LINE
  8
_0-7_枠細線
  6
CONTINUOUS
 62
    5
 10
1139.4018171150171
 20
278.47321710336234
 11
1409.4018171150183
 21
278.47321710336234
  0
LINE
  8
_0-7_枠細線
  6
CONTINUOUS
 62
    5
 10
1139.4018171150171
 20
303.47321710336234
 11
1409.4018171150183
 21
303.47321710336234
  0
LINE
  8
_0-7_枠細線
  6
CONTINUOUS
 62
    5
 10
1139.4018171150171
 20
328.47321710336234
 11
1409.4018171150183
 21
328.47321710336234
  0
LINE
  8
_0-7_枠細線
  6
CONTINUOUS
 62
    5
 10
1139.4018171150171
 20
223.47321710336274
 11
1409.4018171150183
 21
223.47321710336274
  0
LINE
  8
_0-7_枠細線
  6
CONTINUOUS
 62
    5
 10
1189.401817115018
 20
328.47321710336234
 11
1189.401817115018
 21
223.47321710336274
  0
LINE
  8
_0-7_枠細線
  6
CONTINUOUS
 62
    5
 10
1139.4018171150171
 20
328.47321710336234
 11
1139.4018171150171
 21
223.47321710336274
  0
TEXT
  8
_0-7_枠細線
 62
    5
 10
1140.4018171150178
 20
243.47321710336257
 40
15.000000000000002
 41
0.8
 50
0
  1
表面形状
  0
TEXT
  8
_0-7_枠細線
 62
    5
 10
1147.1760284558284
 20
330.9732171033624
 40
17.500000000000004
 41
0.7999999999999996
 50
0
  1
記号表
  0
TEXT
  8
_0-7_枠細線
 62
    5
 10
1140.4018171150178
 20
283.47321710336246
 40
15.000000000000002
 41
0.8
 50
0
  1
記　　号
  0
ARC
  8
_0-7_枠細線
  6
CONTINUOUS
 62
    5
 10
1282.9664605906701
 20
242.85777402966897
 40
12.026499332130607
 50
317.5616290000047
 51
42.438370999994966
  0
ARC
  8
_0-7_枠細線
  6
CONTINUOUS
 62
    5
 10
1300.7176602555626
 20
259.08866002804609
 40
12.026499332130607
 50
137.56162900000001
 51
222.43837100000297
  0
ARC
  8
_0-7_枠細線
  6
CONTINUOUS
 62
    5
 10
1188.0859738141414
 20
242.85777402966897
 40
12.026499332130607
 50
317.5616290000047
 51
42.438370999994966
  0
ARC
  8
_0-7_枠細線
  6
CONTINUOUS
 62
    5
 10
1205.8371734790339
 20
259.08866002804609
 40
12.026499332130607
 50
137.56162900000001
 51
222.43837100000297
  0
LINE
  8
_0-7_枠細線
  6
CONTINUOUS
 62
    5
 10
1194.4553061852555
 20
262.97321702885733
 11
1289.3357929617841
 21
262.97321702885733
  0
LINE
  8
_0-7_枠細線
  6
CONTINUOUS
 62
    5
 10
1294.3483278844483
 20
238.97321702885733
 11
1199.4678411079199
 21
238.97321702885733
  0
ARC
  8
_0-7_枠細線
  6
CONTINUOUS
 62
    5
 10
1392.9664605906705
 20
242.85777402966897
 40
12.026499332130607
 50
317.5616290000047
 51
42.438370999994966
  0
ARC
  8
_0-7_枠細線
  6
CONTINUOUS
 62
    5
 10
1410.7176602555633
 20
259.08866002804609
 40
12.026499332130607
 50
137.56162900000001
 51
222.43837100000297
  0
ARC
  8
_0-7_枠細線
  6
CONTINUOUS
 62
    5
 10
1298.0859738141419
 20
242.85777402966897
 40
12.026499332130607
 50
317.5616290000047
 51
42.438370999994966
  0
ARC
  8
_0-7_枠細線
  6
CONTINUOUS
 62
    5
 10
1315.8371734790344
 20
259.08866002804609
 40
12.026499332130607
 50
137.56162900000001
 51
222.43837100000297
  0
LINE
  8
_0-7_枠細線
  6
CONTINUOUS
 62
    5
 10
1304.4553061852559
 20
262.97321702885733
 11
1399.3357929617844
 21
262.97321702885733
  0
LINE
  8
_0-7_枠細線
  6
CONTINUOUS
 62
    5
 10
1404.3483278844487
 20
238.97321702885733
 11
1309.4678411079203
 21
238.97321702885733
  0
LINE
  8
_0-7_枠細線
  6
CONTINUOUS
 62
    5
 10
1310.0055655050664
 20
244.4577803132122
 11
1315.4901287894211
 21
238.9732170288575
  0
LINE
  8
_0-7_枠細線
  6
CONTINUOUS
 62
    5
 10
1304.3960893257236
 20
262.79517855391305
 11
1328.218050850779
 21
238.97321702885748
  0
LINE
  8
_0-7_枠細線
  6
CONTINUOUS
 62
    5
 10
1316.9459729121368
 20
262.97321702885756
 11
1340.9459729121365
 21
238.97321702885748
  0
LINE
  8
_0-7_枠細線
  6
CONTINUOUS
 62
    5
 10
1329.6738949734945
 20
262.97321702885745
 11
1353.6738949734943
 21
238.97321702885748
  0
LINE
  8
_0-7_枠細線
  6
CONTINUOUS
 62
    5
 10
1342.4018170348522
 20
262.97321702885745
 11
1366.4018170348522
 21
238.97321702885745
  0
LINE
  8
_0-7_枠細線
  6
CONTINUOUS
 62
    5
 10
1355.12973909621
 20
262.97321702885739
 11
1379.1297390962097
 21
238.97321702885739
  0
LINE
  8
_0-7_枠細線
  6
CONTINUOUS
 62
    5
 10
1367.8576611575679
 20
262.97321702885739
 11
1391.8576611575677
 21
238.97321702885739
  0
LINE
  8
_0-7_枠細線
  6
CONTINUOUS
 62
    5
 10
1380.5855832189259
 20
262.97321702885739
 11
1404.4075447439811
 21
239.15125550380145
  0
LINE
  8
_0-7_枠細線
  6
CONTINUOUS
 62
    5
 10
1393.3135052802834
 20
262.97321702885733
 11
1398.7980685646385
 21
257.48865374450207
  0
LINE
  8
_0-7_枠細線
  6
CONTINUOUS
 62
    5
 10
1393.3135052802841
 20
238.97321702885739
 11
1403.3188705607758
 21
248.97858230934932
  0
LINE
  8
_0-7_枠細線
  6
CONTINUOUS
 62
    5
 10
1380.5855832189261
 20
238.97321702885739
 11
1398.8365633238177
 21
257.22419713374904
  0
LINE
  8
_0-7_枠細線
  6
CONTINUOUS
 62
    5
 10
1367.8576611575681
 20
238.97321702885745
 11
1391.8576611575681
 21
262.97321702885733
  0
LINE
  8
_0-7_枠細線
  6
CONTINUOUS
 62
    5
 10
1355.1297390962104
 20
238.97321702885748
 11
1379.1297390962106
 21
262.97321702885739
  0
LINE
  8
_0-7_枠細線
  6
CONTINUOUS
 62
    5
 10
1342.4018170348527
 20
238.97321702885748
 11
1366.4018170348525
 21
262.97321702885739
  0
LINE
  8
_0-7_枠細線
  6
CONTINUOUS
 62
    5
 10
1329.6738949734947
 20
238.97321702885748
 11
1353.6738949734947
 21
262.97321702885739
  0
LINE
  8
_0-7_枠細線
  6
CONTINUOUS
 62
    5
 10
1316.9459729121372
 20
238.9732170288575
 11
1340.9459729121372
 21
262.97321702885745
  0
LINE
  8
_0-7_枠細線
  6
CONTINUOUS
 62
    5
 10
1309.9670707458872
 20
244.72223692396568
 11
1328.218050850779
 21
262.97321702885745
  0
LINE
  8
_0-7_枠細線
  6
CONTINUOUS
 62
    5
 10
1305.4847635089295
 20
252.96785174836555
 11
1315.4901287894213
 21
262.97321702885756
  0
LINE
  8
_0-a_極細3
  6
CONTINUOUS
 62
    7
 10
652.5973264368389
 20
256.56810602460041
 11
648.76399310350553
 21
256.56810602460041
  0
LINE
  8
_0-a_極細3
  6
CONTINUOUS
 62
    7
 10
652.5973264368389
 20
259.9014393579339
 11
648.76399310350553
 21
259.9014393579339
  0
LINE
  8
_0-a_極細3
  6
CONTINUOUS
 62
    7
 10
652.5973264368389
 20
253.23477269126715
 11
648.76399310350553
 21
253.23477269126715
  0
LINE
  8
_0-a_極細3
  6
CONTINUOUS
 62
    7
 10
652.5973264368389
 20
263.23477269126715
 11
648.76399310350553
 21
263.23477269126715
  0
LINE
  8
_0-a_極細3
  6
CONTINUOUS
 62
    7
 10
648.76399310350553
 20
229.9014393579339
 11
652.5973264368389
 21
229.9014393579339
  0
LINE
  8
_0-a_極細3
  6
CONTINUOUS
 62
    7
 10
652.5973264368389
 20
279.9014393579339
 11
648.76399310350553
 21
279.9014393579339
  0
LINE
  8
_0-b_細線3
  6
CONTINUOUS
 62
    7
 10
648.76399310350553
 20
283.23477269126715
 11
648.76399310350553
 21
224.9014393579339
  0
LINE
  8
_0-b_細線3
  6
CONTINUOUS
 62
    7
 10
648.76399310350553
 20
224.9014393579339
 11
652.5973264368389
 21
224.9014393579339
  0
LINE
  8
_0-b_細線3
  6
CONTINUOUS
 62
    7
 10
652.5973264368389
 20
224.9014393579339
 11
652.5973264368389
 21
283.23477269126715
  0
LINE
  8
_0-b_細線3
  6
CONTINUOUS
 62
    7
 10
652.5973264368389
 20
283.23477269126715
 11
648.76399310350553
 21
283.23477269126715
  0
LINE
  8
_0-7_枠細線
  6
CONTINUOUS
 62
    5
 10
671.68319453007837
 20
260.96352268742118
 11
664.18319453007837
 21
275.96352268742118
  0
LINE
  8
_0-7_枠細線
  6
CONTINUOUS
 62
    5
 10
656.68319453007837
 20
260.96352268742118
 11
671.68319453007837
 21
260.96352268742118
  0
LINE
  8
_0-7_枠細線
  6
CONTINUOUS
 62
    5
 10
664.18319453007837
 20
275.96352268742118
 11
656.68319453007837
 21
260.96352268742118
  0
TEXT
  8
_0-7_枠細線
 62
    5
 10
659.04834579822648
 20
260.65652044204063
 40
12.5
 41
0.8
 50
0
  1
１
  0
LINE
  8
_0-a_極細3
  6
CONTINUOUS
 62
    7
 10
288.26399310350564
 20
256.56810602460041
 11
292.0973264368389
 21
256.56810602460041
  0
LINE
  8
_0-a_極細3
  6
CONTINUOUS
 62
    7
 10
288.26399310350564
 20
259.9014393579339
 11
292.0973264368389
 21
259.9014393579339
  0
LINE
  8
_0-a_極細3
  6
CONTINUOUS
 62
    7
 10
288.26399310350564
 20
253.23477269126715
 11
292.0973264368389
 21
253.23477269126715
  0
LINE
  8
_0-a_極細3
  6
CONTINUOUS
 62
    7
 10
288.26399310350564
 20
263.23477269126715
 11
292.0973264368389
 21
263.23477269126715
  0
LINE
  8
_0-a_極細3
  6
CONTINUOUS
 62
    7
 10
292.0973264368389
 20
229.9014393579339
 11
288.26399310350564
 21
229.9014393579339
  0
LINE
  8
_0-a_極細3
  6
CONTINUOUS
 62
    7
 10
288.26399310350564
 20
279.9014393579339
 11
292.0973264368389
 21
279.9014393579339
  0
LINE
  8
_0-b_細線3
  6
CONTINUOUS
 62
    7
 10
292.0973264368389
 20
283.23477269126715
 11
292.0973264368389
 21
224.9014393579339
  0
LINE
  8
_0-b_細線3
  6
CONTINUOUS
 62
    7
 10
292.0973264368389
 20
224.9014393579339
 11
288.26399310350564
 21
224.9014393579339
  0
LINE
  8
_0-b_細線3
  6
CONTINUOUS
 62
    7
 10
288.26399310350564
 20
224.9014393579339
 11
288.26399310350564
 21
283.23477269126715
  0
LINE
  8
_0-b_細線3
  6
CONTINUOUS
 62
    7
 10
288.26399310350564
 20
283.23477269126715
 11
292.0973264368389
 21
283.23477269126715
  0
LINE
  8
_0-9_枠極太
  6
CONTINUOUS
 62
    5
 10
60
 20
60
 11
60
 21
960
  0
LINE
  8
_0-9_枠極太
  6
CONTINUOUS
 62
    5
 10
60
 20
960
 11
1425
 21
960
  0
LINE
  8
_0-9_枠極太
  6
CONTINUOUS
 62
    5
 10
1425
 20
960
 11
1425
 21
60
  0
LINE
  8
_0-9_枠極太
  6
CONTINUOUS
 62
    5
 10
1425
 20
60
 11
60
 21
60
  0
LINE
  8
_0-7_枠細線
  6
CONTINUOUS
 62
    5
 10
1425
 20
907.5
 11
890
 21
907.5
  0
LINE
  8
_0-7_枠細線
  6
CONTINUOUS
 62
    5
 10
915
 20
908.94233397174708
 11
907.5
 21
923.94233397174708
  0
LINE
  8
_0-7_枠細線
  6
CONTINUOUS
 62
    5
 10
900
 20
908.94233397174708
 11
915
 21
908.94233397174708
  0
LINE
  8
_0-7_枠細線
  6
CONTINUOUS
 62
    5
 10
907.5
 20
923.94233397174708
 11
900
 21
908.94233397174708
  0
TEXT
  8
_0-7_枠細線
 62
    5
 10
902.36515126814822
 20
908.63533172636653
 40
12.5
 41
0.8
 50
0
  1
１
  0
TEXT
  8
_0-7_枠細線
 62
    5
 10
1180
 20
910
 40
12.5
 41
0.7199999999999999
 50
0
  1
２０１９．０９．０１
  0
TEXT
  8
_0-7_枠細線
 62
    5
 10
938.85037037037023
 20
910
 40
12.500000000000002
 41
1
 50
0
  1
アンカー材質･厚み変更
  0
LINE
  8
_0-7_枠細線
  6
CONTINUOUS
 62
    5
 10
890
 20
907.5
 11
890
 21
959.99999999999909
  0
LINE
  8
_0-7_枠細線
  6
CONTINUOUS
 62
    5
 10
925
 20
907.5
 11
925
 21
959.99999999999943
  0
LINE
  8
_0-7_枠細線
  6
CONTINUOUS
 62
    5
 10
1175
 20
907.5
 11
1175
 21
959.99999999999943
  0
LINE
  8
_0-7_枠細線
  6
CONTINUOUS
 62
    5
 10
1275
 20
907.5
 11
1275
 21
959.99999999999943
  0
LINE
  8
_0-5_寸法線
  6
CONTINUOUS
 62
    7
 10
1176.9337499235517
 20
549.18176632391567
 11
1221.9337499235517
 21
549.18176632391567
  0
LINE
  8
_0-5_寸法線
  6
CONTINUOUS
 62
    7
 10
1216.9337499235517
 20
549.18176632391567
 11
1219.5219403745768
 21
539.52250806102495
  0
LINE
  8
_0-5_寸法線
  6
CONTINUOUS
 62
    7
 10
1216.9337499235517
 20
549.18176632391567
 11
1214.3455594725265
 21
539.52250806102495
  0
LINE
  8
_0-5_寸法線
  6
CONTINUOUS
 62
    7
 10
1176.9337499235517
 20
552.18176632391737
 11
1221.9337499235517
 21
552.18176632391703
  0
CIRCLE
  8
_0-5_寸法線
  6
CONTINUOUS
 62
    1
 10
1216.9337499235517
 20
552.18176632391703
 40
1.5000000000000002
  0
LINE
  8
_0-5_寸法線
  6
CONTINUOUS
 62
    7
 10
1216.9337499235517
 20
524.18176632391567
 11
1216.9337499235517
 21
552.18176632391703
  0
TEXT
  8
_0-5_寸法線
 62
    7
 10
1216.9337499235517
 20
527.98123528189171
 40
15
 41
1
 50
90
  1
3
  0
LINE
  8
_0-5_寸法線
  6
CONTINUOUS
 62
    7
 10
1176.9337499235517
 20
554.18176632391703
 11
1221.9337499235517
 21
554.1817663239168
  0
LINE
  8
_0-5_寸法線
  6
CONTINUOUS
 62
    7
 10
1216.9337499235517
 20
552.18176632391703
 11
1216.9337499235517
 21
554.1817663239168
  0
TEXT
  8
_0-5_寸法線
 62
    7
 10
1235.5137427029363
 20
551.00898890699409
 40
15
 41
1
 50
90
  1
2
  0
LINE
  8
_0-5_寸法線
  6
CONTINUOUS
 62
    7
 10
1216.9337499235517
 20
554.1817663239168
 11
1214.3455594725265
 21
563.84102458680763
  0
LINE
  8
_0-5_寸法線
  6
CONTINUOUS
 62
    7
 10
1216.9337499235517
 20
554.1817663239168
 11
1219.5219403745768
 21
563.84102458680763
  0
LINE
  8
_0-5_寸法線
  6
CONTINUOUS
 62
    7
 10
1176.9337499235517
 20
758.18176632391715
 11
1221.9337499235517
 21
758.1817663239168
  0
LINE
  8
_0-5_寸法線
  6
CONTINUOUS
 62
    7
 10
1216.9337499235517
 20
758.1817663239168
 11
1219.5219403745768
 21
748.5225080610262
  0
LINE
  8
_0-5_寸法線
  6
CONTINUOUS
 62
    7
 10
1216.9337499235517
 20
758.1817663239168
 11
1214.3455594725265
 21
748.5225080610262
  0
LINE
  8
_0-5_寸法線
  6
CONTINUOUS
 62
    7
 10
1216.9337499235517
 20
554.1817663239168
 11
1216.9337499235517
 21
758.1817663239168
  0
TEXT
  8
_0-5_寸法線
 62
    7
 10
1216.9337499235517
 20
644.9317663239168
 40
15
 41
1
 50
90
  1
204
  0
LINE
  8
_0-5_寸法線
  6
CONTINUOUS
 62
    7
 10
1176.9337499235517
 20
760.18176632391703
 11
1221.9337499235517
 21
760.18176632391703
  0
CIRCLE
  8
_0-5_寸法線
  6
CONTINUOUS
 62
    1
 10
1216.9337499235517
 20
760.18176632391703
 40
1.5000000000000002
  0
LINE
  8
_0-5_寸法線
  6
CONTINUOUS
 62
    7
 10
1216.9337499235517
 20
758.1817663239168
 11
1216.9337499235517
 21
760.18176632391703
  0
TEXT
  8
_0-5_寸法線
 62
    7
 10
1235.2602721627695
 20
752.68176632391703
 40
15
 41
1
 50
90
  1
2
  0
LINE
  8
_0-5_寸法線
  6
CONTINUOUS
 62
    7
 10
1176.9337499235517
 20
763.18176632391567
 11
1221.9337499235517
 21
763.18176632391567
  0
LINE
  8
_0-5_寸法線
  6
CONTINUOUS
 62
    7
 10
1216.9337499235517
 20
763.18176632391567
 11
1214.3455594725265
 21
772.8410245868065
  0
LINE
  8
_0-5_寸法線
  6
CONTINUOUS
 62
    7
 10
1216.9337499235517
 20
763.18176632391567
 11
1219.5219403745768
 21
772.8410245868065
  0
LINE
  8
_0-5_寸法線
  6
CONTINUOUS
 62
    7
 10
1216.9337499235517
 20
760.18176632391703
 11
1216.9337499235517
 21
788.18176632391567
  0
TEXT
  8
_0-5_寸法線
 62
    7
 10
1216.9337499235517
 20
775.2036816840623
 40
15
 41
1
 50
90
  1
3
  0
LINE
  8
_0-d_寸法3
  6
CONTINUOUS
 62
    7
 10
292.0973264368389
 20
368.23477102292236
 11
282.4380681739483
 21
365.64658057189718
  0
LINE
  8
_0-d_寸法3
  6
CONTINUOUS
 62
    7
 10
292.0973264368389
 20
368.23477102292236
 11
282.4380681739483
 21
370.82296147394766
  0
LINE
  8
_0-d_寸法3
  6
CONTINUOUS
 62
    7
 10
297.0973264368389
 20
297.40143935793367
 11
297.0973264368389
 21
373.23477102292236
  0
CIRCLE
  8
_0-d_寸法3
  6
CONTINUOUS
 62
    1
 10
297.0973264368389
 20
368.23477102292236
 40
1.5000000000000002
  0
LINE
  8
_0-d_寸法3
  6
CONTINUOUS
 62
    7
 10
267.0973264368389
 20
368.23477102292236
 11
297.0973264368389
 21
368.23477102292236
  0
TEXT
  8
_0-d_寸法3
 62
    7
 10
270.95265849291582
 20
368.23477102292236
 40
15
 41
1
 50
0
  1
3
  0
LINE
  8
_0-d_寸法3
  6
CONTINUOUS
 62
    7
 10
300.43065977017204
 20
294.90143768958933
 11
300.4306597701725
 21
373.23477102292236
  0
LINE
  8
_0-d_寸法3
  6
CONTINUOUS
 62
    7
 10
297.0973264368389
 20
368.23477102292236
 11
300.4306597701725
 21
368.23477102292236
  0
TEXT
  8
_0-d_寸法3
 62
    7
 10
295.01399310350553
 20
368.23477102292236
 40
15
 41
1
 50
0
  1
2
  0
LINE
  8
_0-d_寸法3
  6
CONTINUOUS
 62
    7
 10
300.4306597701725
 20
368.23477102292236
 11
310.08991803306316
 21
370.82296147394754
  0
LINE
  8
_0-d_寸法3
  6
CONTINUOUS
 62
    7
 10
300.4306597701725
 20
368.23477102292236
 11
310.08991803306316
 21
365.64658057189718
  0
LINE
  8
_0-d_寸法3
  6
CONTINUOUS
 62
    7
 10
640.43065977017204
 20
294.90143768958933
 11
640.43065977017204
 21
373.23477102292236
  0
LINE
  8
_0-d_寸法3
  6
CONTINUOUS
 62
    7
 10
640.43065977017204
 20
368.23477102292236
 11
630.77140150728133
 21
365.64658057189718
  0
LINE
  8
_0-d_寸法3
  6
CONTINUOUS
 62
    7
 10
640.43065977017204
 20
368.23477102292236
 11
630.77140150728133
 21
370.82296147394766
  0
LINE
  8
_0-d_寸法3
  6
CONTINUOUS
 62
    7
 10
300.4306597701725
 20
368.23477102292236
 11
640.43065977017204
 21
368.23477102292236
  0
TEXT
  8
_0-d_寸法3
 62
    7
 10
459.18065977017199
 20
368.23477102292236
 40
15
 41
1
 50
0
  1
204
  0
LINE
  8
_0-d_寸法3
  6
CONTINUOUS
 62
    7
 10
643.76399310350519
 20
297.40143935793367
 11
643.7639931035061
 21
373.23477102292236
  0
CIRCLE
  8
_0-d_寸法3
  6
CONTINUOUS
 62
    1
 10
643.7639931035061
 20
368.23477102292236
 40
1.5000000000000002
  0
LINE
  8
_0-d_寸法3
  6
CONTINUOUS
 62
    7
 10
640.43065977017204
 20
368.23477102292236
 11
643.7639931035061
 21
368.23477102292236
  0
TEXT
  8
_0-d_寸法3
 62
    7
 10
638.34732643683901
 20
368.23477102292236
 40
15
 41
1
 50
0
  1
2
  0
LINE
  8
_0-d_寸法3
  6
CONTINUOUS
 62
    7
 10
648.7639931035061
 20
368.23477102292236
 11
658.4232513663967
 21
370.82296147394749
  0
LINE
  8
_0-d_寸法3
  6
CONTINUOUS
 62
    7
 10
648.7639931035061
 20
368.23477102292236
 11
658.4232513663967
 21
365.64658057189712
  0
LINE
  8
_0-d_寸法3
  6
CONTINUOUS
 62
    7
 10
643.7639931035061
 20
368.23477102292236
 11
673.7639931035061
 21
368.23477102292236
  0
TEXT
  8
_0-d_寸法3
 62
    7
 10
662.44825384242984
 20
368.23477102292236
 40
15
 41
1
 50
0
  1
3
  0
ENDSEC
  0
EOF
