  0
SECTION
  2
HEADER
  9
$ACADVER
  1
AC1009
  9
$INSBASE
 10
0
 20
0
 30
0
  9
$EXTMIN
 10
0
 20
0
  9
$EXTMAX
 10
1485
 20
1050
  9
$LIMMIN
 10
0
 20
0
  9
$LIMMAX
 10
1485
 20
1050
  9
$LTSCALE
 40
5
  0
ENDSEC
  0
SECTION
  2
TABLES
  0
TABLE
  2
LTYPE
 70
     9
  0
LTYPE
  2
CONTINUOUS
 70
    64
  3
実線
 72
    65
 73
     0
 40
0.0
  0
LTYPE
  2
DASHED1
 70
    64
  3
--  --  --  --  --  --  --  --  
 72
    65
 73
     2
 40
2.5
 49
1.25
 49
-1.25
  0
LTYPE
  2
DASHED2
 70
    64
  3
----    ----    ----    ----    
 72
    65
 73
     2
 40
5.0
 49
2.5
 49
-2.5
  0
LTYPE
  2
DASHED3
 70
    64
  3
------  ------  ------  ------  
 72
    65
 73
     2
 40
5.0
 49
3.75
 49
-1.25
  0
LTYPE
  2
CENTER1
 70
    64
  3
----- - ----- - ----- - ----- - 
 72
    65
 73
     4
 40
10.0
 49
6.25
 49
-1.25
 49
1.25
 49
-1.25
  0
LTYPE
  2
CENTER2
 70
    64
  3
----------  --  ----------  --  
 72
    65
 73
     4
 40
20.0
 49
12.5
 49
-2.5
 49
2.5
 49
-2.5
  0
LTYPE
  2
PHANTOM1
 70
    64
  3
--- - - --- - - --- - - --- - - 
 72
    65
 73
     6
 40
10.0
 49
3.25
 49
-1.25
 49
1.25
 49
-1.25
 49
1.25
 49
-1.25
  0
LTYPE
  2
PHANTOM2
 70
    64
  3
--------  -  -  --------  -  -  
 72
    65
 73
     6
 40
20.0
 49
10.0
 49
-2.5
 49
1.25
 49
-2.5
 49
1.25
 49
-2.5
  0
LTYPE
  2
DOT
 70
    64
  3
-   -   -   -   -   -   -   -   
 72
    65
 73
     2
 40
2.5
 49
0.625
 49
-1.875
  0
LTYPE
  2
DUMMY
 70
    64
  3
ダミー
 72
    65
 73
     0
 40
0.0
  0
LTYPE
  2
RAND1
 70
    64
  3
ランダム線1
 72
    65
 73
     4
 40
10.0
 49
1.0
 49
-2.0
 49
3.0
 49
-4.0
  0
LTYPE
  2
RAND2
 70
    64
  3
ランダム線2
 72
    65
 73
     4
 40
14.0
 49
2.0
 49
-3.0
 49
4.0
 49
-5.0
  0
LTYPE
  2
RAND3
 70
    64
  3
ランダム線3
 72
    65
 73
     4
 40
18.0
 49
3.0
 49
-4.0
 49
5.0
 49
-6.0
  0
LTYPE
  2
RAND4
 70
    64
  3
ランダム線4
 72
    65
 73
     4
 40
22.0
 49
4.0
 49
-5.0
 49
6.0
 49
-7.0
  0
LTYPE
  2
RAND5
 70
    64
  3
ランダム線5
 72
    65
 73
     4
 40
26.0
 49
5.0
 49
-6.0
 49
7.0
 49
-8.0
  0
LTYPE
  2
LONG1
 70
    64
  3
----------  --  ----------  --  
 72
    65
 73
     4
 40
40.0
 49
32.5
 49
-2.5
 49
2.5
 49
-2.5
  0
LTYPE
  2
LONG2
 70
    64
  3
--------  -  -  --------  -  -  
 72
    65
 73
     6
 40
40.0
 49
30.0
 49
-2.5
 49
1.25
 49
-2.5
 49
1.25
 49
-2.5
  0
LTYPE
  2
LONG3
 70
    64
  3
+++++++++++++++..+++++++++++++++
 72
    65
 73
     2
 40
40.0
 49
37.5
 49
-2.5
  0
LTYPE
  2
LONG4
 70
    64
  3
+++++++++++++++..+++++++++++++++
 72
    65
 73
     2
 40
80.0
 49
75.0
 49
-5.0
  0
LTYPE
  2
LONG5
 70
    64
  3
----------  --  ----------  --  
 72
    65
 73
     4
 40
60.0
 49
37.5
 49
-7.5
 49
7.5
 49
-7.5
  0
LTYPE
  2
dashed
 70
   64
  3
-------   -------------   ------
 72
   65
 73
    2
 40
7.5
 49
6
 49
-1.5
  0
LTYPE
  2
dashed_spaced
 70
   64
  3
----        --------        ----
 72
   65
 73
    2
 40
12
 49
6
 49
-6
  0
LTYPE
  2
long_dashed_dotted
 70
   64
  3
------------- --- --------------
 72
   65
 73
    4
 40
15.25
 49
12
 49
-1.5
 49
0.25
 49
-1.5
  0
LTYPE
  2
long_dashed_double-dotted
 70
   64
  3
----------- --- --- ------------
 72
   65
 73
    6
 40
17
 49
12
 49
-1.5
 49
0.25
 49
-1.5
 49
0.25
 49
-1.5
  0
LTYPE
  2
long_dashed_triplicate-dotted
 70
   64
  3
--------- --- --- --- ----------
 72
   65
 73
    8
 40
18.75
 49
12
 49
-1.5
 49
0.25
 49
-1.5
 49
0.25
 49
-1.5
 49
0.25
 49
-1.5
  0
LTYPE
  2
dotted
 70
   64
  3
   -       -       -       -    
 72
   65
 73
    2
 40
1.75
 49
0.25
 49
-1.5
  0
LTYPE
  2
chain
 70
   64
  3
-------------- -- --------------
 72
   65
 73
    4
 40
18.5
 49
12
 49
-1.5
 49
3.5
 49
-1.5
  0
LTYPE
  2
chain_double_dash
 70
   64
  3
------------ -- -- -------------
 72
   65
 73
    6
 40
23.5
 49
12
 49
-1.5
 49
3.5
 49
-1.5
 49
3.5
 49
-1.5
  0
LTYPE
  2
dashed_dotted
 70
   64
  3
-----------     -     ----------
 72
   65
 73
    4
 40
9.25
 49
6
 49
-1.5
 49
0.25
 49
-1.5
  0
LTYPE
  2
double-dashed_dotted
 70
   64
  3
------   -----------   -   -----
 72
   65
 73
    6
 40
16.75
 49
6
 49
-1.5
 49
6
 49
-1.5
 49
0.25
 49
-1.5
  0
LTYPE
  2
dashed_double-dotted
 70
   64
  3
---------    -    -    ---------
 72
   65
 73
    6
 40
11
 49
6
 49
-1.5
 49
0.25
 49
-1.5
 49
0.25
 49
-1.5
  0
LTYPE
  2
double-dashed_double-dotted
 70
   64
  3
-----   ---------   -   -   ----
 72
   65
 73
    8
 40
18.5
 49
6
 49
-1.5
 49
6
 49
-1.5
 49
0.25
 49
-1.5
 49
0.25
 49
-1.5
  0
LTYPE
  2
dashed_triplicate-dotted
 70
   64
  3
-------    -    -    -    ------
 72
   65
 73
    8
 40
12.75
 49
6
 49
-1.5
 49
0.25
 49
-1.5
 49
0.25
 49
-1.5
 49
0.25
 49
-1.5
  0
LTYPE
  2
double-dashed_triplicate-dotted
 70
   64
  3
-----  ---------  -  -  -  -----
 72
   65
 73
   10
 40
20.25
 49
6
 49
-1.5
 49
6
 49
-1.5
 49
0.25
 49
-1.5
 49
0.25
 49
-1.5
 49
0.25
 49
-1.5
  0
LTYPE
  2
undefined
 70
   64
  3
--------------------------------
 72
   65
 73
    0
 40
0
  0
ENDTAB
  0
TABLE
  2
STYLE
  5
3
100
AcDbSymbolTable
 70
     1
  0
STYLE
  5
10
100
AcDbSymbolTableRecord
100
AcDbTextStyleTableRecord
  2
STANDARD
 70
     0
 40
0.0
 41
1.0
 50
0.0
 71
     0
 42
0.2
  3
txt
  4
bigfont.shx
  0
STYLE
  5
26
100
AcDbSymbolTableRecord
100
AcDbTextStyleTableRecord
  2
TATEGAKI
 70
    68
 40
0.0
 41
1.0
 50
0.0
 71
     0
 42
1.0
  3
txt
  4
bigfont.shx
  0
ENDTAB
  0
TABLE
  2
LAYER
 70
   10
  0
LAYER
  2
_0-0_計極細
 70
   64
 62
    7
  6
CONTINUOUS
  0
LAYER
  2
_0-1_計細線
 70
   64
 62
    7
  6
CONTINUOUS
  0
LAYER
  2
_0-5_寸法線
 70
   64
 62
    7
  6
CONTINUOUS
  0
LAYER
  2
_0-7_枠細線
 70
   64
 62
    7
  6
CONTINUOUS
  0
LAYER
  2
_0-8_枠中線
 70
   64
 62
    7
  6
CONTINUOUS
  0
LAYER
  2
_0-9_枠極太
 70
   64
 62
    7
  6
CONTINUOUS
  0
LAYER
  2
_0-a_極細3
 70
   64
 62
    7
  6
CONTINUOUS
  0
LAYER
  2
_0-b_細線3
 70
   64
 62
    7
  6
CONTINUOUS
  0
LAYER
  2
_0-d_寸法3
 70
   64
 62
    7
  6
CONTINUOUS
  0
LAYER
  2
ADD_LINE
 70
   64
 62
    7
  6
CONTINUOUS
  0
ENDTAB
  0
ENDSEC
  0
SECTION
  2
BLOCKS
  0
ENDSEC
  0
SECTION
  2
ENTITIES
  0
LINE
  8
_0-7_枠細線
  6
CONTINUOUS
 62
    5
 10
1425
 20
942.50000000000057
 11
890
 21
942.50000000000057
  0
TEXT
  8
_0-7_枠細線
 62
    5
 10
895
 20
945.00000000000023
 40
12.5
 41
1
 50
0
  1
記号
  0
TEXT
  8
_0-7_枠細線
 62
    5
 10
996.875
 20
945.00000000000057
 40
12.5
 41
1
 50
0
  1
訂　 正　 記　 事
  0
TEXT
  8
_0-7_枠細線
 62
    5
 10
1181.25
 20
945.00000000000057
 40
12.5
 41
1
 50
0
  1
訂 正 年 月 日
  0
TEXT
  8
_0-7_枠細線
 62
    5
 10
1306.25
 20
945.00000000000057
 40
12.5
 41
1
 50
0
  1
備　　　　　考
  0
LINE
  8
_0-7_枠細線
  6
CONTINUOUS
 62
    5
 10
1185
 20
180.00000000000043
 11
1185
 21
100.00000000000043
  0
TEXT
  8
_0-7_枠細線
 62
    5
 10
937.5
 20
97.500000000000426
 40
17.5
 41
1
 50
0
  1
備考
  7
TATEGAKI
  0
TEXT
  8
_0-7_枠細線
 62
    5
 10
937.5
 20
137.50000000000043
 40
17.5
 41
1
 50
0
  1
品番
  7
TATEGAKI
  0
TEXT
  8
_0-7_枠細線
 62
    5
 10
937.5
 20
177.50000000000043
 40
17.5
 41
1
 50
0
  1
品名
  7
TATEGAKI
  0
LINE
  8
_0-7_枠細線
  6
CONTINUOUS
 62
    5
 10
1185
 20
140.00000000000043
 11
925
 21
140.00000000000043
  0
LINE
  8
_0-7_枠細線
  6
CONTINUOUS
 62
    5
 10
950
 20
180.00000000000043
 11
950
 21
60.000000000000426
  0
LINE
  8
_0-8_枠中線
  6
CONTINUOUS
 62
    5
 10
1425
 20
180.00000000000043
 11
925
 21
180.00000000000043
  0
LINE
  8
_0-8_枠中線
  6
CONTINUOUS
 62
    5
 10
925
 20
180.00000000000043
 11
925
 21
60.000000000000426
  0
LINE
  8
_0-7_枠細線
  6
CONTINUOUS
 62
    5
 10
1245
 20
180.00000000000043
 11
1245
 21
60.000000000000426
  0
TEXT
  8
_0-7_枠細線
 62
    5
 10
1192.5
 20
160.00000000000043
 40
15
 41
1
 50
0
  1
縮　尺
  0
TEXT
  8
_0-7_枠細線
 62
    5
 10
1194
 20
117.50000000000043
 40
20
 41
0.7000000000000001
 50
0
  1
１：５
  0
LINE
  8
_0-7_枠細線
  6
CONTINUOUS
 62
    5
 10
1185
 20
155.00000000000043
 11
1245
 21
155.00000000000043
  0
LINE
  8
_0-7_枠細線
  6
CONTINUOUS
 62
    5
 10
1245
 20
100.00000000000043
 11
925
 21
100.00000000000043
  0
LINE
  8
_0-7_枠細線
  6
CONTINUOUS
 62
    5
 10
1425
 20
90.000000000000426
 11
1245
 21
90.000000000000426
  0
LINE
  8
_0-7_枠細線
  6
CONTINUOUS
 62
    5
 10
1245
 20
120.00000000000043
 11
1425
 21
120.00000000000043
  0
LINE
  8
_0-7_枠細線
  6
CONTINUOUS
 62
    5
 10
1425
 20
140.00000000000043
 11
1245
 21
140.00000000000043
  0
TEXT
  8
_0-7_枠細線
 62
    5
 10
1255
 20
147.50000000000043
 40
25
 41
0.8
 50
0
  1
株式会社シマブン
  0
TEXT
  8
_0-7_枠細線
 62
    5
 10
1252.5
 20
60.000000000000355
 40
15
 41
1
 50
0
  1
年月日
  0
TEXT
  8
_0-7_枠細線
 62
    5
 10
1252.5
 20
75.000000000000426
 40
15
 41
1
 50
0
  1
作　成
  0
TEXT
  8
_0-7_枠細線
 62
    5
 10
1256.25
 20
122.50000000000043
 40
15
 41
1
 50
0
  1
承 認
  0
LINE
  8
_0-7_枠細線
  6
CONTINUOUS
 62
    5
 10
1305
 20
140.00000000000043
 11
1305
 21
60.000000000000426
  0
TEXT
  8
_0-7_枠細線
 62
    5
 10
1316.25
 20
122.50000000000043
 40
15
 41
1
 50
0
  1
検 図
  0
LINE
  8
_0-7_枠細線
  6
CONTINUOUS
 62
    5
 10
1365
 20
140.00000000000043
 11
1365
 21
90.000000000000426
  0
TEXT
  8
_0-7_枠細線
 62
    5
 10
1375
 20
95.000000000000426
 40
20
 41
1
 50
0
  1
藤戸
  0
TEXT
  8
_0-7_枠細線
 62
    5
 10
1376.25
 20
122.50000000000043
 40
15
 41
1
 50
0
  1
設 計
  0
TEXT
  8
_0-7_枠細線
 62
    5
 10
1255
 20
95.000000000000426
 40
20
 41
1
 50
0
  1
隠塚
  0
TEXT
  8
_0-7_枠細線
 62
    5
 10
1315
 20
95.000000000000426
 40
20
 41
1
 50
0
  1
渋田
  0
TEXT
  8
_0-7_枠細線
 62
    5
 10
1310
 20
67.500000000000426
 40
15
 41
0.6666666666666666
 50
0
  1
２０１２年０２月２９日
  0
LINE
  8
_0-7_枠細線
  6
CONTINUOUS
 62
    5
 10
1425
 20
925.00000000000057
 11
890
 21
925.00000000000057
  0
TEXT
  8
_0-7_枠細線
 62
    5
 10
938.85037037037023
 20
927.50000000000057
 40
12.500000000000002
 41
1
 50
0
  1
品番変更
  0
TEXT
  8
_0-7_枠細線
 62
    5
 10
1180
 20
927.50000000000057
 40
12.5
 41
0.7199999999999999
 50
0
  1
２０１５．０４．０１
  0
LINE
  8
_0-a_極細3
  6
CENTER1
 62
    7
 10
470.43065977017199
 20
252.04894320581772
 11
470.43065977017199
 21
307.16560987249062
  0
TEXT
  8
_0-7_枠細線
 62
    5
 10
420.50861213093816
 20
118.23440768958946
 40
25
 41
0.8
 50
0
  1
断面詳細図
  0
TEXT
  8
_0-7_枠細線
 62
    5
 10
535.45758188010586
 20
118.23440768958946
 40
20
 41
0.6
 50
0
  1
Ｓ＝１：３
  0
CIRCLE
  8
_0-a_極細3
  6
CONTINUOUS
 62
    7
 10
243.71423256698918
 20
278.19373866348286
 40
0.5530864197530718
  0
LINE
  8
_0-a_極細3
  6
CONTINUOUS
 62
    7
 10
248.76399310350507
 20
293.23477269126755
 11
248.76399310350507
 21
281.56810602460058
  0
LINE
  8
_0-a_極細3
  6
CONTINUOUS
 62
    7
 10
248.76399310350507
 20
293.23477269126755
 11
159.58624595839041
 21
293.23477269126755
  0
LINE
  8
_0-a_極細3
  6
CONTINUOUS
 62
    7
 10
257.0973264368385
 20
281.56810602460058
 11
159.58624595839041
 21
281.56810602460058
  0
LINE
  8
_0-a_極細3
  6
CONTINUOUS
 62
    7
 10
257.0973264368385
 20
293.23477269126755
 11
248.76399310350507
 21
293.23477269126755
  0
LINE
  8
_0-a_極細3
  6
CONTINUOUS
 62
    7
 10
257.0973264368385
 20
292.40143935793407
 11
257.0973264368385
 21
293.23477269126755
  0
LINE
  8
_0-a_極細3
  6
CONTINUOUS
 62
    7
 10
256.89923618047891
 20
281.56810602460058
 11
257.0973264368381
 21
281.76619628096023
  0
LINE
  8
_0-a_極細3
  6
CONTINUOUS
 62
    7
 10
252.65659549335979
 20
281.56810602460058
 11
257.0973264368385
 21
286.00883696807927
  0
LINE
  8
_0-a_極細3
  6
CONTINUOUS
 62
    7
 10
248.76399310350507
 20
281.91814432186533
 11
257.0973264368385
 21
290.25147765519864
  0
LINE
  8
_0-a_極細3
  6
CONTINUOUS
 62
    7
 10
248.76399310350507
 20
286.16078500898442
 11
255.83798078578766
 21
293.23477269126755
  0
LINE
  8
_0-a_極細3
  6
CONTINUOUS
 62
    7
 10
248.76399310350507
 20
290.40342569610397
 11
251.5953400986686
 21
293.23477269126755
  0
LINE
  8
_0-a_極細3
  6
CONTINUOUS
 62
    7
 10
257.0973264368385
 20
290.95380581900889
 11
254.81635956458007
 21
293.23477269126755
  0
LINE
  8
_0-a_極細3
  6
CONTINUOUS
 62
    7
 10
257.0973264368385
 20
286.71116513188957
 11
250.57371887746058
 21
293.23477269126755
  0
LINE
  8
_0-a_極細3
  6
CONTINUOUS
 62
    7
 10
248.76399310350507
 20
290.80185777810374
 11
257.0973264368385
 21
282.46852444477048
  0
LINE
  8
_0-a_極細3
  6
CONTINUOUS
 62
    7
 10
248.76399310350507
 20
286.55921709098442
 11
253.75510416988845
 21
281.56810602460058
  0
LINE
  8
_0-a_極細3
  6
CONTINUOUS
 62
    7
 10
248.76399310350507
 20
282.3165764038651
 11
249.51246348276931
 21
281.56810602460058
  0
LINE
  8
_0-a_極細3
  6
CONTINUOUS
 62
    7
 10
239.92867342587436
 20
281.56810601847332
 11
248.76399310350507
 21
290.40342569610397
  0
LINE
  8
_0-a_極細3
  6
CONTINUOUS
 62
    7
 10
218.71546997556692
 20
281.56810600376224
 11
230.38213666307229
 21
293.23477269126732
  0
LINE
  8
_0-a_極細3
  6
CONTINUOUS
 62
    7
 10
197.50226652525902
 20
281.56810598905071
 11
209.16893322747541
 21
293.23477269126755
  0
LINE
  8
_0-a_極細3
  6
CONTINUOUS
 62
    7
 10
176.28906307495114
 20
281.56810597433963
 11
187.95572979187909
 21
293.23477269126755
  0
LINE
  8
_0-a_極細3
  6
CONTINUOUS
 62
    7
 10
159.58624595839041
 20
286.07849229337484
 11
166.74252635628264
 21
293.23477269126732
  0
LINE
  8
_0-a_極細3
  6
DASHED2
 62
    7
 10
229.32207170072061
 20
281.56810601111778
 11
240.98873838087044
 21
293.23477269126755
  0
LINE
  8
_0-a_極細3
  6
DASHED2
 62
    7
 10
208.1088682504128
 20
281.56810599640653
 11
219.77553494527405
 21
293.23477269126755
  0
LINE
  8
_0-a_極細3
  6
DASHED2
 62
    7
 10
186.89566480010527
 20
281.56810598169517
 11
198.56233150967725
 21
293.23477269126755
  0
LINE
  8
_0-a_極細3
  6
DASHED2
 62
    7
 10
165.68246134979745
 20
281.56810596698409
 11
177.34912807408085
 21
293.23477269126755
  0
LINE
  8
_0-a_極細3
  6
CONTINUOUS
 62
    7
 10
190.4306597701715
 20
256.56810602460087
 11
190.4306597701715
 21
188.23477269126755
  0
LINE
  8
_0-a_極細3
  6
CONTINUOUS
 62
    7
 10
273.76399310350507
 20
188.23477269126755
 11
190.4306597701715
 21
188.23477269126755
  0
LINE
  8
_0-a_極細3
  6
CONTINUOUS
 62
    7
 10
190.4306597701715
 20
256.56810602460087
 11
159.58624595839041
 21
256.56810602460087
  0
LINE
  8
_0-a_極細3
  6
CONTINUOUS
 62
    7
 10
273.76399310350507
 20
188.23477269126755
 11
273.76399310350507
 21
161.99317239648849
  0
LINE
  8
_0-a_極細3
  6
CONTINUOUS
 62
    7
 10
236.34201853851522
 20
161.99317251292541
 11
262.58361871685793
 21
188.23477269126755
  0
LINE
  8
_0-a_極細3
  6
CONTINUOUS
 62
    7
 10
165.63134063987391
 20
161.99317273293849
 11
191.87294059820303
 21
188.23477269126755
  0
LINE
  8
_0-a_極細3
  6
CONTINUOUS
 62
    7
 10
159.58624595839041
 20
226.65875617010983
 11
189.49559581288162
 21
256.56810602460087
  0
LINE
  8
_0-a_極細3
  6
CONTINUOUS
 62
    7
 10
229.27095074865107
 20
161.99317253492671
 11
255.51255090499211
 21
188.23477269126755
  0
LINE
  8
_0-a_極細3
  6
CONTINUOUS
 62
    7
 10
159.58624595839041
 20
163.01914586332046
 11
190.4306597701715
 21
193.86355967510184
  0
LINE
  8
_0-a_極細3
  6
CONTINUOUS
 62
    7
 10
159.58624595839041
 20
233.72982398197536
 11
182.42452800101589
 21
256.56810602460087
  0
LINE
  8
_0-a_極細3
  6
CONTINUOUS
 62
    7
 10
222.19988295878736
 20
161.99317255692804
 11
248.44148309312686
 21
188.23477269126755
  0
LINE
  8
_0-a_極細3
  6
CONTINUOUS
 62
    7
 10
159.58624595839041
 20
170.09021367518599
 11
190.4306597701715
 21
200.93462748696737
  0
LINE
  8
_0-a_極細3
  6
CONTINUOUS
 62
    7
 10
159.58624595839041
 20
240.80089179384066
 11
175.35346018915055
 21
256.56810602460087
  0
CIRCLE
  8
_0-a_極細3
  6
CONTINUOUS
 62
    7
 10
177.48213380155761
 20
271.77151644126087
 40
0.5530864197530718
  0
CIRCLE
  8
_0-a_極細3
  6
CONTINUOUS
 62
    7
 10
167.15126960402714
 20
261.81596088570535
 40
0.5530864197530718
  0
CIRCLE
  8
_0-a_極細3
  6
CONTINUOUS
 62
    7
 10
177.7586770114344
 20
262.88262755237201
 40
0.5530864197530718
  0
CIRCLE
  8
_0-a_極細3
  6
CONTINUOUS
 62
    7
 10
190.38089923365661
 20
264.83818310792748
 40
0.5530864197530718
  0
CIRCLE
  8
_0-a_極細3
  6
CONTINUOUS
 62
    7
 10
218.82534367810052
 20
276.57151644126083
 40
0.5530864197530718
  0
CIRCLE
  8
_0-a_極細3
  6
CONTINUOUS
 62
    7
 10
249.40312145587811
 20
270.34929421903871
 40
0.5530864197530718
  0
CIRCLE
  8
_0-a_極細3
  6
CONTINUOUS
 62
    7
 10
224.51423256698945
 20
269.81596088570535
 40
0.5530864197530718
  0
CIRCLE
  8
_0-a_極細3
  6
CONTINUOUS
 62
    7
 10
197.32534367810104
 20
257.582627552372
 40
0.5530864197530718
  0
CIRCLE
  8
_0-a_極細3
  6
CONTINUOUS
 62
    7
 10
217.76978812254484
 20
256.33818310792748
 40
0.5530864197530718
  0
CIRCLE
  8
_0-a_極細3
  6
CONTINUOUS
 62
    7
 10
242.83645478921144
 20
252.60484977459438
 40
0.5530864197530718
  0
CIRCLE
  8
_0-a_極細3
  6
CONTINUOUS
 62
    7
 10
230.21423256698924
 20
246.91596088570549
 40
0.5530864197530718
  0
CIRCLE
  8
_0-a_極細3
  6
CONTINUOUS
 62
    7
 10
215.45867701143422
 20
233.40484977459431
 40
0.5530864197530718
  0
CIRCLE
  8
_0-a_極細3
  6
CONTINUOUS
 62
    7
 10
242.83645478921144
 20
240.69373866348332
 40
0.5530864197530718
  0
CIRCLE
  8
_0-a_極細3
  6
CONTINUOUS
 62
    7
 10
201.72534367810059
 20
213.58262755237249
 40
0.5530864197530718
  0
CIRCLE
  8
_0-a_極細3
  6
CONTINUOUS
 62
    7
 10
196.0364547892118
 20
195.62707199681697
 40
0.5530864197530718
  0
CIRCLE
  8
_0-a_極細3
  6
CONTINUOUS
 62
    7
 10
204.747565900323
 20
202.38262755237244
 40
0.5530864197530718
  0
CIRCLE
  8
_0-a_極細3
  6
CONTINUOUS
 62
    7
 10
210.9697881225452
 20
193.84929421903911
 40
0.5530864197530718
  0
CIRCLE
  8
_0-a_極細3
  6
CONTINUOUS
 62
    7
 10
250.26978812254484
 20
211.73818310792802
 40
0.5530864197530718
  0
CIRCLE
  8
_0-a_極細3
  6
CONTINUOUS
 62
    7
 10
239.06978812254508
 20
206.22707199681685
 40
0.5530864197530718
  0
CIRCLE
  8
_0-a_極細3
  6
CONTINUOUS
 62
    7
 10
245.29201034476728
 20
203.73818310792799
 40
0.5530864197530718
  0
CIRCLE
  8
_0-a_極細3
  6
CONTINUOUS
 62
    7
 10
241.73645478921159
 20
194.49373866348373
 40
0.5530864197530718
  0
CIRCLE
  8
_0-a_極細3
  6
CONTINUOUS
 62
    7
 10
261.6475659003226
 20
195.56040533015036
 40
0.5530864197530718
  0
CIRCLE
  8
_0-a_極細3
  6
CONTINUOUS
 62
    7
 10
274.62534367810019
 20
198.76040533015043
 40
0.5530864197530718
  0
CIRCLE
  8
_0-a_極細3
  6
CONTINUOUS
 62
    7
 10
288.31423256698912
 20
183.82707199681718
 40
0.5530864197530718
  0
CIRCLE
  8
_0-a_極細3
  6
CONTINUOUS
 62
    7
 10
281.38089923365567
 20
168.89373866348379
 40
0.5530864197530718
  0
CIRCLE
  8
_0-a_極細3
  6
CONTINUOUS
 62
    7
 10
264.71423256698927
 20
212.50855347829832
 40
0.5530864197530718
  0
CIRCLE
  8
_0-a_極細3
  6
CONTINUOUS
 62
    7
 10
279.46978812254474
 20
246.64188681163154
 40
0.5530864197530718
  0
CIRCLE
  8
_0-a_極細3
  6
CONTINUOUS
 62
    7
 10
294.58089923365554
 20
236.68633125607602
 40
0.5530864197530718
  0
CIRCLE
  8
_0-a_極細3
  6
CONTINUOUS
 62
    7
 10
295.1142325669889
 20
218.7307757005205
 40
0.5530864197530718
  0
CIRCLE
  8
_0-a_極細3
  6
CONTINUOUS
 62
    7
 10
259.86978812254478
 20
248.46410903385362
 40
0.5530864197530718
  0
CIRCLE
  8
_0-a_極細3
  6
CONTINUOUS
 62
    7
 10
239.58089923365606
 20
270.44805965113756
 40
1.825531472681392
  0
CIRCLE
  8
_0-a_極細3
  6
CONTINUOUS
 62
    7
 10
187.81877953222093
 20
277.37767392583527
 40
1.825531472681392
  0
CIRCLE
  8
_0-a_極細3
  6
CONTINUOUS
 62
    7
 10
214.3586770114338
 20
247.64805965113754
 40
1.825531472681392
  0
CIRCLE
  8
_0-a_極細3
  6
CONTINUOUS
 62
    7
 10
194.75867701143392
 20
209.648059651138
 40
1.825531472681392
  0
CIRCLE
  8
_0-a_極細3
  6
CONTINUOUS
 62
    7
 10
247.95867701143328
 20
196.84805965113824
 40
1.825531472681392
  0
CIRCLE
  8
_0-a_極細3
  6
CONTINUOUS
 62
    7
 10
283.93645478921093
 20
193.24805965113839
 40
1.825531472681392
  0
CIRCLE
  8
_0-a_極細3
  6
CONTINUOUS
 62
    7
 10
288.7364547892106
 20
174.58139298447185
 40
1.825531472681392
  0
CIRCLE
  8
_0-a_極細3
  6
CONTINUOUS
 62
    7
 10
167.62169999114164
 20
278.27028187335958
 40
1.825531472681392
  0
LINE
  8
_0-a_極細3
  6
CONTINUOUS
 62
    7
 10
306.26399310350507
 20
263.23477269126755
 11
307.0973264368385
 21
263.23477269126755
  0
LINE
  8
_0-a_極細3
  6
CONTINUOUS
 62
    7
 10
307.0973264368385
 20
263.23477269126755
 11
307.0973264368385
 21
161.99317239648849
  0
CIRCLE
  8
_0-a_極細3
  6
CONTINUOUS
 62
    7
 10
300.20989228920951
 20
247.24805965113816
 40
1.825531472681392
  0
CIRCLE
  8
_0-a_極細3
  6
CONTINUOUS
 62
    7
 10
299.21793627069241
 20
192.53818310792823
 40
0.5530864197530718
  0
CIRCLE
  8
_0-a_極細3
  6
CONTINUOUS
 62
    7
 10
300.55126960402629
 20
169.88211207475842
 40
0.5530864197530718
  0
CIRCLE
  8
_0-a_極細3
  6
CONTINUOUS
 62
    7
 10
288.18089923365136
 20
228.1369485400273
 40
1.825531472681392
  0
LINE
  8
_0-a_極細3
  6
CONTINUOUS
 62
    7
 10
213.45725821635318
 20
213.11647385377111
 11
208.32695606646794
 21
227.21186316555958
  0
LINE
  8
_0-a_極細3
  6
CONTINUOUS
 62
    7
 10
263.45130089014987
 20
247.27548386480584
 11
268.58160304003462
 21
233.18009455301734
  0
LINE
  8
_0-a_極細3
  6
CONTINUOUS
 62
    7
 10
208.32695606646794
 20
227.21186316555958
 11
263.45130089014987
 21
247.27548386480584
  0
LINE
  8
_0-a_極細3
  6
CONTINUOUS
 62
    7
 10
213.45725821635318
 20
213.11647385377111
 11
268.58160304003462
 21
233.18009455301734
  0
LINE
  8
_0-a_極細3
  6
CENTER1
 62
    7
 10
205.93667374941788
 20
218.3605384696354
 11
269.96769423198378
 21
241.66592395467089
  0
LINE
  8
_0-a_極細3
  6
CONTINUOUS
 62
    7
 10
232.0973264368385
 20
188.23477269126755
 11
232.0973264368385
 21
232.32033403958368
  0
LINE
  8
_0-a_極細3
  6
CONTINUOUS
 62
    7
 10
232.0973264368385
 20
232.32033403958368
 11
217.0973264368385
 21
232.32033403958368
  0
LINE
  8
_0-a_極細3
  6
CONTINUOUS
 62
    7
 10
217.0973264368385
 20
232.32033403958368
 11
217.0973264368385
 21
188.23477269126755
  0
CIRCLE
  8
_0-a_極細3
  6
CONTINUOUS
 62
    7
 10
246.47719552995241
 20
218.15670162644636
 40
1.825531472681392
  0
CIRCLE
  8
_0-a_極細3
  6
CONTINUOUS
 62
    7
 10
268.18583750526108
 20
224.37892384866876
 40
1.825531472681392
  0
LINE
  8
_0-a_極細3
  6
CENTER1
 62
    7
 10
224.5973264368385
 20
179.95803240681468
 11
224.5973264368385
 21
236.59605420419322
  0
LINE
  8
_0-d_寸法3
  6
CONTINUOUS
 62
    7
 10
247.0973264368385
 20
293.23477269126761
 11
201.14729535824921
 21
293.23477269126755
  0
LINE
  8
_0-d_寸法3
  6
CONTINUOUS
 62
    7
 10
206.14729535824921
 20
293.23477269126755
 11
208.73548580927434
 21
283.57551442837683
  0
LINE
  8
_0-d_寸法3
  6
CONTINUOUS
 62
    7
 10
206.14729535824921
 20
293.23477269126755
 11
203.55910490722394
 21
283.57551442837689
  0
LINE
  8
_0-d_寸法3
  6
CONTINUOUS
 62
    7
 10
245.09732643683847
 20
263.23477269126761
 11
201.14729535824921
 21
263.23477269126755
  0
LINE
  8
_0-d_寸法3
  6
CONTINUOUS
 62
    7
 10
206.14729535824921
 20
263.23477269126755
 11
203.55910490722394
 21
272.89403095415821
  0
LINE
  8
_0-d_寸法3
  6
CONTINUOUS
 62
    7
 10
206.14729535824921
 20
263.23477269126755
 11
208.73548580927439
 21
272.89403095415827
  0
LINE
  8
_0-d_寸法3
  6
CONTINUOUS
 62
    7
 10
206.14729535824921
 20
293.23477269126755
 11
206.14729535824921
 21
263.23477269126755
  0
TEXT
  8
_0-d_寸法3
 62
    7
 10
206.14729535824921
 20
270.73477269126755
 40
15
 41
1
 50
90
  1
18
  0
LINE
  8
_0-d_寸法3
  6
CONTINUOUS
 62
    7
 10
247.0973264368385
 20
263.23477269126738
 11
201.14729535824921
 21
263.23477269126732
  0
LINE
  8
_0-d_寸法3
  6
CONTINUOUS
 62
    7
 10
206.14729535824921
 20
263.23477269126732
 11
208.73548580927434
 21
253.57551442837664
  0
LINE
  8
_0-d_寸法3
  6
CONTINUOUS
 62
    7
 10
206.14729535824921
 20
263.23477269126732
 11
203.55910490722394
 21
253.57551442837666
  0
LINE
  8
_0-d_寸法3
  6
CONTINUOUS
 62
    7
 10
245.09732643683847
 20
224.90143935793412
 11
201.14729535824921
 21
224.90143935793412
  0
LINE
  8
_0-d_寸法3
  6
CONTINUOUS
 62
    7
 10
206.14729535824921
 20
224.90143935793409
 11
203.55910490722394
 21
234.56069762082478
  0
LINE
  8
_0-d_寸法3
  6
CONTINUOUS
 62
    7
 10
206.14729535824921
 20
224.90143935793409
 11
208.73548580927439
 21
234.56069762082478
  0
LINE
  8
_0-d_寸法3
  6
CONTINUOUS
 62
    7
 10
206.14729535824921
 20
263.23477269126732
 11
206.14729535824921
 21
224.90143935793409
  0
TEXT
  8
_0-d_寸法3
 62
    7
 10
206.14729535824921
 20
236.56810602460084
 40
15
 41
1
 50
90
  1
23
  0
LINE
  8
_0-d_寸法3
  6
CONTINUOUS
 62
    7
 10
257.0973264368385
 20
214.90143935793429
 11
257.0973264368385
 21
197.75674745702887
  0
LINE
  8
_0-d_寸法3
  6
CONTINUOUS
 62
    7
 10
257.0973264368385
 20
202.75674745702887
 11
266.75658469972916
 21
205.34493790805413
  0
LINE
  8
_0-d_寸法3
  6
CONTINUOUS
 62
    7
 10
257.0973264368385
 20
202.75674745702887
 11
266.75658469972916
 21
200.16855700600374
  0
LINE
  8
_0-d_寸法3
  6
CONTINUOUS
 62
    7
 10
307.0973264368385
 20
253.23477269126755
 11
307.09732643683799
 21
197.75674745702887
  0
LINE
  8
_0-d_寸法3
  6
CONTINUOUS
 62
    7
 10
307.0973264368381
 20
202.75674745702887
 11
297.43806817394733
 21
200.16855700600374
  0
LINE
  8
_0-d_寸法3
  6
CONTINUOUS
 62
    7
 10
307.0973264368381
 20
202.75674745702887
 11
297.43806817394739
 21
205.34493790805413
  0
LINE
  8
_0-d_寸法3
  6
CONTINUOUS
 62
    7
 10
257.0973264368385
 20
202.75674745702887
 11
307.0973264368381
 21
202.75674745702887
  0
TEXT
  8
_0-d_寸法3
 62
    7
 10
274.5973264368381
 20
202.75674745702887
 40
15
 41
1
 50
0
  1
30
  0
ARC
  8
_0-b_細線3
  6
CONTINUOUS
 62
    7
 10
262.0973264368385
 20
268.23477269126755
 40
5
 50
179.99999999999983
 51
269.99999999999977
  0
LINE
  8
_0-b_細線3
  6
CONTINUOUS
 62
    7
 10
257.0973264368385
 20
268.23477269126755
 11
257.0973264368385
 21
292.40143935793407
  0
LINE
  8
_0-b_細線3
  6
CONTINUOUS
 62
    7
 10
262.0973264368385
 20
263.23477269126755
 11
306.26399310350507
 21
263.23477269126755
  0
LINE
  8
_0-b_細線3
  6
CONTINUOUS
 62
    7
 10
307.0973264368385
 20
264.06810602460087
 11
306.26399310350507
 21
263.23477269126755
  0
LINE
  8
_0-b_細線3
  6
CONTINUOUS
 62
    7
 10
307.0973264368385
 20
267.40143935793429
 11
307.0973264368385
 21
264.06810602460087
  0
LINE
  8
_0-b_細線3
  6
CONTINUOUS
 62
    7
 10
306.26399310350507
 20
268.23477269126755
 11
307.0973264368385
 21
267.40143935793429
  0
LINE
  8
_0-b_細線3
  6
CONTINUOUS
 62
    7
 10
262.0973264368385
 20
268.23477269126755
 11
306.26399310350507
 21
268.23477269126755
  0
LINE
  8
_0-b_細線3
  6
CONTINUOUS
 62
    7
 10
257.93065977017147
 20
293.23477269126755
 11
257.0973264368385
 21
292.40143935793407
  0
LINE
  8
_0-b_細線3
  6
CONTINUOUS
 62
    7
 10
261.26399310350507
 20
293.23477269126755
 11
257.93065977017147
 21
293.23477269126755
  0
LINE
  8
_0-b_細線3
  6
CONTINUOUS
 62
    7
 10
262.0973264368385
 20
292.40143935793407
 11
261.26399310350507
 21
293.23477269126755
  0
LINE
  8
_0-b_細線3
  6
CONTINUOUS
 62
    7
 10
262.0973264368385
 20
268.23477269126755
 11
262.0973264368385
 21
292.40143935793407
  0
CIRCLE
  8
_0-a_極細3
  6
CONTINUOUS
 62
    7
 10
755.75867701143
 20
278.5002201449642
 40
0.5530864197530718
  0
CIRCLE
  8
_0-a_極細3
  6
CONTINUOUS
 62
    7
 10
703.75867701143079
 20
279.4335534782976
 40
0.5530864197530718
  0
LINE
  8
_0-a_極細3
  6
CONTINUOUS
 62
    7
 10
692.0973264368381
 20
293.23477269126755
 11
692.0973264368381
 21
281.56810602460058
  0
LINE
  8
_0-a_極細3
  6
CONTINUOUS
 62
    7
 10
692.0973264368381
 20
293.23477269126755
 11
781.27507358195317
 21
293.23477269126755
  0
LINE
  8
_0-a_極細3
  6
CONTINUOUS
 62
    7
 10
683.76399310350507
 20
281.56810602460058
 11
781.27507358195317
 21
281.56810602460058
  0
LINE
  8
_0-a_極細3
  6
CONTINUOUS
 62
    7
 10
683.76399310350507
 20
293.23477269126755
 11
692.0973264368381
 21
293.23477269126755
  0
LINE
  8
_0-a_極細3
  6
CONTINUOUS
 62
    7
 10
683.76399310350507
 20
292.40143935793407
 11
683.76399310350507
 21
293.23477269126755
  0
LINE
  8
_0-a_極細3
  6
CONTINUOUS
 62
    7
 10
692.0973264368381
 20
285.23719230532555
 11
688.42824015611359
 21
281.56810602460058
  0
LINE
  8
_0-a_極細3
  6
CONTINUOUS
 62
    7
 10
692.0973264368381
 20
289.47983299244464
 11
684.1855994689945
 21
281.56810602460058
  0
LINE
  8
_0-a_極細3
  6
CONTINUOUS
 62
    7
 10
683.76399310350507
 20
285.3891403462307
 11
691.60962544854146
 21
293.23477269126755
  0
LINE
  8
_0-a_極細3
  6
CONTINUOUS
 62
    7
 10
683.76399310350507
 20
289.63178103335002
 11
687.36698476142237
 21
293.23477269126732
  0
LINE
  8
_0-a_極細3
  6
CONTINUOUS
 62
    7
 10
692.0973264368381
 20
291.72545048176192
 11
690.58800422733259
 21
293.23477269126755
  0
LINE
  8
_0-a_極細3
  6
CONTINUOUS
 62
    7
 10
692.0973264368381
 20
287.48280979464261
 11
686.34536354021338
 21
293.23477269126755
  0
LINE
  8
_0-a_極細3
  6
CONTINUOUS
 62
    7
 10
692.0973264368381
 20
283.24016910752329
 11
683.76399310350507
 21
291.57350244085677
  0
LINE
  8
_0-a_極細3
  6
CONTINUOUS
 62
    7
 10
689.52674883264126
 20
281.56810602460058
 11
683.76399310350507
 21
287.33086175373745
  0
LINE
  8
_0-a_極細3
  6
CONTINUOUS
 62
    7
 10
685.28410814552217
 20
281.56810602460058
 11
683.76399310350507
 21
283.08822106661813
  0
LINE
  8
_0-a_極細3
  6
CONTINUOUS
 62
    7
 10
760.55313183714088
 20
281.56810602460058
 11
772.21979787701866
 21
293.23477206447836
  0
LINE
  8
_0-a_極細3
  6
CONTINUOUS
 62
    7
 10
739.33992840154463
 20
281.56810602460087
 11
751.00659460737143
 21
293.23477223042704
  0
LINE
  8
_0-a_極細3
  6
CONTINUOUS
 62
    7
 10
718.12672496594814
 20
281.56810602460058
 11
729.79339133772328
 21
293.23477239637526
  0
LINE
  8
_0-a_極細3
  6
CONTINUOUS
 62
    7
 10
696.91352153035177
 20
281.56810602460058
 11
708.58018806807524
 21
293.23477256232394
  0
LINE
  8
_0-a_極細3
  6
DASHED2
 62
    7
 10
771.15973355494009
 20
281.56810602460087
 11
781.27507358195317
 21
291.68344605161423
  0
LINE
  8
_0-a_極細3
  6
DASHED2
 62
    7
 10
749.9465301193427
 20
281.56810602460058
 11
761.61319624219459
 21
293.23477214745247
  0
LINE
  8
_0-a_極細3
  6
DASHED2
 62
    7
 10
728.73332668374633
 20
281.56810602460058
 11
740.39999297254735
 21
293.23477231340115
  0
LINE
  8
_0-a_極細3
  6
DASHED2
 62
    7
 10
707.52012324814996
 20
281.56810602460058
 11
719.1867897028992
 21
293.2347724793496
  0
LINE
  8
_0-a_極細3
  6
DASHED2
 62
    7
 10
692.0973264368381
 20
287.3585126488851
 11
697.97358643325106
 21
293.23477264529805
  0
LINE
  8
_0-a_極細3
  6
CONTINUOUS
 62
    7
 10
750.43065977017125
 20
256.56810602460087
 11
750.43065977017125
 21
188.23477269126755
  0
LINE
  8
_0-a_極細3
  6
CONTINUOUS
 62
    7
 10
667.0973264368381
 20
188.23477269126755
 11
750.43065977017125
 21
188.23477269126755
  0
LINE
  8
_0-a_極細3
  6
CONTINUOUS
 62
    7
 10
750.43065977017125
 20
256.56810602460087
 11
781.27507358195317
 21
256.56810602460087
  0
LINE
  8
_0-a_極細3
  6
CONTINUOUS
 62
    7
 10
667.0973264368381
 20
188.23477269126755
 11
667.0973264368381
 21
161.99317239648849
  0
LINE
  8
_0-a_極細3
  6
CONTINUOUS
 62
    7
 10
758.72066218476493
 20
161.99317239648849
 11
781.27507362349343
 21
184.54758383521735
  0
LINE
  8
_0-a_極細3
  6
CONTINUOUS
 62
    7
 10
688.00998406611018
 20
161.99317239648849
 11
714.2515843608885
 21
188.23477269126755
  0
LINE
  8
_0-a_極細3
  6
CONTINUOUS
 62
    7
 10
750.43065977017125
 20
224.41384810055018
 11
781.27507358270805
 21
255.2582619130871
  0
LINE
  8
_0-a_極細3
  6
CONTINUOUS
 62
    7
 10
751.64959437289917
 20
161.99317239648849
 11
781.27507361941525
 21
191.61865164300451
  0
LINE
  8
_0-a_極細3
  6
CONTINUOUS
 62
    7
 10
680.9389162542443
 20
161.99317239648849
 11
707.18051654902365
 21
188.23477269126755
  0
LINE
  8
_0-a_極細3
  6
CONTINUOUS
 62
    7
 10
750.43065977017125
 20
231.48491591241572
 11
775.51384970280606
 21
256.56810584505041
  0
LINE
  8
_0-a_極細3
  6
CONTINUOUS
 62
    7
 10
744.57852656103341
 20
161.99317239648849
 11
781.27507361533617
 21
198.68971945079139
  0
LINE
  8
_0-a_極細3
  6
CONTINUOUS
 62
    7
 10
673.86784844237854
 20
161.99317239648849
 11
700.10944873715789
 21
188.23477269126755
  0
LINE
  8
_0-a_極細3
  6
CONTINUOUS
 62
    7
 10
750.43065977017125
 20
238.55598372428125
 11
768.44278194155731
 21
256.56810589566652
  0
CIRCLE
  8
_0-a_極細3
  6
CONTINUOUS
 62
    7
 10
653.50312145587532
 20
247.08910903385362
 40
0.5530864197530718
  0
CIRCLE
  8
_0-a_極細3
  6
CONTINUOUS
 62
    7
 10
663.45867701143061
 20
251.8891090338536
 40
0.5530864197530718
  0
CIRCLE
  8
_0-a_極細3
  6
CONTINUOUS
 62
    7
 10
659.3697881225421
 20
226.91133125607618
 40
0.5530864197530718
  0
CIRCLE
  8
_0-a_極細3
  6
CONTINUOUS
 62
    7
 10
676.90312145587586
 20
209.88910903385403
 40
0.5530864197530718
  0
CIRCLE
  8
_0-a_極細3
  6
CONTINUOUS
 62
    7
 10
659.06978812254192
 20
186.58910903385433
 40
0.5530864197530718
  0
CIRCLE
  8
_0-a_極細3
  6
CONTINUOUS
 62
    7
 10
649.73645478920889
 20
168.72244236718771
 40
0.5530864197530718
  0
CIRCLE
  8
_0-a_極細3
  6
CONTINUOUS
 62
    7
 10
661.20312145587513
 20
198.58910903385407
 40
0.5530864197530718
  0
CIRCLE
  8
_0-a_極細3
  6
CONTINUOUS
 62
    7
 10
675.06978812254192
 20
193.78910903385417
 40
0.5530864197530718
  0
CIRCLE
  8
_0-a_極細3
  6
CONTINUOUS
 62
    7
 10
702.00312145587532
 20
194.05577570052074
 40
0.5530864197530718
  0
CIRCLE
  8
_0-a_極細3
  6
CONTINUOUS
 62
    7
 10
690.00312145587532
 20
203.1224423671874
 40
0.5530864197530718
  0
CIRCLE
  8
_0-a_極細3
  6
CONTINUOUS
 62
    7
 10
701.20312145587513
 20
208.72244236718728
 40
0.5530864197530718
  0
CIRCLE
  8
_0-a_極細3
  6
CONTINUOUS
 62
    7
 10
689.22534367809703
 20
263.01133125607566
 40
0.5530864197530718
  0
CIRCLE
  8
_0-a_極細3
  6
CONTINUOUS
 62
    7
 10
709.7586770114309
 20
262.30022014496461
 40
0.5530864197530718
  0
CIRCLE
  8
_0-a_極細3
  6
CONTINUOUS
 62
    7
 10
698.15867701143043
 20
248.30022014496464
 40
0.5530864197530718
  0
CIRCLE
  8
_0-a_極細3
  6
CONTINUOUS
 62
    7
 10
737.35867701143025
 20
195.10022014496528
 40
0.5530864197530718
  0
CIRCLE
  8
_0-a_極細3
  6
CONTINUOUS
 62
    7
 10
744.55867701143006
 20
209.10022014496525
 40
0.5530864197530718
  0
CIRCLE
  8
_0-a_極細3
  6
CONTINUOUS
 62
    7
 10
742.9586770114297
 20
229.900220144965
 40
0.5530864197530718
  0
CIRCLE
  8
_0-a_極細3
  6
CONTINUOUS
 62
    7
 10
724.95867701143072
 20
251.10022014496479
 40
0.5530864197530718
  0
CIRCLE
  8
_0-a_極細3
  6
CONTINUOUS
 62
    7
 10
741.75867701142988
 20
270.70022014496448
 40
0.5530864197530718
  0
CIRCLE
  8
_0-a_極細3
  6
CONTINUOUS
 62
    7
 10
738.9586770114297
 20
243.90022014496478
 40
0.5530864197530718
  0
CIRCLE
  8
_0-a_極細3
  6
CONTINUOUS
 62
    7
 10
768.55867701143006
 20
265.10022014496457
 40
0.5530864197530718
  0
CIRCLE
  8
_0-a_極細3
  6
CONTINUOUS
 62
    7
 10
763.75867701142988
 20
278.87028187335949
 40
1.825531472681392
  0
CIRCLE
  8
_0-a_極細3
  6
CONTINUOUS
 62
    7
 10
748.11423256698572
 20
263.40361520669308
 40
1.825531472681392
  0
CIRCLE
  8
_0-a_極細3
  6
CONTINUOUS
 62
    7
 10
692.69201034476418
 20
269.9813929844708
 40
1.825531472681392
  0
CIRCLE
  8
_0-a_極細3
  6
CONTINUOUS
 62
    7
 10
724.69201034476328
 20
237.98139298447103
 40
1.825531472681392
  0
CIRCLE
  8
_0-a_極細3
  6
CONTINUOUS
 62
    7
 10
654.29756590032002
 20
193.43139298447156
 40
1.825531472681392
  0
CIRCLE
  8
_0-a_極細3
  6
CONTINUOUS
 62
    7
 10
664.51978812254185
 20
223.29805965113809
 40
1.825531472681392
  0
CIRCLE
  8
_0-a_極細3
  6
CONTINUOUS
 62
    7
 10
699.71978812254167
 20
200.89805965113825
 40
1.825531472681392
  0
CIRCLE
  8
_0-a_極細3
  6
CONTINUOUS
 62
    7
 10
745.98498075782527
 20
190.71100725916878
 40
1.825531472681392
  0
CIRCLE
  8
_0-a_極細3
  6
CONTINUOUS
 62
    7
 10
695.31978812254192
 20
244.09805965113782
 40
1.825531472681392
  0
CIRCLE
  8
_0-a_極細3
  6
CONTINUOUS
 62
    7
 10
647.8537387398261
 20
238.67485424410137
 40
0.5530864197530718
  0
CIRCLE
  8
_0-a_極細3
  6
CONTINUOUS
 62
    7
 10
648.05373873982671
 20
214.71929868854608
 40
0.5530864197530718
  0
CIRCLE
  8
_0-a_極細3
  6
CONTINUOUS
 62
    7
 10
725.09201034476393
 20
275.44805965113756
 40
1.825531472681392
  0
LINE
  8
_0-a_極細3
  6
CONTINUOUS
 62
    7
 10
634.59732643683719
 20
263.23477269126755
 11
633.76399310350416
 21
263.23477269126755
  0
LINE
  8
_0-a_極細3
  6
CONTINUOUS
 62
    7
 10
633.76399310350416
 20
263.23477269126755
 11
633.76399310350416
 21
161.99317239648849
  0
CIRCLE
  8
_0-a_極細3
  6
CONTINUOUS
 62
    7
 10
639.74838894558752
 20
223.17799792274283
 40
0.5530864197530718
  0
CIRCLE
  8
_0-a_極細3
  6
CONTINUOUS
 62
    7
 10
641.05497330772732
 20
183.92244236718753
 40
0.5530864197530718
  0
CIRCLE
  8
_0-a_極細3
  6
CONTINUOUS
 62
    7
 10
640.41608441883784
 20
249.87583742891613
 40
1.825531472681392
  0
CIRCLE
  8
_0-a_極細3
  6
CONTINUOUS
 62
    7
 10
643.36423256698583
 20
177.25361520669367
 40
1.825531472681392
  0
LINE
  8
_0-a_極細3
  6
CONTINUOUS
 62
    7
 10
727.40406132399005
 20
213.11647385377111
 11
732.53436347387515
 21
227.21186316555958
  0
LINE
  8
_0-a_極細3
  6
CONTINUOUS
 62
    7
 10
677.41001865019416
 20
247.27548386480584
 11
672.27971650030895
 21
233.18009455301734
  0
LINE
  8
_0-a_極細3
  6
CONTINUOUS
 62
    7
 10
732.53436347387515
 20
227.21186316555958
 11
677.41001865019416
 21
247.27548386480584
  0
LINE
  8
_0-a_極細3
  6
CONTINUOUS
 62
    7
 10
727.40406132399005
 20
213.11647385377111
 11
672.27971650030895
 21
233.18009455301734
  0
LINE
  8
_0-a_極細3
  6
CENTER1
 62
    7
 10
734.9246457909253
 20
218.3605384696354
 11
670.89362530835979
 21
241.66592395467089
  0
LINE
  8
_0-a_極細3
  6
CONTINUOUS
 62
    7
 10
708.76399310350507
 20
188.23477269126755
 11
708.76399310350507
 21
232.32033403958368
  0
LINE
  8
_0-a_極細3
  6
CONTINUOUS
 62
    7
 10
708.76399310350507
 20
232.32033403958368
 11
723.76399310350507
 21
232.32033403958368
  0
LINE
  8
_0-a_極細3
  6
CONTINUOUS
 62
    7
 10
723.76399310350507
 20
232.32033403958368
 11
723.76399310350507
 21
188.23477269126755
  0
LINE
  8
_0-a_極細3
  6
CENTER1
 62
    7
 10
716.26399310350507
 20
179.95803240681468
 11
716.26399310350507
 21
236.59605420419322
  0
CIRCLE
  8
_0-a_極細3
  6
CONTINUOUS
 62
    7
 10
710.38089923365305
 20
245.3965164412611
 40
0.5530864197530718
  0
CIRCLE
  8
_0-a_極細3
  6
CONTINUOUS
 62
    7
 10
732.59708579057997
 20
232.05330656471818
 40
0.5530864197530718
  0
LINE
  8
_0-d_寸法3
  6
CONTINUOUS
 62
    7
 10
683.76399310350507
 20
214.90143935793429
 11
683.76399310350507
 21
197.75674745702887
  0
LINE
  8
_0-d_寸法3
  6
CONTINUOUS
 62
    7
 10
683.76399310350507
 20
202.75674745702887
 11
674.10473484061436
 21
200.16855700600374
  0
LINE
  8
_0-d_寸法3
  6
CONTINUOUS
 62
    7
 10
683.76399310350507
 20
202.75674745702887
 11
674.10473484061436
 21
205.34493790805413
  0
LINE
  8
_0-d_寸法3
  6
CONTINUOUS
 62
    7
 10
633.76399310350507
 20
253.23477269126755
 11
633.76399310350507
 21
197.75674745702887
  0
LINE
  8
_0-d_寸法3
  6
CONTINUOUS
 62
    7
 10
633.76399310350507
 20
202.75674745702887
 11
643.4232513663959
 21
205.34493790805413
  0
LINE
  8
_0-d_寸法3
  6
CONTINUOUS
 62
    7
 10
633.76399310350507
 20
202.75674745702887
 11
643.4232513663959
 21
200.16855700600374
  0
LINE
  8
_0-d_寸法3
  6
CONTINUOUS
 62
    7
 10
683.76399310350507
 20
202.75674745702887
 11
633.76399310350507
 21
202.75674745702887
  0
TEXT
  8
_0-d_寸法3
 62
    7
 10
651.26399310350507
 20
202.75674745702887
 40
15
 41
1
 50
0.0000000000002714
  1
30
  0
ARC
  8
_0-b_細線3
  6
CONTINUOUS
 62
    7
 10
678.76399310350507
 20
268.23477269126755
 40
5
 50
269.99999999999977
 51
359.99999999999966
  0
LINE
  8
_0-b_細線3
  6
CONTINUOUS
 62
    7
 10
683.76399310350507
 20
268.23477269126755
 11
683.76399310350507
 21
292.40143935793407
  0
LINE
  8
_0-b_細線3
  6
CONTINUOUS
 62
    7
 10
678.76399310350507
 20
263.23477269126755
 11
634.59732643683719
 21
263.23477269126755
  0
LINE
  8
_0-b_細線3
  6
CONTINUOUS
 62
    7
 10
633.76399310350416
 20
264.06810602460087
 11
634.59732643683719
 21
263.23477269126755
  0
LINE
  8
_0-b_細線3
  6
CONTINUOUS
 62
    7
 10
633.76399310350416
 20
267.40143935793429
 11
633.76399310350416
 21
264.06810602460087
  0
LINE
  8
_0-b_細線3
  6
CONTINUOUS
 62
    7
 10
634.59732643683719
 20
268.23477269126755
 11
633.76399310350416
 21
267.40143935793429
  0
LINE
  8
_0-b_細線3
  6
CONTINUOUS
 62
    7
 10
678.76399310350507
 20
268.23477269126755
 11
634.59732643683719
 21
268.23477269126755
  0
LINE
  8
_0-b_細線3
  6
CONTINUOUS
 62
    7
 10
682.93065977017204
 20
293.23477269126755
 11
683.76399310350507
 21
292.40143935793407
  0
LINE
  8
_0-b_細線3
  6
CONTINUOUS
 62
    7
 10
679.5973264368381
 20
293.23477269126755
 11
682.93065977017204
 21
293.23477269126755
  0
LINE
  8
_0-b_細線3
  6
CONTINUOUS
 62
    7
 10
678.76399310350507
 20
292.40143935793407
 11
679.5973264368381
 21
293.23477269126755
  0
LINE
  8
_0-b_細線3
  6
CONTINUOUS
 62
    7
 10
678.76399310350507
 20
268.23477269126755
 11
678.76399310350507
 21
292.40143935793407
  0
LINE
  8
_0-d_寸法3
  6
CONTINUOUS
 62
    7
 10
257.0973264368385
 20
298.23477269126755
 11
257.0973264368385
 21
408.23477102292281
  0
LINE
  8
_0-d_寸法3
  6
CONTINUOUS
 62
    7
 10
257.0973264368385
 20
403.23477102292281
 11
266.75658469972916
 21
405.822961473948
  0
LINE
  8
_0-d_寸法3
  6
CONTINUOUS
 62
    7
 10
257.0973264368385
 20
403.23477102292281
 11
266.75658469972916
 21
400.64658057189763
  0
LINE
  8
_0-d_寸法3
  6
CONTINUOUS
 62
    7
 10
683.76399310350507
 20
298.23477269126755
 11
683.76399310350507
 21
408.23477102292281
  0
LINE
  8
_0-d_寸法3
  6
CONTINUOUS
 62
    7
 10
683.76399310350507
 20
403.23477102292281
 11
674.10473484061436
 21
400.64658057189763
  0
LINE
  8
_0-d_寸法3
  6
CONTINUOUS
 62
    7
 10
683.76399310350507
 20
403.23477102292281
 11
674.10473484061436
 21
405.822961473948
  0
LINE
  8
_0-d_寸法3
  6
CONTINUOUS
 62
    7
 10
257.0973264368385
 20
403.23477102292281
 11
683.76399310350507
 21
403.23477102292281
  0
TEXT
  8
_0-d_寸法3
 62
    7
 10
459.18065977017199
 20
403.23477102292281
 40
15
 41
1
 50
0
  1
256
  0
LINE
  8
_0-d_寸法3
  6
CONTINUOUS
 62
    7
 10
307.0973264368385
 20
258.23477269126755
 11
307.0973264368385
 21
197.75674745702887
  0
LINE
  8
_0-d_寸法3
  6
CONTINUOUS
 62
    7
 10
307.0973264368385
 20
202.75674745702887
 11
316.75658469972916
 21
205.34493790805413
  0
LINE
  8
_0-d_寸法3
  6
CONTINUOUS
 62
    7
 10
307.0973264368385
 20
202.75674745702887
 11
316.75658469972916
 21
200.16855700600374
  0
LINE
  8
_0-d_寸法3
  6
CONTINUOUS
 62
    7
 10
633.76399310350416
 20
258.23477269126755
 11
633.76399310350416
 21
197.75674745702887
  0
LINE
  8
_0-d_寸法3
  6
CONTINUOUS
 62
    7
 10
633.76399310350416
 20
202.75674745702887
 11
624.10473484061345
 21
200.16855700600374
  0
LINE
  8
_0-d_寸法3
  6
CONTINUOUS
 62
    7
 10
633.76399310350416
 20
202.75674745702887
 11
624.10473484061345
 21
205.34493790805413
  0
LINE
  8
_0-d_寸法3
  6
CONTINUOUS
 62
    7
 10
307.0973264368385
 20
202.75674745702887
 11
633.76399310350416
 21
202.75674745702887
  0
TEXT
  8
_0-d_寸法3
 62
    7
 10
459.18065977017159
 20
202.75674745702887
 40
15
 41
1
 50
0
  1
196
  0
LINE
  8
_0-a_極細3
  6
CENTER1
 62
    7
 10
686.43074817132731
 20
279.90143935793429
 11
255.44333399229799
 21
279.90143935793429
  0
ARC
  8
_0-b_細線3
  6
CONTINUOUS
 62
    7
 10
517.09732643683901
 20
370.76391364829641
 40
97.696522151886498
 50
263.73185704547677
 51
276.2681429545222
  0
ARC
  8
_0-b_細線3
  6
CONTINUOUS
 62
    7
 10
517.09732643683901
 20
189.03896506757178
 40
97.696522151886498
 50
83.731857045477398
 51
96.268142954522901
  0
ARC
  8
_0-b_細線3
  6
CONTINUOUS
 62
    7
 10
493.76399310350553
 20
370.76391364829641
 40
97.696522151886498
 50
263.73185704547677
 51
276.26814295452255
  0
ARC
  8
_0-b_細線3
  6
CONTINUOUS
 62
    7
 10
493.76399310350553
 20
189.03896506757178
 40
97.696522151886498
 50
83.731857045477128
 51
96.268142954522872
  0
LINE
  8
_0-b_細線3
  6
CONTINUOUS
 62
    7
 10
488.76399310350553
 20
291.23477269126732
 11
488.76399310350553
 21
293.23477269126732
  0
LINE
  8
_0-b_細線3
  6
CONTINUOUS
 62
    7
 10
483.09732643683901
 20
291.23477269126732
 11
488.76399310350553
 21
291.23477269126732
  0
LINE
  8
_0-b_細線3
  6
CONTINUOUS
 62
    7
 10
483.09732643683901
 20
268.23477269126732
 11
483.09732643683901
 21
291.23477269126732
  0
LINE
  8
_0-b_細線3
  6
CONTINUOUS
 62
    7
 10
481.09732643683901
 20
268.23477269126732
 11
483.09732643683901
 21
268.23477269126732
  0
LINE
  8
_0-b_細線3
  6
CONTINUOUS
 62
    7
 10
481.09732643683901
 20
291.23477269126732
 11
481.09732643683901
 21
268.23477269126732
  0
LINE
  8
_0-b_細線3
  6
CONTINUOUS
 62
    7
 10
475.43065977017199
 20
291.23477269126732
 11
481.09732643683901
 21
291.23477269126732
  0
LINE
  8
_0-b_細線3
  6
CONTINUOUS
 62
    7
 10
475.43065977017199
 20
293.23477269126732
 11
475.43065977017199
 21
291.23477269126732
  0
LINE
  8
_0-b_細線3
  6
CONTINUOUS
 62
    7
 10
488.76399310350553
 20
293.23477269126732
 11
475.43065977017199
 21
293.23477269126732
  0
LINE
  8
_0-b_細線3
  6
CONTINUOUS
 62
    7
 10
512.09732643683901
 20
291.23477269126732
 11
512.09732643683901
 21
293.23477269126732
  0
LINE
  8
_0-b_細線3
  6
CONTINUOUS
 62
    7
 10
506.43065977017204
 20
291.23477269126732
 11
512.09732643683901
 21
291.23477269126732
  0
LINE
  8
_0-b_細線3
  6
CONTINUOUS
 62
    7
 10
506.43065977017204
 20
268.23477269126732
 11
506.43065977017204
 21
291.23477269126732
  0
LINE
  8
_0-b_細線3
  6
CONTINUOUS
 62
    7
 10
504.4306597701725
 20
268.23477269126732
 11
506.43065977017204
 21
268.23477269126732
  0
LINE
  8
_0-b_細線3
  6
CONTINUOUS
 62
    7
 10
504.4306597701725
 20
291.23477269126732
 11
504.4306597701725
 21
268.23477269126732
  0
LINE
  8
_0-b_細線3
  6
CONTINUOUS
 62
    7
 10
498.76399310350592
 20
291.23477269126732
 11
504.4306597701725
 21
291.23477269126732
  0
LINE
  8
_0-b_細線3
  6
CONTINUOUS
 62
    7
 10
498.76399310350592
 20
293.23477269126732
 11
498.76399310350592
 21
291.23477269126732
  0
LINE
  8
_0-b_細線3
  6
CONTINUOUS
 62
    7
 10
512.09732643683901
 20
293.23477269126732
 11
498.76399310350592
 21
293.23477269126732
  0
ARC
  8
_0-b_細線3
  6
CONTINUOUS
 62
    7
 10
470.43065977017199
 20
370.76391364829641
 40
97.696522151886498
 50
263.73185704547706
 51
276.2681429545222
  0
ARC
  8
_0-b_細線3
  6
CONTINUOUS
 62
    7
 10
470.43065977017199
 20
189.03896506757178
 40
97.696522151886498
 50
83.731857045477398
 51
96.268142954522617
  0
LINE
  8
_0-b_細線3
  6
CONTINUOUS
 62
    7
 10
465.43065977017199
 20
291.23477269126732
 11
465.43065977017199
 21
293.23477269126732
  0
LINE
  8
_0-b_細線3
  6
CONTINUOUS
 62
    7
 10
459.76399310350592
 20
291.23477269126732
 11
465.43065977017199
 21
291.23477269126732
  0
LINE
  8
_0-b_細線3
  6
CONTINUOUS
 62
    7
 10
459.76399310350592
 20
268.23477269126732
 11
459.76399310350592
 21
291.23477269126732
  0
LINE
  8
_0-b_細線3
  6
CONTINUOUS
 62
    7
 10
457.76399310350598
 20
268.23477269126732
 11
459.76399310350592
 21
268.23477269126732
  0
LINE
  8
_0-b_細線3
  6
CONTINUOUS
 62
    7
 10
457.76399310350598
 20
291.23477269126732
 11
457.76399310350598
 21
268.23477269126732
  0
LINE
  8
_0-b_細線3
  6
CONTINUOUS
 62
    7
 10
452.09732643683901
 20
291.23477269126732
 11
457.76399310350598
 21
291.23477269126732
  0
LINE
  8
_0-b_細線3
  6
CONTINUOUS
 62
    7
 10
452.09732643683901
 20
293.23477269126732
 11
452.09732643683901
 21
291.23477269126732
  0
LINE
  8
_0-b_細線3
  6
CONTINUOUS
 62
    7
 10
465.43065977017199
 20
293.23477269126732
 11
452.09732643683901
 21
293.23477269126732
  0
ARC
  8
_0-b_細線3
  6
CONTINUOUS
 62
    7
 10
447.09732643683901
 20
370.76391364829641
 40
97.696522151886498
 50
263.73185704547654
 51
276.2681429545222
  0
ARC
  8
_0-b_細線3
  6
CONTINUOUS
 62
    7
 10
447.09732643683901
 20
189.03896506757178
 40
97.696522151886498
 50
83.731857045477398
 51
96.268142954523142
  0
ARC
  8
_0-b_細線3
  6
CONTINUOUS
 62
    7
 10
540.43065977017159
 20
370.76391364829641
 40
97.696522151886498
 50
263.73185704547677
 51
276.26814295452255
  0
ARC
  8
_0-b_細線3
  6
CONTINUOUS
 62
    7
 10
540.43065977017159
 20
189.03896506757178
 40
97.696522151886498
 50
83.731857045477128
 51
96.268142954522872
  0
LINE
  8
_0-b_細線3
  6
CONTINUOUS
 62
    7
 10
535.43065977017204
 20
291.23477269126732
 11
535.43065977017204
 21
293.23477269126732
  0
LINE
  8
_0-b_細線3
  6
CONTINUOUS
 62
    7
 10
529.76399310350507
 20
291.23477269126732
 11
535.43065977017204
 21
291.23477269126732
  0
LINE
  8
_0-b_細線3
  6
CONTINUOUS
 62
    7
 10
529.76399310350507
 20
268.23477269126732
 11
529.76399310350507
 21
291.23477269126732
  0
LINE
  8
_0-b_細線3
  6
CONTINUOUS
 62
    7
 10
527.76399310350507
 20
268.23477269126732
 11
529.76399310350507
 21
268.23477269126732
  0
LINE
  8
_0-b_細線3
  6
CONTINUOUS
 62
    7
 10
527.76399310350507
 20
291.23477269126732
 11
527.76399310350507
 21
268.23477269126732
  0
LINE
  8
_0-b_細線3
  6
CONTINUOUS
 62
    7
 10
522.09732643683856
 20
291.23477269126732
 11
527.76399310350507
 21
291.23477269126732
  0
LINE
  8
_0-b_細線3
  6
CONTINUOUS
 62
    7
 10
522.09732643683856
 20
293.23477269126732
 11
522.09732643683856
 21
291.23477269126732
  0
LINE
  8
_0-b_細線3
  6
CONTINUOUS
 62
    7
 10
535.43065977017204
 20
293.23477269126732
 11
522.09732643683856
 21
293.23477269126732
  0
ARC
  8
_0-b_細線3
  6
CONTINUOUS
 62
    7
 10
563.76399310350416
 20
370.76391364829641
 40
97.696522151886498
 50
263.73185704547706
 51
276.26814295452255
  0
ARC
  8
_0-b_細線3
  6
CONTINUOUS
 62
    7
 10
563.76399310350416
 20
189.03896506757178
 40
97.696522151886498
 50
83.731857045476872
 51
96.268142954522617
  0
LINE
  8
_0-b_細線3
  6
CONTINUOUS
 62
    7
 10
558.76399310350507
 20
291.23477269126732
 11
558.76399310350507
 21
293.23477269126732
  0
LINE
  8
_0-b_細線3
  6
CONTINUOUS
 62
    7
 10
553.09732643683765
 20
291.23477269126732
 11
558.76399310350507
 21
291.23477269126732
  0
LINE
  8
_0-b_細線3
  6
CONTINUOUS
 62
    7
 10
553.09732643683765
 20
268.23477269126732
 11
553.09732643683765
 21
291.23477269126732
  0
LINE
  8
_0-b_細線3
  6
CONTINUOUS
 62
    7
 10
551.0973264368381
 20
268.23477269126732
 11
553.09732643683765
 21
268.23477269126732
  0
LINE
  8
_0-b_細線3
  6
CONTINUOUS
 62
    7
 10
551.0973264368381
 20
291.23477269126732
 11
551.0973264368381
 21
268.23477269126732
  0
LINE
  8
_0-b_細線3
  6
CONTINUOUS
 62
    7
 10
545.43065977017113
 20
291.23477269126732
 11
551.0973264368381
 21
291.23477269126732
  0
LINE
  8
_0-b_細線3
  6
CONTINUOUS
 62
    7
 10
545.43065977017113
 20
293.23477269126732
 11
545.43065977017113
 21
291.23477269126732
  0
LINE
  8
_0-b_細線3
  6
CONTINUOUS
 62
    7
 10
558.76399310350507
 20
293.23477269126732
 11
545.43065977017113
 21
293.23477269126732
  0
ARC
  8
_0-b_細線3
  6
CONTINUOUS
 62
    7
 10
587.09732643683719
 20
370.76391364829641
 40
97.696522151886498
 50
263.73185704547706
 51
276.2681429545222
  0
ARC
  8
_0-b_細線3
  6
CONTINUOUS
 62
    7
 10
587.09732643683719
 20
189.03896506757178
 40
97.696522151886498
 50
83.731857045477128
 51
96.268142954522617
  0
LINE
  8
_0-b_細線3
  6
CONTINUOUS
 62
    7
 10
582.09732643683765
 20
291.23477269126732
 11
582.09732643683765
 21
293.23477269126732
  0
LINE
  8
_0-b_細線3
  6
CONTINUOUS
 62
    7
 10
576.43065977017022
 20
291.23477269126732
 11
582.09732643683765
 21
291.23477269126732
  0
LINE
  8
_0-b_細線3
  6
CONTINUOUS
 62
    7
 10
576.43065977017022
 20
268.23477269126732
 11
576.43065977017022
 21
291.23477269126732
  0
LINE
  8
_0-b_細線3
  6
CONTINUOUS
 62
    7
 10
574.43065977017113
 20
268.23477269126732
 11
576.43065977017022
 21
268.23477269126732
  0
LINE
  8
_0-b_細線3
  6
CONTINUOUS
 62
    7
 10
574.43065977017113
 20
291.23477269126732
 11
574.43065977017113
 21
268.23477269126732
  0
LINE
  8
_0-b_細線3
  6
CONTINUOUS
 62
    7
 10
568.76399310350416
 20
291.23477269126732
 11
574.43065977017113
 21
291.23477269126732
  0
LINE
  8
_0-b_細線3
  6
CONTINUOUS
 62
    7
 10
568.76399310350416
 20
293.23477269126732
 11
568.76399310350416
 21
291.23477269126732
  0
LINE
  8
_0-b_細線3
  6
CONTINUOUS
 62
    7
 10
582.09732643683765
 20
293.23477269126732
 11
568.76399310350416
 21
293.23477269126732
  0
LINE
  8
_0-b_細線3
  6
CONTINUOUS
 62
    7
 10
605.43065977017022
 20
291.23477269126732
 11
605.43065977017022
 21
293.23477269126732
  0
LINE
  8
_0-b_細線3
  6
CONTINUOUS
 62
    7
 10
599.76399310350325
 20
291.23477269126732
 11
605.43065977017022
 21
291.23477269126732
  0
LINE
  8
_0-b_細線3
  6
CONTINUOUS
 62
    7
 10
599.76399310350325
 20
268.23477269126732
 11
599.76399310350325
 21
291.23477269126732
  0
LINE
  8
_0-b_細線3
  6
CONTINUOUS
 62
    7
 10
597.76399310350371
 20
268.23477269126732
 11
599.76399310350325
 21
268.23477269126732
  0
LINE
  8
_0-b_細線3
  6
CONTINUOUS
 62
    7
 10
597.76399310350371
 20
291.23477269126732
 11
597.76399310350371
 21
268.23477269126732
  0
LINE
  8
_0-b_細線3
  6
CONTINUOUS
 62
    7
 10
592.09732643683719
 20
291.23477269126732
 11
597.76399310350371
 21
291.23477269126732
  0
LINE
  8
_0-b_細線3
  6
CONTINUOUS
 62
    7
 10
592.09732643683719
 20
293.23477269126732
 11
592.09732643683719
 21
291.23477269126732
  0
LINE
  8
_0-b_細線3
  6
CONTINUOUS
 62
    7
 10
605.43065977017022
 20
293.23477269126732
 11
592.09732643683719
 21
293.23477269126732
  0
LINE
  8
_0-b_細線3
  6
CONTINUOUS
 62
    7
 10
442.09732643683901
 20
291.23477269126732
 11
442.09732643683901
 21
293.23477269126732
  0
LINE
  8
_0-b_細線3
  6
CONTINUOUS
 62
    7
 10
436.43065977017204
 20
291.23477269126732
 11
442.09732643683901
 21
291.23477269126732
  0
LINE
  8
_0-b_細線3
  6
CONTINUOUS
 62
    7
 10
436.43065977017204
 20
268.23477269126732
 11
436.43065977017204
 21
291.23477269126732
  0
LINE
  8
_0-b_細線3
  6
CONTINUOUS
 62
    7
 10
434.43065977017199
 20
268.23477269126732
 11
436.43065977017204
 21
268.23477269126732
  0
LINE
  8
_0-b_細線3
  6
CONTINUOUS
 62
    7
 10
434.43065977017199
 20
291.23477269126732
 11
434.43065977017199
 21
268.23477269126732
  0
LINE
  8
_0-b_細線3
  6
CONTINUOUS
 62
    7
 10
428.76399310350507
 20
291.23477269126732
 11
434.43065977017199
 21
291.23477269126732
  0
LINE
  8
_0-b_細線3
  6
CONTINUOUS
 62
    7
 10
428.76399310350507
 20
293.23477269126732
 11
428.76399310350507
 21
291.23477269126732
  0
LINE
  8
_0-b_細線3
  6
CONTINUOUS
 62
    7
 10
442.09732643683901
 20
293.23477269126732
 11
428.76399310350507
 21
293.23477269126732
  0
ARC
  8
_0-b_細線3
  6
CONTINUOUS
 62
    7
 10
423.76399310350507
 20
370.76391364829641
 40
97.696522151886498
 50
263.73185704547706
 51
276.26814295452255
  0
ARC
  8
_0-b_細線3
  6
CONTINUOUS
 62
    7
 10
423.76399310350507
 20
189.03896506757178
 40
97.696522151886498
 50
83.731857045477128
 51
96.268142954522617
  0
LINE
  8
_0-b_細線3
  6
CONTINUOUS
 62
    7
 10
418.76399310350507
 20
291.23477269126732
 11
418.76399310350507
 21
293.23477269126732
  0
LINE
  8
_0-b_細線3
  6
CONTINUOUS
 62
    7
 10
413.09732643683901
 20
291.23477269126732
 11
418.76399310350507
 21
291.23477269126732
  0
LINE
  8
_0-b_細線3
  6
CONTINUOUS
 62
    7
 10
413.09732643683901
 20
268.23477269126732
 11
413.09732643683901
 21
291.23477269126732
  0
LINE
  8
_0-b_細線3
  6
CONTINUOUS
 62
    7
 10
411.09732643683901
 20
268.23477269126732
 11
413.09732643683901
 21
268.23477269126732
  0
LINE
  8
_0-b_細線3
  6
CONTINUOUS
 62
    7
 10
411.09732643683901
 20
291.23477269126732
 11
411.09732643683901
 21
268.23477269126732
  0
LINE
  8
_0-b_細線3
  6
CONTINUOUS
 62
    7
 10
405.43065977017199
 20
291.23477269126732
 11
411.09732643683901
 21
291.23477269126732
  0
LINE
  8
_0-b_細線3
  6
CONTINUOUS
 62
    7
 10
405.43065977017199
 20
293.23477269126732
 11
405.43065977017199
 21
291.23477269126732
  0
LINE
  8
_0-b_細線3
  6
CONTINUOUS
 62
    7
 10
418.76399310350507
 20
293.23477269126732
 11
405.43065977017199
 21
293.23477269126732
  0
ARC
  8
_0-b_細線3
  6
CONTINUOUS
 62
    7
 10
400.43065977017199
 20
370.76391364829641
 40
97.696522151886498
 50
263.73185704547677
 51
276.2681429545222
  0
ARC
  8
_0-b_細線3
  6
CONTINUOUS
 62
    7
 10
400.43065977017199
 20
189.03896506757178
 40
97.696522151886498
 50
83.731857045477398
 51
96.268142954522872
  0
LINE
  8
_0-b_細線3
  6
CONTINUOUS
 62
    7
 10
395.43065977017199
 20
291.23477269126732
 11
395.43065977017199
 21
293.23477269126732
  0
LINE
  8
_0-b_細線3
  6
CONTINUOUS
 62
    7
 10
389.76399310350553
 20
291.23477269126732
 11
395.43065977017199
 21
291.23477269126732
  0
LINE
  8
_0-b_細線3
  6
CONTINUOUS
 62
    7
 10
389.76399310350553
 20
268.23477269126732
 11
389.76399310350553
 21
291.23477269126732
  0
LINE
  8
_0-b_細線3
  6
CONTINUOUS
 62
    7
 10
387.76399310350547
 20
268.23477269126732
 11
389.76399310350553
 21
268.23477269126732
  0
LINE
  8
_0-b_細線3
  6
CONTINUOUS
 62
    7
 10
387.76399310350547
 20
291.23477269126732
 11
387.76399310350547
 21
268.23477269126732
  0
LINE
  8
_0-b_細線3
  6
CONTINUOUS
 62
    7
 10
382.0973264368385
 20
291.23477269126732
 11
387.76399310350547
 21
291.23477269126732
  0
LINE
  8
_0-b_細線3
  6
CONTINUOUS
 62
    7
 10
382.0973264368385
 20
293.23477269126732
 11
382.0973264368385
 21
291.23477269126732
  0
LINE
  8
_0-b_細線3
  6
CONTINUOUS
 62
    7
 10
395.43065977017199
 20
293.23477269126732
 11
382.0973264368385
 21
293.23477269126732
  0
ARC
  8
_0-b_細線3
  6
CONTINUOUS
 62
    7
 10
377.0973264368385
 20
370.76391364829641
 40
97.696522151886498
 50
263.73185704547677
 51
276.26814295452255
  0
ARC
  8
_0-b_細線3
  6
CONTINUOUS
 62
    7
 10
377.0973264368385
 20
189.03896506757178
 40
97.696522151886498
 50
83.731857045477128
 51
96.268142954522872
  0
LINE
  8
_0-b_細線3
  6
CONTINUOUS
 62
    7
 10
372.0973264368385
 20
291.23477269126732
 11
372.0973264368385
 21
293.23477269126732
  0
LINE
  8
_0-b_細線3
  6
CONTINUOUS
 62
    7
 10
366.43065977017204
 20
291.23477269126732
 11
372.0973264368385
 21
291.23477269126732
  0
LINE
  8
_0-b_細線3
  6
CONTINUOUS
 62
    7
 10
366.43065977017204
 20
268.23477269126732
 11
366.43065977017204
 21
291.23477269126732
  0
LINE
  8
_0-b_細線3
  6
CONTINUOUS
 62
    7
 10
364.43065977017199
 20
268.23477269126732
 11
366.43065977017204
 21
268.23477269126732
  0
LINE
  8
_0-b_細線3
  6
CONTINUOUS
 62
    7
 10
364.43065977017199
 20
291.23477269126732
 11
364.43065977017199
 21
268.23477269126732
  0
LINE
  8
_0-b_細線3
  6
CONTINUOUS
 62
    7
 10
358.76399310350502
 20
291.23477269126732
 11
364.43065977017199
 21
291.23477269126732
  0
LINE
  8
_0-b_細線3
  6
CONTINUOUS
 62
    7
 10
358.76399310350502
 20
293.23477269126732
 11
358.76399310350502
 21
291.23477269126732
  0
LINE
  8
_0-b_細線3
  6
CONTINUOUS
 62
    7
 10
372.0973264368385
 20
293.23477269126732
 11
358.76399310350502
 21
293.23477269126732
  0
LINE
  8
_0-d_寸法3
  6
CONTINUOUS
 62
    7
 10
505.4306597701725
 20
303.23477269126732
 11
505.4306597701725
 21
344.90143935793475
  0
LINE
  8
_0-d_寸法3
  6
CONTINUOUS
 62
    7
 10
505.4306597701725
 20
339.90143935793475
 11
515.08991803306321
 21
342.48962980895999
  0
LINE
  8
_0-d_寸法3
  6
CONTINUOUS
 62
    7
 10
505.4306597701725
 20
339.90143935793475
 11
515.08991803306321
 21
337.31324890690956
  0
LINE
  8
_0-d_寸法3
  6
CONTINUOUS
 62
    7
 10
528.76399310350564
 20
303.23477269126732
 11
528.76399310350598
 21
344.90143935793475
  0
LINE
  8
_0-d_寸法3
  6
CONTINUOUS
 62
    7
 10
528.76399310350598
 20
339.90143935793475
 11
519.10473484061527
 21
337.31324890690956
  0
LINE
  8
_0-d_寸法3
  6
CONTINUOUS
 62
    7
 10
528.76399310350598
 20
339.90143935793475
 11
519.10473484061527
 21
342.48962980896005
  0
LINE
  8
_0-d_寸法3
  6
CONTINUOUS
 62
    7
 10
505.4306597701725
 20
339.90143935793475
 11
528.76399310350598
 21
339.90143935793475
  0
TEXT
  8
_0-d_寸法3
 62
    7
 10
509.59732643683907
 20
339.90143935793475
 40
15
 41
1
 50
0
  1
14
  0
LINE
  8
_0-d_寸法3
  6
CONTINUOUS
 62
    7
 10
528.76399310350598
 20
339.90143935793475
 11
538.4232513663967
 21
342.48962980895988
  0
LINE
  8
_0-d_寸法3
  6
CONTINUOUS
 62
    7
 10
528.76399310350598
 20
339.90143935793475
 11
538.4232513663967
 21
337.31324890690951
  0
LINE
  8
_0-d_寸法3
  6
CONTINUOUS
 62
    7
 10
552.09732643683901
 20
303.23477269126732
 11
552.09732643683901
 21
344.90143935793475
  0
LINE
  8
_0-d_寸法3
  6
CONTINUOUS
 62
    7
 10
552.09732643683901
 20
339.90143935793475
 11
542.4380681739483
 21
337.31324890690956
  0
LINE
  8
_0-d_寸法3
  6
CONTINUOUS
 62
    7
 10
552.09732643683901
 20
339.90143935793475
 11
542.4380681739483
 21
342.48962980896005
  0
LINE
  8
_0-d_寸法3
  6
CONTINUOUS
 62
    7
 10
528.76399310350598
 20
339.90143935793475
 11
552.09732643683901
 21
339.90143935793475
  0
TEXT
  8
_0-d_寸法3
 62
    7
 10
532.9306597701725
 20
339.90143935793475
 40
15
 41
1
 50
0
  1
14
  0
ARC
  8
_0-b_細線3
  6
CONTINUOUS
 62
    7
 10
353.76399310350502
 20
370.76391364829641
 40
97.696522151886498
 50
263.73185704547706
 51
276.26814295452255
  0
ARC
  8
_0-b_細線3
  6
CONTINUOUS
 62
    7
 10
353.76399310350502
 20
189.03896506757178
 40
97.696522151886498
 50
83.731857045477128
 51
96.268142954522617
  0
LINE
  8
_0-b_細線3
  6
CONTINUOUS
 62
    7
 10
348.76399310350502
 20
291.23477269126732
 11
348.76399310350502
 21
293.23477269126732
  0
LINE
  8
_0-b_細線3
  6
CONTINUOUS
 62
    7
 10
343.09732643683896
 20
291.23477269126732
 11
348.76399310350502
 21
291.23477269126732
  0
LINE
  8
_0-b_細線3
  6
CONTINUOUS
 62
    7
 10
343.09732643683896
 20
268.23477269126732
 11
343.09732643683896
 21
291.23477269126732
  0
LINE
  8
_0-b_細線3
  6
CONTINUOUS
 62
    7
 10
341.09732643683901
 20
268.23477269126732
 11
343.09732643683896
 21
268.23477269126732
  0
LINE
  8
_0-b_細線3
  6
CONTINUOUS
 62
    7
 10
341.09732643683901
 20
291.23477269126732
 11
341.09732643683901
 21
268.23477269126732
  0
LINE
  8
_0-b_細線3
  6
CONTINUOUS
 62
    7
 10
335.43065977017199
 20
291.23477269126732
 11
341.09732643683901
 21
291.23477269126732
  0
LINE
  8
_0-b_細線3
  6
CONTINUOUS
 62
    7
 10
335.43065977017199
 20
293.23477269126732
 11
335.43065977017199
 21
291.23477269126732
  0
LINE
  8
_0-b_細線3
  6
CONTINUOUS
 62
    7
 10
348.76399310350502
 20
293.23477269126732
 11
335.43065977017199
 21
293.23477269126732
  0
ARC
  8
_0-b_細線3
  6
CONTINUOUS
 62
    7
 10
330.43065977017199
 20
370.76391364829641
 40
97.696522151886498
 50
263.73185704547654
 51
276.2681429545222
  0
ARC
  8
_0-b_細線3
  6
CONTINUOUS
 62
    7
 10
330.43065977017199
 20
189.03896506757178
 40
97.696522151886498
 50
83.731857045477398
 51
96.268142954523142
  0
LINE
  8
_0-b_細線3
  6
CONTINUOUS
 62
    7
 10
325.43065977017199
 20
291.23477269126732
 11
325.43065977017199
 21
293.23477269126732
  0
LINE
  8
_0-b_細線3
  6
CONTINUOUS
 62
    7
 10
319.76399310350541
 20
291.23477269126732
 11
325.43065977017199
 21
291.23477269126732
  0
LINE
  8
_0-b_細線3
  6
CONTINUOUS
 62
    7
 10
319.76399310350541
 20
268.23477269126732
 11
319.76399310350541
 21
291.23477269126732
  0
LINE
  8
_0-b_細線3
  6
CONTINUOUS
 62
    7
 10
317.76399310350547
 20
268.23477269126732
 11
319.76399310350541
 21
268.23477269126732
  0
LINE
  8
_0-b_細線3
  6
CONTINUOUS
 62
    7
 10
317.76399310350547
 20
291.23477269126732
 11
317.76399310350547
 21
268.23477269126732
  0
LINE
  8
_0-b_細線3
  6
CONTINUOUS
 62
    7
 10
312.0973264368385
 20
291.23477269126732
 11
317.76399310350547
 21
291.23477269126732
  0
LINE
  8
_0-b_細線3
  6
CONTINUOUS
 62
    7
 10
312.0973264368385
 20
293.23477269126732
 11
312.0973264368385
 21
291.23477269126732
  0
LINE
  8
_0-b_細線3
  6
CONTINUOUS
 62
    7
 10
325.43065977017199
 20
293.23477269126732
 11
312.0973264368385
 21
293.23477269126732
  0
ARC
  8
_0-b_細線3
  6
CONTINUOUS
 62
    7
 10
610.43065977017022
 20
370.76391364829641
 40
97.696522151886498
 50
263.73185704547677
 51
276.2681429545222
  0
ARC
  8
_0-b_細線3
  6
CONTINUOUS
 62
    7
 10
610.43065977017022
 20
189.03896506757178
 40
97.696522151886498
 50
83.731857045477398
 51
96.268142954522872
  0
LINE
  8
_0-b_細線3
  6
CONTINUOUS
 62
    7
 10
628.76399310350325
 20
291.23477269126732
 11
628.76399310350325
 21
293.23477269126732
  0
LINE
  8
_0-b_細線3
  6
CONTINUOUS
 62
    7
 10
623.09732643683628
 20
291.23477269126732
 11
628.76399310350325
 21
291.23477269126732
  0
LINE
  8
_0-b_細線3
  6
CONTINUOUS
 62
    7
 10
623.09732643683628
 20
268.23477269126732
 11
623.09732643683628
 21
291.23477269126732
  0
LINE
  8
_0-b_細線3
  6
CONTINUOUS
 62
    7
 10
621.09732643683628
 20
268.23477269126732
 11
623.09732643683628
 21
268.23477269126732
  0
LINE
  8
_0-b_細線3
  6
CONTINUOUS
 62
    7
 10
621.09732643683628
 20
291.23477269126732
 11
621.09732643683628
 21
268.23477269126732
  0
LINE
  8
_0-b_細線3
  6
CONTINUOUS
 62
    7
 10
615.43065977016977
 20
291.23477269126732
 11
621.09732643683628
 21
291.23477269126732
  0
LINE
  8
_0-b_細線3
  6
CONTINUOUS
 62
    7
 10
615.43065977016977
 20
293.23477269126732
 11
615.43065977016977
 21
291.23477269126732
  0
LINE
  8
_0-b_細線3
  6
CONTINUOUS
 62
    7
 10
628.76399310350325
 20
293.23477269126732
 11
615.43065977016977
 21
293.23477269126732
  0
ARC
  8
_0-b_細線3
  6
CONTINUOUS
 62
    7
 10
307.0973264368385
 20
370.76391364829641
 40
97.696522151886498
 50
263.73185704547677
 51
276.26814295452255
  0
ARC
  8
_0-b_細線3
  6
CONTINUOUS
 62
    7
 10
307.0973264368385
 20
189.03896506757178
 40
97.696522151886498
 50
83.731857045477128
 51
96.268142954522872
  0
LINE
  8
_0-b_細線3
  6
CONTINUOUS
 62
    7
 10
302.0973264368385
 20
291.23477269126732
 11
302.0973264368385
 21
293.23477269126732
  0
LINE
  8
_0-b_細線3
  6
CONTINUOUS
 62
    7
 10
296.43065977017204
 20
291.23477269126732
 11
302.0973264368385
 21
291.23477269126732
  0
LINE
  8
_0-b_細線3
  6
CONTINUOUS
 62
    7
 10
296.43065977017204
 20
268.23477269126732
 11
296.43065977017204
 21
291.23477269126732
  0
LINE
  8
_0-b_細線3
  6
CONTINUOUS
 62
    7
 10
294.43065977017199
 20
268.23477269126732
 11
296.43065977017204
 21
268.23477269126732
  0
LINE
  8
_0-b_細線3
  6
CONTINUOUS
 62
    7
 10
294.43065977017199
 20
291.23477269126732
 11
294.43065977017199
 21
268.23477269126732
  0
LINE
  8
_0-b_細線3
  6
CONTINUOUS
 62
    7
 10
288.76399310350507
 20
291.23477269126732
 11
294.43065977017199
 21
291.23477269126732
  0
LINE
  8
_0-b_細線3
  6
CONTINUOUS
 62
    7
 10
288.76399310350507
 20
293.23477269126732
 11
288.76399310350507
 21
291.23477269126732
  0
LINE
  8
_0-b_細線3
  6
CONTINUOUS
 62
    7
 10
302.0973264368385
 20
293.23477269126732
 11
288.76399310350507
 21
293.23477269126732
  0
ARC
  8
_0-b_細線3
  6
CONTINUOUS
 62
    7
 10
633.7639931035028
 20
370.76391364829641
 40
97.696522151886498
 50
263.73185704547677
 51
276.26814295452255
  0
ARC
  8
_0-b_細線3
  6
CONTINUOUS
 62
    7
 10
633.7639931035028
 20
189.03896506757178
 40
97.696522151886498
 50
83.731857045477128
 51
96.268142954522872
  0
LINE
  8
_0-b_細線3
  6
CONTINUOUS
 62
    7
 10
652.0973264368364
 20
291.23477269126732
 11
652.0973264368364
 21
293.23477269126732
  0
LINE
  8
_0-b_細線3
  6
CONTINUOUS
 62
    7
 10
646.43065977016886
 20
291.23477269126732
 11
652.0973264368364
 21
291.23477269126732
  0
LINE
  8
_0-b_細線3
  6
CONTINUOUS
 62
    7
 10
646.43065977016886
 20
268.23477269126732
 11
646.43065977016886
 21
291.23477269126732
  0
LINE
  8
_0-b_細線3
  6
CONTINUOUS
 62
    7
 10
644.43065977016931
 20
268.23477269126732
 11
646.43065977016886
 21
268.23477269126732
  0
LINE
  8
_0-b_細線3
  6
CONTINUOUS
 62
    7
 10
644.43065977016931
 20
291.23477269126732
 11
644.43065977016931
 21
268.23477269126732
  0
LINE
  8
_0-b_細線3
  6
CONTINUOUS
 62
    7
 10
638.76399310350234
 20
291.23477269126732
 11
644.43065977016931
 21
291.23477269126732
  0
LINE
  8
_0-b_細線3
  6
CONTINUOUS
 62
    7
 10
638.76399310350234
 20
293.23477269126732
 11
638.76399310350234
 21
291.23477269126732
  0
LINE
  8
_0-b_細線3
  6
CONTINUOUS
 62
    7
 10
652.0973264368364
 20
293.23477269126732
 11
638.76399310350234
 21
293.23477269126732
  0
ARC
  8
_0-b_細線3
  6
CONTINUOUS
 62
    7
 10
657.09732643683537
 20
370.76391364829641
 40
97.696522151886498
 50
263.73185704547706
 51
276.26814295452255
  0
ARC
  8
_0-b_細線3
  6
CONTINUOUS
 62
    7
 10
657.09732643683537
 20
189.03896506757178
 40
97.696522151886498
 50
83.731857045476872
 51
96.268142954522617
  0
LINE
  8
_0-b_細線3
  6
CONTINUOUS
 62
    7
 10
675.43065977016897
 20
291.23477269126732
 11
675.43065977016897
 21
293.23477269126732
  0
LINE
  8
_0-b_細線3
  6
CONTINUOUS
 62
    7
 10
669.76399310350143
 20
291.23477269126732
 11
675.43065977016897
 21
291.23477269126732
  0
LINE
  8
_0-b_細線3
  6
CONTINUOUS
 62
    7
 10
669.76399310350143
 20
268.23477269126732
 11
669.76399310350143
 21
291.23477269126732
  0
LINE
  8
_0-b_細線3
  6
CONTINUOUS
 62
    7
 10
667.76399310350246
 20
268.23477269126732
 11
669.76399310350143
 21
268.23477269126732
  0
LINE
  8
_0-b_細線3
  6
CONTINUOUS
 62
    7
 10
667.76399310350246
 20
291.23477269126732
 11
667.76399310350246
 21
268.23477269126732
  0
LINE
  8
_0-b_細線3
  6
CONTINUOUS
 62
    7
 10
662.09732643683537
 20
291.23477269126732
 11
667.76399310350246
 21
291.23477269126732
  0
LINE
  8
_0-b_細線3
  6
CONTINUOUS
 62
    7
 10
662.09732643683537
 20
293.23477269126732
 11
662.09732643683537
 21
291.23477269126732
  0
LINE
  8
_0-b_細線3
  6
CONTINUOUS
 62
    7
 10
675.43065977016897
 20
293.23477269126732
 11
662.09732643683537
 21
293.23477269126732
  0
ARC
  8
_0-b_細線3
  6
CONTINUOUS
 62
    7
 10
283.76399310350507
 20
370.76391364829641
 40
97.696522151886498
 50
263.73185704547677
 51
276.2681429545222
  0
ARC
  8
_0-b_細線3
  6
CONTINUOUS
 62
    7
 10
283.76399310350507
 20
189.03896506757178
 40
97.696522151886498
 50
83.731857045477398
 51
96.268142954522872
  0
LINE
  8
_0-b_細線3
  6
CONTINUOUS
 62
    7
 10
278.76399310350507
 20
291.23477269126732
 11
278.76399310350507
 21
293.23477269126732
  0
LINE
  8
_0-b_細線3
  6
CONTINUOUS
 62
    7
 10
273.09732643683901
 20
291.23477269126732
 11
278.76399310350507
 21
291.23477269126732
  0
LINE
  8
_0-b_細線3
  6
CONTINUOUS
 62
    7
 10
273.09732643683901
 20
268.23477269126732
 11
273.09732643683901
 21
291.23477269126732
  0
LINE
  8
_0-b_細線3
  6
CONTINUOUS
 62
    7
 10
271.09732643683901
 20
291.23477269126732
 11
271.09732643683901
 21
268.23477269126732
  0
LINE
  8
_0-b_細線3
  6
CONTINUOUS
 62
    7
 10
265.43065977017199
 20
291.23477269126732
 11
271.09732643683901
 21
291.23477269126732
  0
LINE
  8
_0-b_細線3
  6
CONTINUOUS
 62
    7
 10
265.43065977017199
 20
293.23477269126732
 11
265.43065977017199
 21
291.23477269126732
  0
LINE
  8
_0-b_細線3
  6
CONTINUOUS
 62
    7
 10
278.76399310350507
 20
293.23477269126732
 11
265.43065977017199
 21
293.23477269126732
  0
LINE
  8
_0-d_寸法3
  6
CONTINUOUS
 62
    7
 10
382.0973264368385
 20
303.23477269126732
 11
382.0973264368385
 21
344.90143935793475
  0
LINE
  8
_0-d_寸法3
  6
CONTINUOUS
 62
    7
 10
382.0973264368385
 20
339.90143935793475
 11
372.43806817394778
 21
337.31324890690956
  0
LINE
  8
_0-d_寸法3
  6
CONTINUOUS
 62
    7
 10
382.0973264368385
 20
339.90143935793475
 11
372.43806817394784
 21
342.48962980896005
  0
LINE
  8
_0-d_寸法3
  6
CONTINUOUS
 62
    7
 10
395.43065977017199
 20
303.23477269126732
 11
395.43065977017199
 21
344.90143935793475
  0
CIRCLE
  8
_0-d_寸法3
  6
CONTINUOUS
 62
    1
 10
395.43065977017199
 20
339.90143935793475
 40
1.5000000000000002
  0
LINE
  8
_0-d_寸法3
  6
CONTINUOUS
 62
    7
 10
357.0973264368385
 20
339.90143935793475
 11
395.43065977017199
 21
339.90143935793475
  0
TEXT
  8
_0-d_寸法3
 62
    7
 10
364.67331047146263
 20
339.90143935793475
 40
15
 41
1
 50
0
  1
8
  0
LINE
  8
_0-d_寸法3
  6
CONTINUOUS
 62
    7
 10
405.43065977017199
 20
303.23477269126732
 11
405.43065977017199
 21
344.90143935793475
  0
LINE
  8
_0-d_寸法3
  6
CONTINUOUS
 62
    7
 10
405.43065977017199
 20
339.90143935793475
 11
415.08991803306276
 21
342.48962980895988
  0
LINE
  8
_0-d_寸法3
  6
CONTINUOUS
 62
    7
 10
405.43065977017199
 20
339.90143935793475
 11
415.08991803306265
 21
337.31324890690951
  0
LINE
  8
_0-d_寸法3
  6
CONTINUOUS
 62
    7
 10
395.43065977017199
 20
339.90143935793475
 11
430.43065977017199
 21
339.90143935793475
  0
TEXT
  8
_0-d_寸法3
 62
    7
 10
411.72252857845751
 20
339.90143935793475
 40
15
 41
1
 50
0
  1
6
  0
LINE
  8
_0-d_寸法3
  6
CONTINUOUS
 62
    7
 10
462.23913932728209
 20
273.97053705477799
 11
426.88679760159658
 21
298.72451322446858
  0
LINE
  8
_0-d_寸法3
  6
CONTINUOUS
 62
    7
 10
430.98255782304159
 20
295.85663104271333
 11
428.3943673720164
 21
305.51588930560399
  0
LINE
  8
_0-d_寸法3
  6
CONTINUOUS
 62
    7
 10
430.98255782304159
 20
295.85663104271333
 11
433.57074827406677
 21
305.51588930560399
  0
LINE
  8
_0-d_寸法3
  6
CONTINUOUS
 62
    7
 10
462.23913932728209
 20
298.97053705477805
 11
426.88679760159658
 21
323.72451322446886
  0
LINE
  8
_0-d_寸法3
  6
CONTINUOUS
 62
    7
 10
430.98255782304159
 20
320.85663104271356
 11
433.57074827406677
 21
311.19737277982284
  0
LINE
  8
_0-d_寸法3
  6
CONTINUOUS
 62
    7
 10
430.98255782304159
 20
320.85663104271356
 11
428.39436737201629
 21
311.1973727798229
  0
LINE
  8
_0-d_寸法3
  6
CONTINUOUS
 62
    7
 10
430.98255782304159
 20
295.85663104271333
 11
430.98255782304159
 21
320.85663104271356
  0
TEXT
  8
_0-d_寸法3
 62
    7
 10
430.98255782304159
 20
300.85663104271333
 40
15
 41
1
 50
90
  1
15
  0
LINE
  8
_0-7_枠細線
  6
CONTINUOUS
 62
    5
 10
1139.4018171150183
 20
373.42884000293458
 11
1139.4018171150183
 21
453.42884000293458
  0
LINE
  8
_0-7_枠細線
  6
CONTINUOUS
 62
    5
 10
1229.4018171150183
 20
373.42884000293458
 11
1229.4018171150183
 21
453.42884000293458
  0
TEXT
  8
_0-7_枠細線
 62
    5
 10
1251.9018171150183
 20
430.92884000293458
 40
15
 41
1
 50
0
  1
蓋重量
  0
LINE
  8
_0-7_枠細線
  6
CONTINUOUS
 62
    5
 10
1319.4018171150183
 20
373.42884000293458
 11
1319.4018171150183
 21
453.42884000293458
  0
TEXT
  8
_0-7_枠細線
 62
    5
 10
1341.9018171150183
 20
430.92884000293458
 40
15
 41
1
 50
0
  1
枠重量
  0
LINE
  8
_0-7_枠細線
  6
CONTINUOUS
 62
    5
 10
1139.4018171150183
 20
423.42884000293458
 11
1409.4018171150183
 21
423.42884000293458
  0
LINE
  8
_0-7_枠細線
  6
CONTINUOUS
 62
    5
 10
1139.4018171150183
 20
453.42884000293458
 11
1409.4018171150183
 21
453.42884000293458
  0
LINE
  8
_0-7_枠細線
  6
CONTINUOUS
 62
    5
 10
1139.4018171150183
 20
373.42884000293458
 11
1409.4018171150183
 21
373.42884000293458
  0
LINE
  8
_0-7_枠細線
  6
CONTINUOUS
 62
    5
 10
1409.4018171150183
 20
373.42884000293458
 11
1409.4018171150183
 21
453.42884000293458
  0
TEXT
  8
_0-7_枠細線
 62
    5
 10
1154.4018171150183
 20
430.92884000293458
 40
15
 41
1
 50
0
  1
適用荷重
  0
TEXT
  8
_0-7_枠細線
 62
    5
 10
1161.9018171150183
 20
400.92884000293458
 40
15
 41
1
 50
0
  1
歩道用
  0
TEXT
  8
_0-7_枠細線
 62
    5
 10
1139.4018171150183
 20
380.92884000293458
 40
15
 41
1
 50
0
  1
（5.0kN/㎡）
  0
TEXT
  8
_0-7_枠細線
 62
    5
 10
1334.4018171150183
 20
392.17884000293458
 40
15
 41
0.8000000000000001
 50
0
  1
2.2kg/ｍ組
  0
TEXT
  8
_0-7_枠細線
 62
    5
 10
1250.4018171150183
 20
392.17884000293458
 40
15
 41
0.8000000000000001
 50
0
  1
2.1kg/枚
  0
LINE
  8
_0-1_計細線
  6
CONTINUOUS
 62
    3
 10
978.43374987940763
 20
717.6817663239176
 11
978.43374987940763
 21
711.6817663239176
  0
LINE
  8
_0-1_計細線
  6
CONTINUOUS
 62
    3
 10
978.43374987940763
 20
704.6817663239176
 11
978.43374987940763
 21
698.6817663239176
  0
LINE
  8
_0-1_計細線
  6
CONTINUOUS
 62
    3
 10
978.43374987940763
 20
691.6817663239176
 11
978.43374987940763
 21
685.68176632391771
  0
LINE
  8
_0-1_計細線
  6
CONTINUOUS
 62
    3
 10
978.43374987940763
 20
678.6817663239176
 11
978.43374987940763
 21
672.6817663239176
  0
LINE
  8
_0-1_計細線
  6
CONTINUOUS
 62
    3
 10
978.43374987940763
 20
665.68176632391771
 11
978.43374987940763
 21
659.6817663239176
  0
LINE
  8
_0-1_計細線
  6
CONTINUOUS
 62
    3
 10
978.43374987940763
 20
652.6817663239176
 11
978.43374987940763
 21
646.6817663239176
  0
LINE
  8
_0-0_計極細
  6
CENTER2
 62
    2
 10
284.53432979326681
 20
656.1817663239176
 11
1169.3550705340072
 21
656.1817663239176
  0
LINE
  8
_0-1_計細線
  6
CONTINUOUS
 62
    3
 10
1164.9337498794071
 20
784.1817663239176
 11
284.93374987940797
 21
784.1817663239176
  0
ARC
  8
_0-1_計細線
  6
CONTINUOUS
 62
    3
 10
1151.8712498794262
 20
776.68176632391942
 40
15.062499999984542
 50
330.13716564368235
 51
29.862834356304496
  0
ARC
  8
_0-1_計細線
  6
CONTINUOUS
 62
    3
 10
1177.9962498794262
 20
761.68176632391942
 40
15.062500000017272
 50
150.1371656437675
 51
209.86283435624458
  0
LINE
  8
_0-5_寸法線
  6
CONTINUOUS
 62
    7
 10
475.43374987940803
 20
794.18176632391635
 11
475.43374987940803
 21
874.1817663239176
  0
LINE
  8
_0-5_寸法線
  6
CONTINUOUS
 62
    7
 10
475.43374987940803
 20
869.1817663239176
 11
485.09300814229869
 21
871.7699567749429
  0
LINE
  8
_0-5_寸法線
  6
CONTINUOUS
 62
    7
 10
475.43374987940803
 20
869.1817663239176
 11
485.09300814229869
 21
866.59357587289253
  0
LINE
  8
_0-5_寸法線
  6
CONTINUOUS
 62
    7
 10
974.43374987940797
 20
794.18176632391635
 11
974.43374987940797
 21
874.1817663239176
  0
LINE
  8
_0-5_寸法線
  6
CONTINUOUS
 62
    7
 10
974.43374987940797
 20
869.1817663239176
 11
964.77449161651737
 21
866.59357587289253
  0
LINE
  8
_0-5_寸法線
  6
CONTINUOUS
 62
    7
 10
974.43374987940797
 20
869.1817663239176
 11
964.77449161651737
 21
871.7699567749429
  0
LINE
  8
_0-5_寸法線
  6
CONTINUOUS
 62
    7
 10
475.43374987940803
 20
869.1817663239176
 11
974.43374987940797
 21
869.1817663239176
  0
TEXT
  8
_0-5_寸法線
 62
    7
 10
713.68374987940797
 20
869.1817663239176
 40
15
 41
1
 50
0
  1
499
  0
LINE
  8
_0-5_寸法線
  6
CONTINUOUS
 62
    7
 10
475.43374987940803
 20
794.1817663239176
 11
475.43374987940803
 21
839.1817663239176
  0
LINE
  8
_0-5_寸法線
  6
CONTINUOUS
 62
    7
 10
475.43374987940803
 20
834.1817663239176
 11
485.09300814229869
 21
836.7699567749429
  0
LINE
  8
_0-5_寸法線
  6
CONTINUOUS
 62
    7
 10
475.43374987940803
 20
834.1817663239176
 11
485.09300814229869
 21
831.59357587289253
  0
LINE
  8
_0-5_寸法線
  6
CONTINUOUS
 62
    7
 10
574.93374987940797
 20
794.1817663239176
 11
574.93374987940797
 21
839.1817663239176
  0
LINE
  8
_0-5_寸法線
  6
CONTINUOUS
 62
    7
 10
574.93374987940797
 20
834.1817663239176
 11
565.27449161651725
 21
831.59357587289253
  0
LINE
  8
_0-5_寸法線
  6
CONTINUOUS
 62
    7
 10
574.93374987940797
 20
834.1817663239176
 11
565.27449161651725
 21
836.7699567749429
  0
LINE
  8
_0-5_寸法線
  6
CONTINUOUS
 62
    7
 10
475.43374987940803
 20
834.1817663239176
 11
574.93374987940797
 21
834.1817663239176
  0
TEXT
  8
_0-5_寸法線
 62
    7
 10
510.18374987940803
 20
834.1817663239176
 40
15
 41
1
 50
0
  1
99.5
  0
LINE
  8
_0-5_寸法線
  6
CONTINUOUS
 62
    7
 10
574.93374987940797
 20
834.1817663239176
 11
584.59300814229869
 21
836.7699567749429
  0
LINE
  8
_0-5_寸法線
  6
CONTINUOUS
 62
    7
 10
574.93374987940797
 20
834.1817663239176
 11
584.59300814229869
 21
831.59357587289242
  0
LINE
  8
_0-5_寸法線
  6
CONTINUOUS
 62
    7
 10
674.93374987940797
 20
794.1817663239176
 11
674.93374987940797
 21
839.1817663239176
  0
LINE
  8
_0-5_寸法線
  6
CONTINUOUS
 62
    7
 10
674.93374987940797
 20
834.1817663239176
 11
665.27449161651725
 21
831.59357587289253
  0
LINE
  8
_0-5_寸法線
  6
CONTINUOUS
 62
    7
 10
674.93374987940797
 20
834.1817663239176
 11
665.27449161651725
 21
836.7699567749429
  0
LINE
  8
_0-5_寸法線
  6
CONTINUOUS
 62
    7
 10
574.93374987940797
 20
834.1817663239176
 11
674.93374987940797
 21
834.1817663239176
  0
TEXT
  8
_0-5_寸法線
 62
    7
 10
613.68374987940797
 20
834.1817663239176
 40
15
 41
1
 50
0
  1
100
  0
LINE
  8
_0-5_寸法線
  6
CONTINUOUS
 62
    7
 10
674.93374987940797
 20
834.1817663239176
 11
684.5930081422988
 21
836.7699567749429
  0
LINE
  8
_0-5_寸法線
  6
CONTINUOUS
 62
    7
 10
674.93374987940797
 20
834.1817663239176
 11
684.5930081422988
 21
831.59357587289242
  0
LINE
  8
_0-5_寸法線
  6
CONTINUOUS
 62
    7
 10
774.93374987940751
 20
794.1817663239176
 11
774.93374987940751
 21
839.1817663239176
  0
LINE
  8
_0-5_寸法線
  6
CONTINUOUS
 62
    7
 10
774.93374987940751
 20
834.1817663239176
 11
765.27449161651691
 21
831.59357587289253
  0
LINE
  8
_0-5_寸法線
  6
CONTINUOUS
 62
    7
 10
774.93374987940751
 20
834.1817663239176
 11
765.27449161651691
 21
836.7699567749429
  0
LINE
  8
_0-5_寸法線
  6
CONTINUOUS
 62
    7
 10
674.93374987940797
 20
834.1817663239176
 11
774.93374987940751
 21
834.1817663239176
  0
TEXT
  8
_0-5_寸法線
 62
    7
 10
713.68374987940797
 20
834.1817663239176
 40
15
 41
1
 50
0
  1
100
  0
LINE
  8
_0-5_寸法線
  6
CONTINUOUS
 62
    7
 10
774.93374987940751
 20
834.1817663239176
 11
784.59300814229834
 21
836.7699567749429
  0
LINE
  8
_0-5_寸法線
  6
CONTINUOUS
 62
    7
 10
774.93374987940751
 20
834.1817663239176
 11
784.59300814229834
 21
831.59357587289242
  0
LINE
  8
_0-5_寸法線
  6
CONTINUOUS
 62
    7
 10
874.93374987940751
 20
794.1817663239176
 11
874.93374987940751
 21
839.1817663239176
  0
LINE
  8
_0-5_寸法線
  6
CONTINUOUS
 62
    7
 10
874.93374987940751
 20
834.1817663239176
 11
865.27449161651691
 21
831.59357587289253
  0
LINE
  8
_0-5_寸法線
  6
CONTINUOUS
 62
    7
 10
874.93374987940751
 20
834.1817663239176
 11
865.27449161651691
 21
836.7699567749429
  0
LINE
  8
_0-5_寸法線
  6
CONTINUOUS
 62
    7
 10
774.93374987940751
 20
834.1817663239176
 11
874.93374987940751
 21
834.1817663239176
  0
TEXT
  8
_0-5_寸法線
 62
    7
 10
813.68374987940751
 20
834.1817663239176
 40
15
 41
1
 50
0
  1
100
  0
LINE
  8
_0-5_寸法線
  6
CONTINUOUS
 62
    7
 10
874.93374987940751
 20
834.1817663239176
 11
884.59300814229834
 21
836.7699567749429
  0
LINE
  8
_0-5_寸法線
  6
CONTINUOUS
 62
    7
 10
874.93374987940751
 20
834.1817663239176
 11
884.59300814229834
 21
831.59357587289242
  0
LINE
  8
_0-5_寸法線
  6
CONTINUOUS
 62
    7
 10
974.43374987940797
 20
794.1817663239176
 11
974.43374987940797
 21
839.1817663239176
  0
LINE
  8
_0-5_寸法線
  6
CONTINUOUS
 62
    7
 10
974.43374987940797
 20
834.1817663239176
 11
964.77449161651737
 21
831.59357587289253
  0
LINE
  8
_0-5_寸法線
  6
CONTINUOUS
 62
    7
 10
974.43374987940797
 20
834.1817663239176
 11
964.77449161651737
 21
836.7699567749429
  0
LINE
  8
_0-5_寸法線
  6
CONTINUOUS
 62
    7
 10
874.93374987940751
 20
834.1817663239176
 11
974.43374987940797
 21
834.1817663239176
  0
TEXT
  8
_0-5_寸法線
 62
    7
 10
909.68374987940808
 20
834.1817663239176
 40
15
 41
1
 50
0
  1
99.5
  0
LINE
  8
_0-0_計極細
  6
CONTINUOUS
 62
    2
 10
1122.8921871556699
 20
656.1817663239176
 11
1122.9838352198462
 21
656.61905675608466
  0
LINE
  8
_0-0_計極細
  6
CONTINUOUS
 62
    2
 10
1122.9838352198462
 20
656.61905675608466
 11
1123.256202397338
 21
657.91898361380822
  0
LINE
  8
_0-0_計極細
  6
CONTINUOUS
 62
    2
 10
1123.256202397338
 20
657.91898361380822
 11
1123.7011940329237
 21
660.04594767841365
  0
LINE
  8
_0-0_計極細
  6
CONTINUOUS
 62
    2
 10
1123.7011940329237
 20
660.04594767841365
 11
1124.3042705470625
 21
662.94142333145101
  0
LINE
  8
_0-0_計極細
  6
CONTINUOUS
 62
    2
 10
1124.3042705470625
 20
662.94142333145101
 11
1125.0434003091912
 21
666.52524981634224
  0
LINE
  8
_0-0_計極細
  6
CONTINUOUS
 62
    2
 10
1125.0434003091912
 20
666.52524981634224
 11
1125.8884884240997
 21
670.69757004831445
  0
LINE
  8
_0-0_計極細
  6
CONTINUOUS
 62
    2
 10
1125.8884884240997
 20
670.69757004831445
 11
1126.8018523859212
 21
675.34148147764176
  0
LINE
  8
_0-0_計極細
  6
CONTINUOUS
 62
    2
 10
1126.8018523859212
 20
675.34148147764176
 11
1127.7401117409904
 21
680.32640704363405
  0
LINE
  8
_0-0_計極細
  6
CONTINUOUS
 62
    2
 10
1127.7401117409904
 20
680.32640704363405
 11
1128.6575212722623
 21
685.51211140192788
  0
LINE
  8
_0-0_計極細
  6
CONTINUOUS
 62
    2
 10
1128.6575212722623
 20
685.51211140192788
 11
1129.5103879500516
 21
690.75319604858635
  0
LINE
  8
_0-0_計極細
  6
CONTINUOUS
 62
    2
 10
1129.5103879500516
 20
690.75319604858635
 11
1130.2618702161371
 21
695.90382792881587
  0
LINE
  8
_0-0_計極細
  6
CONTINUOUS
 62
    2
 10
1130.2618702161371
 20
695.90382792881587
 11
1130.8862558346436
 21
700.82240918588332
  0
LINE
  8
_0-0_計極細
  6
CONTINUOUS
 62
    2
 10
1130.8862558346436
 20
700.82240918588332
 11
1131.3718126781348
 21
705.37589391073516
  0
LINE
  8
_0-0_計極細
  6
CONTINUOUS
 62
    2
 10
1131.3718126781348
 20
705.37589391073516
 11
1131.7215198323283
 21
709.44350417922624
  0
LINE
  8
_0-0_計極細
  6
CONTINUOUS
 62
    2
 10
1131.7215198323283
 20
709.44350417922624
 11
1131.9513770050785
 21
712.91968439091625
  0
LINE
  8
_0-0_計極細
  6
CONTINUOUS
 62
    2
 10
1131.9513770050785
 20
712.91968439091625
 11
1132.0864768884123
 21
715.71624260503756
  0
LINE
  8
_0-0_計極細
  6
CONTINUOUS
 62
    2
 10
1132.0864768884123
 20
715.71624260503756
 11
1132.1555003811206
 21
717.76373730438138
  0
LINE
  8
_0-0_計極細
  6
CONTINUOUS
 62
    2
 10
1132.1555003811206
 20
717.76373730438138
 11
1132.1846498856896
 21
719.01225460931755
  0
LINE
  8
_0-0_計極細
  6
CONTINUOUS
 62
    2
 10
1132.1846498856896
 20
719.01225460931755
 11
1132.1921871556701
 21
719.43176632391771
  0
LINE
  8
_0-0_計極細
  6
CONTINUOUS
 62
    2
 10
1132.1921871556701
 20
719.43176632391771
 11
1132.1985720129762
 21
719.85103445005007
  0
LINE
  8
_0-0_計極細
  6
CONTINUOUS
 62
    2
 10
1132.1985720129762
 20
719.85103445005007
 11
1132.2108091309271
 21
721.09597693979242
  0
LINE
  8
_0-0_計極細
  6
CONTINUOUS
 62
    2
 10
1132.2108091309271
 20
721.09597693979242
 11
1132.2095078367968
 21
723.12860690583864
  0
LINE
  8
_0-0_計極細
  6
CONTINUOUS
 62
    2
 10
1132.2095078367968
 20
723.12860690583864
 11
1132.1666184430596
 21
725.88754306303804
  0
LINE
  8
_0-0_計極細
  6
CONTINUOUS
 62
    2
 10
1132.1666184430596
 20
725.88754306303804
 11
1132.0509447891445
 21
729.29068752424303
  0
LINE
  8
_0-0_計極細
  6
CONTINUOUS
 62
    2
 10
1132.0509447891445
 20
729.29068752424303
 11
1131.834279554284
 21
733.23858218620603
  0
LINE
  8
_0-0_計極細
  6
CONTINUOUS
 62
    2
 10
1131.834279554284
 20
733.23858218620603
 11
1131.4969939938785
 21
737.61814056972571
  0
LINE
  8
_0-0_計極細
  6
CONTINUOUS
 62
    2
 10
1131.4969939938785
 20
737.61814056972571
 11
1131.0320645681236
 21
742.30647046965669
  0
LINE
  8
_0-0_計極細
  6
CONTINUOUS
 62
    2
 10
1131.0320645681236
 20
742.30647046965669
 11
1130.4468738551873
 21
747.17456630203799
  0
LINE
  8
_0-0_計極細
  6
CONTINUOUS
 62
    2
 10
1130.4468738551873
 20
747.17456630203799
 11
1129.7625980908649
 21
752.09074114847624
  0
LINE
  8
_0-0_計極細
  6
CONTINUOUS
 62
    2
 10
1129.7625980908649
 20
752.09074114847624
 11
1129.011480112742
 21
756.92376450279323
  0
LINE
  8
_0-0_計極細
  6
CONTINUOUS
 62
    2
 10
1129.011480112742
 20
756.92376450279323
 11
1128.2326769504239
 21
761.54575009379937
  0
LINE
  8
_0-0_計極細
  6
CONTINUOUS
 62
    2
 10
1128.2326769504239
 20
761.54575009379937
 11
1127.4675842716888
 21
765.83488177284369
  0
LINE
  8
_0-0_計極細
  6
CONTINUOUS
 62
    2
 10
1127.4675842716888
 20
765.83488177284369
 11
1126.7555380761132
 21
769.67806647132534
  0
LINE
  8
_0-0_計極細
  6
CONTINUOUS
 62
    2
 10
1126.7555380761132
 20
769.67806647132534
 11
1126.1305918328192
 21
772.97356465932921
  0
LINE
  8
_0-0_計極細
  6
CONTINUOUS
 62
    2
 10
1126.1305918328192
 20
772.97356465932921
 11
1125.6197258082775
 21
775.63358337761292
  0
LINE
  8
_0-0_計極細
  6
CONTINUOUS
 62
    2
 10
1125.6197258082775
 20
775.63358337761292
 11
1125.2424563712693
 21
777.58674397839718
  0
LINE
  8
_0-0_計極細
  6
CONTINUOUS
 62
    2
 10
1125.2424563712693
 20
777.58674397839718
 11
1125.0114758162977
 21
778.78027691535203
  0
LINE
  8
_0-0_計極細
  6
CONTINUOUS
 62
    2
 10
1125.0114758162977
 20
778.78027691535203
 11
1124.933749879408
 21
779.1817663239176
  0
LINE
  8
_0-1_計細線
  6
CONTINUOUS
 62
    3
 10
978.43374987940763
 20
779.1817663239176
 11
978.43374987940763
 21
773.18176632391771
  0
LINE
  8
_0-1_計細線
  6
CONTINUOUS
 62
    3
 10
978.43374987940763
 20
766.1817663239176
 11
978.43374987940763
 21
760.1817663239176
  0
LINE
  8
_0-1_計細線
  6
CONTINUOUS
 62
    3
 10
978.43374987940763
 20
753.18176632391771
 11
978.43374987940763
 21
747.1817663239176
  0
LINE
  8
_0-1_計細線
  6
CONTINUOUS
 62
    3
 10
978.43374987940763
 20
740.1817663239176
 11
978.43374987940763
 21
734.1817663239176
  0
LINE
  8
_0-1_計細線
  6
CONTINUOUS
 62
    3
 10
978.43374987940763
 20
727.1817663239176
 11
978.43374987940763
 21
721.1817663239176
  0
LINE
  8
_0-1_計細線
  6
CONTINUOUS
 62
    3
 10
1164.9337498794071
 20
754.1817663239176
 11
1129.1774636479618
 21
754.1817663239176
  0
ARC
  8
_0-1_計細線
  6
CONTINUOUS
 62
    3
 10
297.99624987938984
 20
776.68176632391942
 40
15.062499999984542
 50
150.13716564369517
 51
209.86283435631606
  0
ARC
  8
_0-1_計細線
  6
CONTINUOUS
 62
    3
 10
271.87124987938955
 20
761.68176632391942
 40
15.062500000017272
 50
330.13716564375426
 51
29.862834356233407
  0
LINE
  8
_0-0_計極細
  6
CONTINUOUS
 62
    2
 10
326.97531260314554
 20
656.1817663239176
 11
326.88366453896913
 21
656.61905675608466
  0
LINE
  8
_0-0_計極細
  6
CONTINUOUS
 62
    2
 10
326.88366453896913
 20
656.61905675608466
 11
326.61129736147757
 21
657.91898361380822
  0
LINE
  8
_0-0_計極細
  6
CONTINUOUS
 62
    2
 10
326.61129736147757
 20
657.91898361380822
 11
326.16630572589168
 21
660.04594767841365
  0
LINE
  8
_0-0_計極細
  6
CONTINUOUS
 62
    2
 10
326.16630572589168
 20
660.04594767841365
 11
325.56322921175308
 21
662.94142333145101
  0
LINE
  8
_0-0_計極細
  6
CONTINUOUS
 62
    2
 10
325.56322921175308
 20
662.94142333145101
 11
324.82409944962444
 21
666.52524981634224
  0
LINE
  8
_0-0_計極細
  6
CONTINUOUS
 62
    2
 10
324.82409944962444
 20
666.52524981634224
 11
323.97901133471584
 21
670.69757004831445
  0
LINE
  8
_0-0_計極細
  6
CONTINUOUS
 62
    2
 10
323.97901133471584
 20
670.69757004831445
 11
323.06564737289455
 21
675.34148147764176
  0
LINE
  8
_0-0_計極細
  6
CONTINUOUS
 62
    2
 10
323.06564737289455
 20
675.34148147764176
 11
322.1273880178253
 21
680.32640704363405
  0
LINE
  8
_0-0_計極細
  6
CONTINUOUS
 62
    2
 10
322.1273880178253
 20
680.32640704363405
 11
321.20997848655327
 21
685.51211140192788
  0
LINE
  8
_0-0_計極細
  6
CONTINUOUS
 62
    2
 10
321.20997848655327
 20
685.51211140192788
 11
320.35711180876427
 21
690.75319604858635
  0
LINE
  8
_0-0_計極細
  6
CONTINUOUS
 62
    2
 10
320.35711180876427
 20
690.75319604858635
 11
319.60562954267863
 21
695.90382792881587
  0
LINE
  8
_0-0_計極細
  6
CONTINUOUS
 62
    2
 10
319.60562954267863
 20
695.90382792881587
 11
318.9812439241723
 21
700.82240918588332
  0
LINE
  8
_0-0_計極細
  6
CONTINUOUS
 62
    2
 10
318.9812439241723
 20
700.82240918588332
 11
318.49568708068119
 21
705.37589391073516
  0
LINE
  8
_0-0_計極細
  6
CONTINUOUS
 62
    2
 10
318.49568708068119
 20
705.37589391073516
 11
318.1459799264876
 21
709.44350417922624
  0
LINE
  8
_0-0_計極細
  6
CONTINUOUS
 62
    2
 10
318.1459799264876
 20
709.44350417922624
 11
317.91612275373751
 21
712.91968439091625
  0
LINE
  8
_0-0_計極細
  6
CONTINUOUS
 62
    2
 10
317.91612275373751
 20
712.91968439091625
 11
317.7810228704036
 21
715.71624260503756
  0
LINE
  8
_0-0_計極細
  6
CONTINUOUS
 62
    2
 10
317.7810228704036
 20
715.71624260503756
 11
317.71199937769524
 21
717.76373730438138
  0
LINE
  8
_0-0_計極細
  6
CONTINUOUS
 62
    2
 10
317.71199937769524
 20
717.76373730438138
 11
317.68284987312643
 21
719.01225460931755
  0
LINE
  8
_0-0_計極細
  6
CONTINUOUS
 62
    2
 10
317.68284987312643
 20
719.01225460931755
 11
317.67531260314581
 21
719.43176632391771
  0
LINE
  8
_0-0_計極細
  6
CONTINUOUS
 62
    2
 10
317.67531260314581
 20
719.43176632391771
 11
317.66892774583971
 21
719.85103445005007
  0
LINE
  8
_0-0_計極細
  6
CONTINUOUS
 62
    2
 10
317.66892774583971
 20
719.85103445005007
 11
317.65669062788857
 21
721.09597693979242
  0
LINE
  8
_0-0_計極細
  6
CONTINUOUS
 62
    2
 10
317.65669062788857
 20
721.09597693979242
 11
317.65799192201928
 21
723.12860690583864
  0
LINE
  8
_0-0_計極細
  6
CONTINUOUS
 62
    2
 10
317.65799192201928
 20
723.12860690583864
 11
317.70088131575619
 21
725.88754306303804
  0
LINE
  8
_0-0_計極細
  6
CONTINUOUS
 62
    2
 10
317.70088131575619
 20
725.88754306303804
 11
317.81655496967153
 21
729.29068752424303
  0
LINE
  8
_0-0_計極細
  6
CONTINUOUS
 62
    2
 10
317.81655496967153
 20
729.29068752424303
 11
318.0332202045322
 21
733.23858218620603
  0
LINE
  8
_0-0_計極細
  6
CONTINUOUS
 62
    2
 10
318.0332202045322
 20
733.23858218620603
 11
318.37050576493721
 21
737.61814056972571
  0
LINE
  8
_0-0_計極細
  6
CONTINUOUS
 62
    2
 10
318.37050576493721
 20
737.61814056972571
 11
318.83543519069241
 21
742.30647046965669
  0
LINE
  8
_0-0_計極細
  6
CONTINUOUS
 62
    2
 10
318.83543519069241
 20
742.30647046965669
 11
319.42062590362895
 21
747.17456630203799
  0
LINE
  8
_0-0_計極細
  6
CONTINUOUS
 62
    2
 10
319.42062590362895
 20
747.17456630203799
 11
320.10490166795103
 21
752.09074114847624
  0
LINE
  8
_0-0_計極細
  6
CONTINUOUS
 62
    2
 10
320.10490166795103
 20
752.09074114847624
 11
320.85601964607395
 21
756.92376450279323
  0
LINE
  8
_0-0_計極細
  6
CONTINUOUS
 62
    2
 10
320.85601964607395
 20
756.92376450279323
 11
321.63482280839213
 21
761.54575009379937
  0
LINE
  8
_0-0_計極細
  6
CONTINUOUS
 62
    2
 10
321.63482280839213
 20
761.54575009379937
 11
322.39991548712726
 21
765.83488177284369
  0
LINE
  8
_0-0_計極細
  6
CONTINUOUS
 62
    2
 10
322.39991548712726
 20
765.83488177284369
 11
323.11196168270294
 21
769.67806647132534
  0
LINE
  8
_0-0_計極細
  6
CONTINUOUS
 62
    2
 10
323.11196168270294
 20
769.67806647132534
 11
323.73690792599683
 21
772.97356465932921
  0
LINE
  8
_0-0_計極細
  6
CONTINUOUS
 62
    2
 10
323.73690792599683
 20
772.97356465932921
 11
324.24777395053854
 21
775.63358337761292
  0
LINE
  8
_0-0_計極細
  6
CONTINUOUS
 62
    2
 10
324.24777395053854
 20
775.63358337761292
 11
324.62504338754673
 21
777.58674397839718
  0
LINE
  8
_0-0_計極細
  6
CONTINUOUS
 62
    2
 10
324.62504338754673
 20
777.58674397839718
 11
324.85602394251828
 21
778.78027691535203
  0
LINE
  8
_0-0_計極細
  6
CONTINUOUS
 62
    2
 10
324.85602394251828
 20
778.78027691535203
 11
324.93374987940797
 21
779.1817663239176
  0
LINE
  8
_0-1_計細線
  6
CONTINUOUS
 62
    3
 10
1166.2458422649356
 20
781.1817663239176
 11
283.62165749387987
 21
781.1817663239176
  0
LINE
  8
_0-1_計細線
  6
CONTINUOUS
 62
    3
 10
1164.9337498794071
 20
528.1817663239176
 11
284.93374987940797
 21
528.1817663239176
  0
ARC
  8
_0-1_計細線
  6
CONTINUOUS
 62
    3
 10
1177.9962498793971
 20
535.68176632391942
 40
15.06249999999028
 50
150.13716564371197
 51
209.86283435630014
  0
ARC
  8
_0-1_計細線
  6
CONTINUOUS
 62
    3
 10
1151.8712498794407
 20
550.68176632390805
 40
15.062499999975882
 50
330.13716564369133
 51
29.862834356369991
  0
LINE
  8
_0-5_寸法線
  6
CONTINUOUS
 62
    7
 10
582.48907007697971
 20
529.39677801545076
 11
587.48907007697971
 21
520.73652397760634
  0
LINE
  8
_0-5_寸法線
  6
CONTINUOUS
 62
    7
 10
582.48907007697971
 20
529.39677801545076
 11
582.48907007697971
 21
519.39677801545076
  0
LINE
  8
_0-5_寸法線
  6
CONTINUOUS
 62
    7
 10
582.48907007697971
 20
529.39677801545076
 11
593.67073221689589
 21
487.66624679621327
  0
LINE
  8
_0-5_寸法線
  6
CONTINUOUS
 62
    7
 10
593.67073221689589
 20
487.66624679621327
 11
701.72160542833035
 21
487.66624679621327
  0
TEXT
  8
_0-5_寸法線
 62
    7
 10
593.72160542833035
 20
487.66624679621327
 40
15
 41
0.8000000000000001
 50
0
  1
ＳＵＳアングル受枠
  0
LINE
  8
_0-0_計極細
  6
CONTINUOUS
 62
    2
 10
1124.933749879408
 20
533.1817663239176
 11
1124.8421018152317
 21
533.61905675608466
  0
LINE
  8
_0-0_計極細
  6
CONTINUOUS
 62
    2
 10
1124.8421018152317
 20
533.61905675608466
 11
1124.5697346377399
 21
534.91898361380811
  0
LINE
  8
_0-0_計極細
  6
CONTINUOUS
 62
    2
 10
1124.5697346377399
 20
534.91898361380811
 11
1124.1247430021542
 21
537.04594767841377
  0
LINE
  8
_0-0_計極細
  6
CONTINUOUS
 62
    2
 10
1124.1247430021542
 20
537.04594767841377
 11
1123.5216664880154
 21
539.94142333145101
  0
LINE
  8
_0-0_計極細
  6
CONTINUOUS
 62
    2
 10
1123.5216664880154
 20
539.94142333145101
 11
1122.7825367258868
 21
543.52524981634224
  0
LINE
  8
_0-0_計極細
  6
CONTINUOUS
 62
    2
 10
1122.7825367258868
 20
543.52524981634224
 11
1121.9374486109782
 21
547.69757004831445
  0
LINE
  8
_0-0_計極細
  6
CONTINUOUS
 62
    2
 10
1121.9374486109782
 20
547.69757004831445
 11
1121.0240846491567
 21
552.34148147764165
  0
LINE
  8
_0-0_計極細
  6
CONTINUOUS
 62
    2
 10
1121.0240846491567
 20
552.34148147764165
 11
1120.0858252940875
 21
557.32640704363405
  0
LINE
  8
_0-0_計極細
  6
CONTINUOUS
 62
    2
 10
1120.0858252940875
 20
557.32640704363405
 11
1119.1684157628156
 21
562.512111401928
  0
LINE
  8
_0-0_計極細
  6
CONTINUOUS
 62
    2
 10
1119.1684157628156
 20
562.512111401928
 11
1118.3155490850263
 21
567.75319604858635
  0
LINE
  8
_0-0_計極細
  6
CONTINUOUS
 62
    2
 10
1118.3155490850263
 20
567.75319604858635
 11
1117.5640668189408
 21
572.90382792881576
  0
LINE
  8
_0-0_計極細
  6
CONTINUOUS
 62
    2
 10
1117.5640668189408
 20
572.90382792881576
 11
1116.9396812004343
 21
577.8224091858832
  0
LINE
  8
_0-0_計極細
  6
CONTINUOUS
 62
    2
 10
1116.9396812004343
 20
577.8224091858832
 11
1116.4541243569431
 21
582.37589391073504
  0
LINE
  8
_0-0_計極細
  6
CONTINUOUS
 62
    2
 10
1116.4541243569431
 20
582.37589391073504
 11
1116.1044172027496
 21
586.44350417922612
  0
LINE
  8
_0-0_計極細
  6
CONTINUOUS
 62
    2
 10
1116.1044172027496
 20
586.44350417922612
 11
1115.8745600299994
 21
589.91968439091613
  0
LINE
  8
_0-0_計極細
  6
CONTINUOUS
 62
    2
 10
1115.8745600299994
 20
589.91968439091613
 11
1115.7394601466656
 21
592.71624260503756
  0
LINE
  8
_0-0_計極細
  6
CONTINUOUS
 62
    2
 10
1115.7394601466656
 20
592.71624260503756
 11
1115.6704366539573
 21
594.76373730438138
  0
LINE
  8
_0-0_計極細
  6
CONTINUOUS
 62
    2
 10
1115.6704366539573
 20
594.76373730438138
 11
1115.6412871493883
 21
596.01225460931755
  0
LINE
  8
_0-0_計極細
  6
CONTINUOUS
 62
    2
 10
1115.6412871493883
 20
596.01225460931755
 11
1115.6337498794078
 21
596.4317663239176
  0
LINE
  8
_0-0_計極細
  6
CONTINUOUS
 62
    2
 10
1115.6337498794078
 20
596.4317663239176
 11
1115.6273650221017
 21
596.85103445005007
  0
LINE
  8
_0-0_計極細
  6
CONTINUOUS
 62
    2
 10
1115.6273650221017
 20
596.85103445005007
 11
1115.6151279041508
 21
598.09597693979242
  0
LINE
  8
_0-0_計極細
  6
CONTINUOUS
 62
    2
 10
1115.6151279041508
 20
598.09597693979242
 11
1115.6164291982811
 21
600.12860690583852
  0
LINE
  8
_0-0_計極細
  6
CONTINUOUS
 62
    2
 10
1115.6164291982811
 20
600.12860690583852
 11
1115.6593185920183
 21
602.88754306303792
  0
LINE
  8
_0-0_計極細
  6
CONTINUOUS
 62
    2
 10
1115.6593185920183
 20
602.88754306303792
 11
1115.7749922459334
 21
606.29068752424303
  0
LINE
  8
_0-0_計極細
  6
CONTINUOUS
 62
    2
 10
1115.7749922459334
 20
606.29068752424303
 11
1115.9916574807944
 21
610.23858218620592
  0
LINE
  8
_0-0_計極細
  6
CONTINUOUS
 62
    2
 10
1115.9916574807944
 20
610.23858218620592
 11
1116.3289430411994
 21
614.6181405697256
  0
LINE
  8
_0-0_計極細
  6
CONTINUOUS
 62
    2
 10
1116.3289430411994
 20
614.6181405697256
 11
1116.7938724669543
 21
619.30647046965669
  0
LINE
  8
_0-0_計極細
  6
CONTINUOUS
 62
    2
 10
1116.7938724669543
 20
619.30647046965669
 11
1117.3790631798906
 21
624.17456630203799
  0
LINE
  8
_0-0_計極細
  6
CONTINUOUS
 62
    2
 10
1117.3790631798906
 20
624.17456630203799
 11
1118.063338944213
 21
629.09074114847624
  0
LINE
  8
_0-0_計極細
  6
CONTINUOUS
 62
    2
 10
1118.063338944213
 20
629.09074114847624
 11
1118.8144569223359
 21
633.92376450279335
  0
LINE
  8
_0-0_計極細
  6
CONTINUOUS
 62
    2
 10
1118.8144569223359
 20
633.92376450279335
 11
1119.593260084654
 21
638.54575009379937
  0
LINE
  8
_0-0_計極細
  6
CONTINUOUS
 62
    2
 10
1119.593260084654
 20
638.54575009379937
 11
1120.3583527633891
 21
642.83488177284357
  0
LINE
  8
_0-0_計極細
  6
CONTINUOUS
 62
    2
 10
1120.3583527633891
 20
642.83488177284357
 11
1121.0703989589647
 21
646.67806647132522
  0
LINE
  8
_0-0_計極細
  6
CONTINUOUS
 62
    2
 10
1121.0703989589647
 20
646.67806647132522
 11
1121.6953452022587
 21
649.97356465932921
  0
LINE
  8
_0-0_計極細
  6
CONTINUOUS
 62
    2
 10
1121.6953452022587
 20
649.97356465932921
 11
1122.2062112268004
 21
652.63358337761292
  0
LINE
  8
_0-0_計極細
  6
CONTINUOUS
 62
    2
 10
1122.2062112268004
 20
652.63358337761292
 11
1122.5834806638086
 21
654.58674397839718
  0
LINE
  8
_0-0_計極細
  6
CONTINUOUS
 62
    2
 10
1122.5834806638086
 20
654.58674397839718
 11
1122.8144612187803
 21
655.78027691535215
  0
LINE
  8
_0-0_計極細
  6
CONTINUOUS
 62
    2
 10
1122.8144612187803
 20
655.78027691535215
 11
1122.8921871556699
 21
656.1817663239176
  0
LINE
  8
_0-1_計細線
  6
CONTINUOUS
 62
    3
 10
978.43374987940763
 20
639.6817663239176
 11
978.43374987940763
 21
637.1817663239176
  0
LINE
  8
_0-1_計細線
  6
CONTINUOUS
 62
    3
 10
978.43374987940763
 20
630.1817663239176
 11
978.43374987940763
 21
624.1817663239176
  0
LINE
  8
_0-1_計細線
  6
CONTINUOUS
 62
    3
 10
978.43374987940763
 20
617.1817663239176
 11
978.43374987940763
 21
611.1817663239176
  0
LINE
  8
_0-1_計細線
  6
CONTINUOUS
 62
    3
 10
978.43374987940763
 20
604.1817663239176
 11
978.43374987940763
 21
598.1817663239176
  0
LINE
  8
_0-1_計細線
  6
CONTINUOUS
 62
    3
 10
978.43374987940763
 20
591.1817663239176
 11
978.43374987940763
 21
585.1817663239176
  0
LINE
  8
_0-1_計細線
  6
CONTINUOUS
 62
    3
 10
978.43374987940763
 20
578.1817663239176
 11
978.43374987940763
 21
572.1817663239176
  0
LINE
  8
_0-1_計細線
  6
CONTINUOUS
 62
    3
 10
978.43374987940763
 20
565.1817663239176
 11
978.43374987940763
 21
559.1817663239176
  0
LINE
  8
_0-1_計細線
  6
CONTINUOUS
 62
    3
 10
978.43374987940763
 20
552.1817663239176
 11
978.43374987940763
 21
546.1817663239176
  0
LINE
  8
_0-1_計細線
  6
CONTINUOUS
 62
    3
 10
978.43374987940763
 20
539.1817663239176
 11
978.43374987940763
 21
533.1817663239176
  0
LINE
  8
_0-1_計細線
  6
CONTINUOUS
 62
    3
 10
1164.9337498794071
 20
558.1817663239176
 11
1119.8830943228154
 21
558.1817663239176
  0
ARC
  8
_0-1_計細線
  6
CONTINUOUS
 62
    3
 10
271.87124987941871
 20
535.68176632391942
 40
15.06249999999028
 50
330.13716564369957
 51
29.862834356288111
  0
ARC
  8
_0-1_計細線
  6
CONTINUOUS
 62
    3
 10
297.99624987937523
 20
550.68176632390805
 40
15.062499999975882
 50
150.13716564363051
 51
209.86283435630625
  0
LINE
  8
_0-0_計極細
  6
CONTINUOUS
 62
    2
 10
324.93374987940797
 20
533.1817663239176
 11
325.02539794358438
 21
533.61905675608466
  0
LINE
  8
_0-0_計極細
  6
CONTINUOUS
 62
    2
 10
325.02539794358438
 20
533.61905675608466
 11
325.29776512107594
 21
534.91898361380811
  0
LINE
  8
_0-0_計極細
  6
CONTINUOUS
 62
    2
 10
325.29776512107594
 20
534.91898361380811
 11
325.74275675666183
 21
537.04594767841377
  0
LINE
  8
_0-0_計極細
  6
CONTINUOUS
 62
    2
 10
325.74275675666183
 20
537.04594767841377
 11
326.34583327080043
 21
539.94142333145101
  0
LINE
  8
_0-0_計極細
  6
CONTINUOUS
 62
    2
 10
326.34583327080043
 20
539.94142333145101
 11
327.08496303292912
 21
543.52524981634224
  0
LINE
  8
_0-0_計極細
  6
CONTINUOUS
 62
    2
 10
327.08496303292912
 20
543.52524981634224
 11
327.93005114783767
 21
547.69757004831445
  0
LINE
  8
_0-0_計極細
  6
CONTINUOUS
 62
    2
 10
327.93005114783767
 20
547.69757004831445
 11
328.84341510965896
 21
552.34148147764165
  0
LINE
  8
_0-0_計極細
  6
CONTINUOUS
 62
    2
 10
328.84341510965896
 20
552.34148147764165
 11
329.78167446472833
 21
557.32640704363405
  0
LINE
  8
_0-0_計極細
  6
CONTINUOUS
 62
    2
 10
329.78167446472833
 20
557.32640704363405
 11
330.69908399600024
 21
562.512111401928
  0
LINE
  8
_0-0_計極細
  6
CONTINUOUS
 62
    2
 10
330.69908399600024
 20
562.512111401928
 11
331.55195067378935
 21
567.75319604858635
  0
LINE
  8
_0-0_計極細
  6
CONTINUOUS
 62
    2
 10
331.55195067378935
 20
567.75319604858635
 11
332.30343293987488
 21
572.90382792881576
  0
LINE
  8
_0-0_計極細
  6
CONTINUOUS
 62
    2
 10
332.30343293987488
 20
572.90382792881576
 11
332.9278185583812
 21
577.8224091858832
  0
LINE
  8
_0-0_計極細
  6
CONTINUOUS
 62
    2
 10
332.9278185583812
 20
577.8224091858832
 11
333.41337540187232
 21
582.37589391073504
  0
LINE
  8
_0-0_計極細
  6
CONTINUOUS
 62
    2
 10
333.41337540187232
 20
582.37589391073504
 11
333.76308255606597
 21
586.44350417922612
  0
LINE
  8
_0-0_計極細
  6
CONTINUOUS
 62
    2
 10
333.76308255606597
 20
586.44350417922612
 11
333.992939728816
 21
589.91968439091613
  0
LINE
  8
_0-0_計極細
  6
CONTINUOUS
 62
    2
 10
333.992939728816
 20
589.91968439091613
 11
334.12803961214991
 21
592.71624260503756
  0
LINE
  8
_0-0_計極細
  6
CONTINUOUS
 62
    2
 10
334.12803961214991
 20
592.71624260503756
 11
334.19706310485827
 21
594.76373730438138
  0
LINE
  8
_0-0_計極細
  6
CONTINUOUS
 62
    2
 10
334.19706310485827
 20
594.76373730438138
 11
334.22621260942714
 21
596.01225460931755
  0
LINE
  8
_0-0_計極細
  6
CONTINUOUS
 62
    2
 10
334.22621260942714
 20
596.01225460931755
 11
334.2337498794077
 21
596.4317663239176
  0
LINE
  8
_0-0_計極細
  6
CONTINUOUS
 62
    2
 10
334.2337498794077
 20
596.4317663239176
 11
334.2401347367138
 21
596.85103445005007
  0
LINE
  8
_0-0_計極細
  6
CONTINUOUS
 62
    2
 10
334.2401347367138
 20
596.85103445005007
 11
334.25237185466494
 21
598.09597693979242
  0
LINE
  8
_0-0_計極細
  6
CONTINUOUS
 62
    2
 10
334.25237185466494
 20
598.09597693979242
 11
334.25107056053429
 21
600.12860690583852
  0
LINE
  8
_0-0_計極細
  6
CONTINUOUS
 62
    2
 10
334.25107056053429
 20
600.12860690583852
 11
334.20818116679732
 21
602.88754306303792
  0
LINE
  8
_0-0_計極細
  6
CONTINUOUS
 62
    2
 10
334.20818116679732
 20
602.88754306303792
 11
334.09250751288198
 21
606.29068752424303
  0
LINE
  8
_0-0_計極細
  6
CONTINUOUS
 62
    2
 10
334.09250751288198
 20
606.29068752424303
 11
333.87584227802131
 21
610.23858218620592
  0
LINE
  8
_0-0_計極細
  6
CONTINUOUS
 62
    2
 10
333.87584227802131
 20
610.23858218620592
 11
333.5385567176163
 21
614.6181405697256
  0
LINE
  8
_0-0_計極細
  6
CONTINUOUS
 62
    2
 10
333.5385567176163
 20
614.6181405697256
 11
333.0736272918611
 21
619.30647046965669
  0
LINE
  8
_0-0_計極細
  6
CONTINUOUS
 62
    2
 10
333.0736272918611
 20
619.30647046965669
 11
332.48843657892462
 21
624.17456630203799
  0
LINE
  8
_0-0_計極細
  6
CONTINUOUS
 62
    2
 10
332.48843657892462
 20
624.17456630203799
 11
331.80416081460248
 21
629.09074114847624
  0
LINE
  8
_0-0_計極細
  6
CONTINUOUS
 62
    2
 10
331.80416081460248
 20
629.09074114847624
 11
331.05304283647962
 21
633.92376450279335
  0
LINE
  8
_0-0_計極細
  6
CONTINUOUS
 62
    2
 10
331.05304283647962
 20
633.92376450279335
 11
330.27423967416149
 21
638.54575009379937
  0
LINE
  8
_0-0_計極細
  6
CONTINUOUS
 62
    2
 10
330.27423967416149
 20
638.54575009379937
 11
329.50914699542631
 21
642.83488177284357
  0
LINE
  8
_0-0_計極細
  6
CONTINUOUS
 62
    2
 10
329.50914699542631
 20
642.83488177284357
 11
328.79710079985068
 21
646.67806647132522
  0
LINE
  8
_0-0_計極細
  6
CONTINUOUS
 62
    2
 10
328.79710079985068
 20
646.67806647132522
 11
328.17215455655679
 21
649.97356465932921
  0
LINE
  8
_0-0_計極細
  6
CONTINUOUS
 62
    2
 10
328.17215455655679
 20
649.97356465932921
 11
327.66128853201502
 21
652.63358337761292
  0
LINE
  8
_0-0_計極細
  6
CONTINUOUS
 62
    2
 10
327.66128853201502
 20
652.63358337761292
 11
327.28401909500684
 21
654.58674397839718
  0
LINE
  8
_0-0_計極細
  6
CONTINUOUS
 62
    2
 10
327.28401909500684
 20
654.58674397839718
 11
327.05303854003523
 21
655.78027691535215
  0
LINE
  8
_0-0_計極細
  6
CONTINUOUS
 62
    2
 10
327.05303854003523
 20
655.78027691535215
 11
326.97531260314554
 21
656.1817663239176
  0
LINE
  8
_0-1_計細線
  6
CONTINUOUS
 62
    3
 10
284.93374987940842
 20
558.1817663239176
 11
329.98440543600009
 21
558.1817663239176
  0
LINE
  8
_0-1_計細線
  6
CONTINUOUS
 62
    3
 10
286.24584226493289
 20
531.1817663239176
 11
1163.6216574938821
 21
531.1817663239176
  0
LINE
  8
_0-1_計細線
  6
CONTINUOUS
 62
    3
 10
471.43374987940803
 20
779.1817663239176
 11
474.43374987940797
 21
779.1817663239176
  0
LINE
  8
_0-1_計細線
  6
CONTINUOUS
 62
    3
 10
474.43374987940797
 20
779.1817663239176
 11
474.43374987940797
 21
533.1817663239176
  0
LINE
  8
_0-1_計細線
  6
CONTINUOUS
 62
    3
 10
474.43374987940797
 20
533.1817663239176
 11
471.43374987940803
 21
533.1817663239176
  0
LINE
  8
_0-1_計細線
  6
CONTINUOUS
 62
    3
 10
471.43374987940803
 20
533.1817663239176
 11
471.43374987940803
 21
779.1817663239176
  0
LINE
  8
_0-1_計細線
  6
CONTINUOUS
 62
    3
 10
978.43374987940763
 20
779.1817663239176
 11
975.43374987940808
 21
779.1817663239176
  0
LINE
  8
_0-1_計細線
  6
CONTINUOUS
 62
    3
 10
975.43374987940808
 20
779.1817663239176
 11
975.43374987940808
 21
533.1817663239176
  0
LINE
  8
_0-1_計細線
  6
CONTINUOUS
 62
    3
 10
975.43374987940808
 20
533.1817663239176
 11
978.43374987940763
 21
533.1817663239176
  0
LINE
  8
_0-1_計細線
  6
CONTINUOUS
 62
    3
 10
978.43374987940763
 20
533.1817663239176
 11
978.43374987940763
 21
779.1817663239176
  0
LINE
  8
_0-1_計細線
  6
CONTINUOUS
 62
    3
 10
974.43374987940797
 20
779.1817663239176
 11
971.43374987940763
 21
779.1817663239176
  0
LINE
  8
_0-1_計細線
  6
CONTINUOUS
 62
    3
 10
971.43374987940763
 20
779.1817663239176
 11
971.43374987940763
 21
533.1817663239176
  0
LINE
  8
_0-1_計細線
  6
CONTINUOUS
 62
    3
 10
971.43374987940763
 20
533.1817663239176
 11
974.43374987940797
 21
533.1817663239176
  0
LINE
  8
_0-1_計細線
  6
CONTINUOUS
 62
    3
 10
974.43374987940797
 20
533.1817663239176
 11
974.43374987940797
 21
779.1817663239176
  0
LINE
  8
_0-1_計細線
  6
CONTINUOUS
 62
    3
 10
478.43374987940797
 20
779.1817663239176
 11
475.43374987940803
 21
779.1817663239176
  0
LINE
  8
_0-1_計細線
  6
CONTINUOUS
 62
    3
 10
475.43374987940803
 20
779.1817663239176
 11
475.43374987940803
 21
533.1817663239176
  0
LINE
  8
_0-1_計細線
  6
CONTINUOUS
 62
    3
 10
475.43374987940803
 20
533.1817663239176
 11
478.43374987940797
 21
533.1817663239176
  0
LINE
  8
_0-1_計細線
  6
CONTINUOUS
 62
    3
 10
478.43374987940797
 20
533.1817663239176
 11
478.43374987940797
 21
779.1817663239176
  0
LINE
  8
_0-0_計極細
  6
CENTER2
 62
    2
 10
1074.933749879408
 20
773.18176632391771
 11
1074.933749879408
 21
539.1817663239176
  0
LINE
  8
_0-0_計極細
  6
CENTER2
 62
    2
 10
874.93374987940751
 20
773.18176632391771
 11
874.93374987940751
 21
539.1817663239176
  0
LINE
  8
_0-0_計極細
  6
CENTER2
 62
    2
 10
774.93374987940751
 20
773.18176632391771
 11
774.93374987940751
 21
539.1817663239176
  0
LINE
  8
_0-0_計極細
  6
CENTER2
 62
    2
 10
674.93374987940797
 20
773.18176632391771
 11
674.93374987940797
 21
539.1817663239176
  0
LINE
  8
_0-0_計極細
  6
CENTER2
 62
    2
 10
574.93374987940797
 20
773.18176632391771
 11
574.93374987940797
 21
539.1817663239176
  0
LINE
  8
_0-5_寸法線
  6
CONTINUOUS
 62
    7
 10
272.9337498794057
 20
528.18176632391624
 11
227.93374987940567
 21
528.18176632391624
  0
LINE
  8
_0-5_寸法線
  6
CONTINUOUS
 62
    7
 10
232.93374987940567
 20
528.18176632391624
 11
230.34555942838054
 21
537.84102458680695
  0
LINE
  8
_0-5_寸法線
  6
CONTINUOUS
 62
    7
 10
232.93374987940567
 20
528.18176632391624
 11
235.52194033043094
 21
537.84102458680695
  0
LINE
  8
_0-5_寸法線
  6
CONTINUOUS
 62
    7
 10
272.9337498794057
 20
558.1817663239176
 11
227.93374987940567
 21
558.18176632391783
  0
LINE
  8
_0-5_寸法線
  6
CONTINUOUS
 62
    7
 10
232.93374987940567
 20
558.18176632391783
 11
235.52194033043088
 21
548.52250806102711
  0
LINE
  8
_0-5_寸法線
  6
CONTINUOUS
 62
    7
 10
232.93374987940567
 20
558.18176632391783
 11
230.34555942838045
 21
548.52250806102711
  0
LINE
  8
_0-5_寸法線
  6
CONTINUOUS
 62
    7
 10
232.93374987940567
 20
528.18176632391624
 11
232.93374987940567
 21
558.18176632391783
  0
TEXT
  8
_0-5_寸法線
 62
    7
 10
232.93374987940567
 20
535.68176632391715
 40
15
 41
1
 50
90
  1
30
  0
LINE
  8
_0-5_寸法線
  6
CONTINUOUS
 62
    7
 10
232.93374987940567
 20
558.18176632391783
 11
230.34555942838054
 21
567.84102458680854
  0
LINE
  8
_0-5_寸法線
  6
CONTINUOUS
 62
    7
 10
232.93374987940567
 20
558.18176632391783
 11
235.52194033043094
 21
567.84102458680854
  0
LINE
  8
_0-5_寸法線
  6
CONTINUOUS
 62
    7
 10
272.9337498794057
 20
754.1817663239176
 11
227.93374987940567
 21
754.1817663239176
  0
LINE
  8
_0-5_寸法線
  6
CONTINUOUS
 62
    7
 10
232.93374987940567
 20
754.1817663239176
 11
235.52194033043088
 21
744.522508061027
  0
LINE
  8
_0-5_寸法線
  6
CONTINUOUS
 62
    7
 10
232.93374987940567
 20
754.1817663239176
 11
230.34555942838045
 21
744.522508061027
  0
LINE
  8
_0-5_寸法線
  6
CONTINUOUS
 62
    7
 10
232.93374987940567
 20
558.18176632391783
 11
232.93374987940567
 21
754.1817663239176
  0
TEXT
  8
_0-5_寸法線
 62
    7
 10
232.93374987940567
 20
644.93176632391783
 40
15
 41
1
 50
89.999999999999815
  1
196
  0
LINE
  8
_0-5_寸法線
  6
CONTINUOUS
 62
    7
 10
232.93374987940567
 20
754.1817663239176
 11
230.34555942838054
 21
763.84102458680832
  0
LINE
  8
_0-5_寸法線
  6
CONTINUOUS
 62
    7
 10
232.93374987940567
 20
754.1817663239176
 11
235.52194033043094
 21
763.84102458680832
  0
LINE
  8
_0-5_寸法線
  6
CONTINUOUS
 62
    7
 10
272.9337498794057
 20
784.18176632391635
 11
227.93374987940567
 21
784.18176632391635
  0
LINE
  8
_0-5_寸法線
  6
CONTINUOUS
 62
    7
 10
232.93374987940567
 20
784.18176632391635
 11
235.52194033043088
 21
774.52250806102552
  0
LINE
  8
_0-5_寸法線
  6
CONTINUOUS
 62
    7
 10
232.93374987940567
 20
784.18176632391635
 11
230.34555942838045
 21
774.52250806102552
  0
LINE
  8
_0-5_寸法線
  6
CONTINUOUS
 62
    7
 10
232.93374987940567
 20
754.1817663239176
 11
232.93374987940567
 21
784.18176632391635
  0
TEXT
  8
_0-5_寸法線
 62
    7
 10
232.93374987940567
 20
761.68176632391692
 40
15
 41
1
 50
90
  1
30
  0
LINE
  8
_0-5_寸法線
  6
CONTINUOUS
 62
    7
 10
1176.9337498794107
 20
528.18176632391624
 11
1256.9337498794107
 21
528.18176632391601
  0
LINE
  8
_0-5_寸法線
  6
CONTINUOUS
 62
    7
 10
1251.9337498794107
 20
528.18176632391601
 11
1249.3455594283855
 21
537.84102458680672
  0
LINE
  8
_0-5_寸法線
  6
CONTINUOUS
 62
    7
 10
1251.9337498794107
 20
528.18176632391601
 11
1254.5219403304359
 21
537.84102458680672
  0
LINE
  8
_0-5_寸法線
  6
CONTINUOUS
 62
    7
 10
1176.9337498794107
 20
784.18176632391635
 11
1256.9337498794107
 21
784.18176632391601
  0
LINE
  8
_0-5_寸法線
  6
CONTINUOUS
 62
    7
 10
1251.9337498794107
 20
784.18176632391601
 11
1254.5219403304359
 21
774.52250806102541
  0
LINE
  8
_0-5_寸法線
  6
CONTINUOUS
 62
    7
 10
1251.9337498794107
 20
784.18176632391601
 11
1249.3455594283855
 21
774.52250806102541
  0
LINE
  8
_0-5_寸法線
  6
CONTINUOUS
 62
    7
 10
1251.9337498794107
 20
528.18176632391601
 11
1251.9337498794107
 21
784.18176632391601
  0
TEXT
  8
_0-5_寸法線
 62
    7
 10
1251.9337498794107
 20
644.93176632391578
 40
15
 41
1
 50
90
  1
256
  0
LINE
  8
_0-0_計極細
  6
CENTER2
 62
    2
 10
374.93374987940797
 20
773.18176632391771
 11
374.93374987940797
 21
539.1817663239176
  0
LINE
  8
_0-1_計細線
  6
CONTINUOUS
 62
    3
 10
478.43374987940797
 20
779.1817663239176
 11
478.43374987940797
 21
771.18176632391794
  0
LINE
  8
_0-1_計細線
  6
CONTINUOUS
 62
    3
 10
478.43374987940797
 20
771.18176632391794
 11
971.43374987940763
 21
771.18176632391794
  0
LINE
  8
_0-1_計細線
  6
CONTINUOUS
 62
    3
 10
971.43374987940763
 20
771.18176632391794
 11
971.43374987940763
 21
779.1817663239176
  0
LINE
  8
_0-1_計細線
  6
CONTINUOUS
 62
    3
 10
971.43374987940763
 20
779.1817663239176
 11
478.43374987940797
 21
779.1817663239176
  0
LINE
  8
_0-1_計細線
  6
CONTINUOUS
 62
    3
 10
478.43374987940797
 20
765.1817663239176
 11
478.43374987940797
 21
757.18176632391783
  0
LINE
  8
_0-1_計細線
  6
CONTINUOUS
 62
    3
 10
478.43374987940797
 20
757.18176632391783
 11
971.43374987940763
 21
757.18176632391783
  0
LINE
  8
_0-1_計細線
  6
CONTINUOUS
 62
    3
 10
971.43374987940763
 20
757.18176632391783
 11
971.43374987940763
 21
765.1817663239176
  0
LINE
  8
_0-1_計細線
  6
CONTINUOUS
 62
    3
 10
971.43374987940763
 20
765.1817663239176
 11
478.43374987940797
 21
765.1817663239176
  0
LINE
  8
_0-1_計細線
  6
CONTINUOUS
 62
    3
 10
478.43374987940797
 20
751.18176632391783
 11
478.43374987940797
 21
743.18176632391828
  0
LINE
  8
_0-1_計細線
  6
CONTINUOUS
 62
    3
 10
478.43374987940797
 20
743.18176632391828
 11
971.43374987940763
 21
743.18176632391828
  0
LINE
  8
_0-1_計細線
  6
CONTINUOUS
 62
    3
 10
971.43374987940763
 20
743.18176632391828
 11
971.43374987940763
 21
751.18176632391783
  0
LINE
  8
_0-1_計細線
  6
CONTINUOUS
 62
    3
 10
971.43374987940763
 20
751.18176632391783
 11
478.43374987940797
 21
751.18176632391783
  0
LINE
  8
_0-1_計細線
  6
CONTINUOUS
 62
    3
 10
478.43374987940797
 20
737.18176632391783
 11
478.43374987940797
 21
729.18176632391805
  0
LINE
  8
_0-1_計細線
  6
CONTINUOUS
 62
    3
 10
478.43374987940797
 20
729.18176632391805
 11
971.43374987940763
 21
729.18176632391805
  0
LINE
  8
_0-1_計細線
  6
CONTINUOUS
 62
    3
 10
971.43374987940763
 20
729.18176632391805
 11
971.43374987940763
 21
737.18176632391783
  0
LINE
  8
_0-1_計細線
  6
CONTINUOUS
 62
    3
 10
971.43374987940763
 20
737.18176632391783
 11
478.43374987940797
 21
737.18176632391783
  0
LINE
  8
_0-1_計細線
  6
CONTINUOUS
 62
    3
 10
478.43374987940797
 20
723.18176632391783
 11
478.43374987940797
 21
715.18176632391817
  0
LINE
  8
_0-1_計細線
  6
CONTINUOUS
 62
    3
 10
478.43374987940797
 20
715.18176632391817
 11
971.43374987940763
 21
715.18176632391817
  0
LINE
  8
_0-1_計細線
  6
CONTINUOUS
 62
    3
 10
971.43374987940763
 20
715.18176632391817
 11
971.43374987940763
 21
723.18176632391783
  0
LINE
  8
_0-1_計細線
  6
CONTINUOUS
 62
    3
 10
971.43374987940763
 20
723.18176632391783
 11
478.43374987940797
 21
723.18176632391783
  0
LINE
  8
_0-1_計細線
  6
CONTINUOUS
 62
    3
 10
478.43374987940797
 20
709.1817663239176
 11
478.43374987940797
 21
701.18176632391783
  0
LINE
  8
_0-1_計細線
  6
CONTINUOUS
 62
    3
 10
478.43374987940797
 20
701.18176632391783
 11
971.43374987940763
 21
701.18176632391783
  0
LINE
  8
_0-1_計細線
  6
CONTINUOUS
 62
    3
 10
971.43374987940763
 20
701.18176632391783
 11
971.43374987940763
 21
709.1817663239176
  0
LINE
  8
_0-1_計細線
  6
CONTINUOUS
 62
    3
 10
971.43374987940763
 20
709.1817663239176
 11
478.43374987940797
 21
709.1817663239176
  0
LINE
  8
_0-1_計細線
  6
CONTINUOUS
 62
    3
 10
478.43374987940797
 20
695.1817663239176
 11
478.43374987940797
 21
687.18176632391783
  0
LINE
  8
_0-1_計細線
  6
CONTINUOUS
 62
    3
 10
478.43374987940797
 20
687.18176632391783
 11
971.43374987940763
 21
687.18176632391783
  0
LINE
  8
_0-1_計細線
  6
CONTINUOUS
 62
    3
 10
971.43374987940763
 20
687.18176632391783
 11
971.43374987940763
 21
695.1817663239176
  0
LINE
  8
_0-1_計細線
  6
CONTINUOUS
 62
    3
 10
971.43374987940763
 20
695.1817663239176
 11
478.43374987940797
 21
695.1817663239176
  0
LINE
  8
_0-0_計極細
  6
CONTINUOUS
 62
    2
 10
577.43374987940797
 20
771.18176632391794
 11
577.43374987940797
 21
765.1817663239176
  0
LINE
  8
_0-0_計極細
  6
CONTINUOUS
 62
    2
 10
572.43374987940797
 20
765.18176632391737
 11
572.43374987940797
 21
771.18176632391794
  0
LINE
  8
_0-0_計極細
  6
CONTINUOUS
 62
    2
 10
577.43374987940797
 20
757.18176632391783
 11
577.43374987940797
 21
751.18176632391737
  0
LINE
  8
_0-0_計極細
  6
CONTINUOUS
 62
    2
 10
572.43374987940797
 20
751.18176632391737
 11
572.43374987940797
 21
757.18176632391783
  0
LINE
  8
_0-0_計極細
  6
CONTINUOUS
 62
    2
 10
577.43374987940797
 20
743.18176632391783
 11
577.43374987940797
 21
737.18176632391749
  0
LINE
  8
_0-0_計極細
  6
CONTINUOUS
 62
    2
 10
572.43374987940797
 20
737.18176632391749
 11
572.43374987940797
 21
743.18176632391783
  0
LINE
  8
_0-0_計極細
  6
CONTINUOUS
 62
    2
 10
577.43374987940797
 20
729.18176632391737
 11
577.43374987940797
 21
723.18176632391715
  0
LINE
  8
_0-0_計極細
  6
CONTINUOUS
 62
    2
 10
572.43374987940797
 20
723.18176632391692
 11
572.43374987940797
 21
729.18176632391737
  0
LINE
  8
_0-0_計極細
  6
CONTINUOUS
 62
    2
 10
577.43374987940797
 20
715.18176632391737
 11
577.43374987940797
 21
709.18176632391715
  0
LINE
  8
_0-0_計極細
  6
CONTINUOUS
 62
    2
 10
572.43374987940797
 20
709.18176632391692
 11
572.43374987940797
 21
715.18176632391737
  0
LINE
  8
_0-0_計極細
  6
CONTINUOUS
 62
    2
 10
577.43374987940797
 20
701.18176632391737
 11
577.43374987940797
 21
695.18176632391715
  0
LINE
  8
_0-0_計極細
  6
CONTINUOUS
 62
    2
 10
572.43374987940797
 20
695.18176632391703
 11
572.43374987940797
 21
701.18176632391737
  0
LINE
  8
_0-0_計極細
  6
CONTINUOUS
 62
    2
 10
677.43374987940797
 20
771.18176632391794
 11
677.43374987940797
 21
765.1817663239176
  0
LINE
  8
_0-0_計極細
  6
CONTINUOUS
 62
    2
 10
672.43374987940797
 20
765.18176632391737
 11
672.43374987940797
 21
771.18176632391794
  0
LINE
  8
_0-0_計極細
  6
CONTINUOUS
 62
    2
 10
677.43374987940797
 20
757.18176632391783
 11
677.43374987940797
 21
751.18176632391737
  0
LINE
  8
_0-0_計極細
  6
CONTINUOUS
 62
    2
 10
672.43374987940797
 20
751.18176632391737
 11
672.43374987940797
 21
757.18176632391783
  0
LINE
  8
_0-0_計極細
  6
CONTINUOUS
 62
    2
 10
677.43374987940797
 20
743.18176632391783
 11
677.43374987940797
 21
737.18176632391749
  0
LINE
  8
_0-0_計極細
  6
CONTINUOUS
 62
    2
 10
672.43374987940797
 20
737.18176632391749
 11
672.43374987940797
 21
743.18176632391783
  0
LINE
  8
_0-0_計極細
  6
CONTINUOUS
 62
    2
 10
677.43374987940797
 20
729.18176632391737
 11
677.43374987940797
 21
723.18176632391715
  0
LINE
  8
_0-0_計極細
  6
CONTINUOUS
 62
    2
 10
672.43374987940797
 20
723.18176632391692
 11
672.43374987940797
 21
729.18176632391737
  0
LINE
  8
_0-0_計極細
  6
CONTINUOUS
 62
    2
 10
677.43374987940797
 20
715.18176632391737
 11
677.43374987940797
 21
709.18176632391715
  0
LINE
  8
_0-0_計極細
  6
CONTINUOUS
 62
    2
 10
672.43374987940797
 20
709.18176632391692
 11
672.43374987940797
 21
715.18176632391737
  0
LINE
  8
_0-0_計極細
  6
CONTINUOUS
 62
    2
 10
677.43374987940797
 20
701.18176632391737
 11
677.43374987940797
 21
695.18176632391715
  0
LINE
  8
_0-0_計極細
  6
CONTINUOUS
 62
    2
 10
672.43374987940797
 20
695.18176632391703
 11
672.43374987940797
 21
701.18176632391737
  0
LINE
  8
_0-0_計極細
  6
CONTINUOUS
 62
    2
 10
777.43374987940751
 20
771.18176632391794
 11
777.43374987940751
 21
765.1817663239176
  0
LINE
  8
_0-0_計極細
  6
CONTINUOUS
 62
    2
 10
772.43374987940751
 20
765.18176632391737
 11
772.43374987940751
 21
771.18176632391794
  0
LINE
  8
_0-0_計極細
  6
CONTINUOUS
 62
    2
 10
777.43374987940751
 20
757.18176632391783
 11
777.43374987940751
 21
751.18176632391737
  0
LINE
  8
_0-0_計極細
  6
CONTINUOUS
 62
    2
 10
772.43374987940751
 20
751.18176632391737
 11
772.43374987940751
 21
757.18176632391783
  0
LINE
  8
_0-0_計極細
  6
CONTINUOUS
 62
    2
 10
777.43374987940751
 20
743.18176632391783
 11
777.43374987940751
 21
737.18176632391749
  0
LINE
  8
_0-0_計極細
  6
CONTINUOUS
 62
    2
 10
772.43374987940751
 20
737.18176632391749
 11
772.43374987940751
 21
743.18176632391783
  0
LINE
  8
_0-0_計極細
  6
CONTINUOUS
 62
    2
 10
777.43374987940751
 20
729.18176632391737
 11
777.43374987940751
 21
723.18176632391715
  0
LINE
  8
_0-0_計極細
  6
CONTINUOUS
 62
    2
 10
772.43374987940751
 20
723.18176632391692
 11
772.43374987940751
 21
729.18176632391737
  0
LINE
  8
_0-0_計極細
  6
CONTINUOUS
 62
    2
 10
777.43374987940751
 20
715.18176632391737
 11
777.43374987940751
 21
709.18176632391715
  0
LINE
  8
_0-0_計極細
  6
CONTINUOUS
 62
    2
 10
772.43374987940751
 20
709.18176632391692
 11
772.43374987940751
 21
715.18176632391737
  0
LINE
  8
_0-0_計極細
  6
CONTINUOUS
 62
    2
 10
777.43374987940751
 20
701.18176632391737
 11
777.43374987940751
 21
695.18176632391715
  0
LINE
  8
_0-0_計極細
  6
CONTINUOUS
 62
    2
 10
772.43374987940751
 20
695.18176632391703
 11
772.43374987940751
 21
701.18176632391737
  0
LINE
  8
_0-0_計極細
  6
CONTINUOUS
 62
    2
 10
877.43374987940751
 20
771.18176632391794
 11
877.43374987940751
 21
765.1817663239176
  0
LINE
  8
_0-0_計極細
  6
CONTINUOUS
 62
    2
 10
872.43374987940751
 20
765.18176632391737
 11
872.43374987940751
 21
771.18176632391794
  0
LINE
  8
_0-0_計極細
  6
CONTINUOUS
 62
    2
 10
877.43374987940751
 20
757.18176632391783
 11
877.43374987940751
 21
751.18176632391737
  0
LINE
  8
_0-0_計極細
  6
CONTINUOUS
 62
    2
 10
872.43374987940751
 20
751.18176632391737
 11
872.43374987940751
 21
757.18176632391783
  0
LINE
  8
_0-0_計極細
  6
CONTINUOUS
 62
    2
 10
877.43374987940751
 20
743.18176632391783
 11
877.43374987940751
 21
737.18176632391749
  0
LINE
  8
_0-0_計極細
  6
CONTINUOUS
 62
    2
 10
872.43374987940751
 20
737.18176632391749
 11
872.43374987940751
 21
743.18176632391783
  0
LINE
  8
_0-0_計極細
  6
CONTINUOUS
 62
    2
 10
877.43374987940751
 20
729.18176632391737
 11
877.43374987940751
 21
723.18176632391715
  0
LINE
  8
_0-0_計極細
  6
CONTINUOUS
 62
    2
 10
872.43374987940751
 20
723.18176632391692
 11
872.43374987940751
 21
729.18176632391737
  0
LINE
  8
_0-0_計極細
  6
CONTINUOUS
 62
    2
 10
877.43374987940751
 20
715.18176632391737
 11
877.43374987940751
 21
709.18176632391715
  0
LINE
  8
_0-0_計極細
  6
CONTINUOUS
 62
    2
 10
872.43374987940751
 20
709.18176632391692
 11
872.43374987940751
 21
715.18176632391737
  0
LINE
  8
_0-0_計極細
  6
CONTINUOUS
 62
    2
 10
877.43374987940751
 20
701.18176632391737
 11
877.43374987940751
 21
695.18176632391715
  0
LINE
  8
_0-0_計極細
  6
CONTINUOUS
 62
    2
 10
872.43374987940751
 20
695.18176632391703
 11
872.43374987940751
 21
701.18176632391737
  0
LINE
  8
_0-1_計細線
  6
CONTINUOUS
 62
    3
 10
478.43374987940797
 20
681.1817663239176
 11
478.43374987940797
 21
673.18176632391783
  0
LINE
  8
_0-1_計細線
  6
CONTINUOUS
 62
    3
 10
478.43374987940797
 20
673.18176632391783
 11
971.43374987940763
 21
673.18176632391783
  0
LINE
  8
_0-1_計細線
  6
CONTINUOUS
 62
    3
 10
971.43374987940763
 20
673.18176632391783
 11
971.43374987940763
 21
681.1817663239176
  0
LINE
  8
_0-1_計細線
  6
CONTINUOUS
 62
    3
 10
971.43374987940763
 20
681.1817663239176
 11
478.43374987940797
 21
681.1817663239176
  0
LINE
  8
_0-0_計極細
  6
CONTINUOUS
 62
    2
 10
577.43374987940797
 20
687.18176632391749
 11
577.43374987940797
 21
681.18176632391726
  0
LINE
  8
_0-0_計極細
  6
CONTINUOUS
 62
    2
 10
572.43374987940797
 20
681.18176632391692
 11
572.43374987940797
 21
687.18176632391749
  0
LINE
  8
_0-0_計極細
  6
CONTINUOUS
 62
    2
 10
677.43374987940797
 20
687.18176632391749
 11
677.43374987940797
 21
681.18176632391726
  0
LINE
  8
_0-0_計極細
  6
CONTINUOUS
 62
    2
 10
672.43374987940797
 20
681.18176632391692
 11
672.43374987940797
 21
687.18176632391749
  0
LINE
  8
_0-0_計極細
  6
CONTINUOUS
 62
    2
 10
777.43374987940751
 20
687.18176632391749
 11
777.43374987940751
 21
681.18176632391726
  0
LINE
  8
_0-0_計極細
  6
CONTINUOUS
 62
    2
 10
772.43374987940751
 20
681.18176632391692
 11
772.43374987940751
 21
687.18176632391749
  0
LINE
  8
_0-0_計極細
  6
CONTINUOUS
 62
    2
 10
877.43374987940751
 20
687.18176632391749
 11
877.43374987940751
 21
681.18176632391726
  0
LINE
  8
_0-0_計極細
  6
CONTINUOUS
 62
    2
 10
872.43374987940751
 20
681.18176632391692
 11
872.43374987940751
 21
687.18176632391749
  0
LINE
  8
_0-1_計細線
  6
CONTINUOUS
 62
    3
 10
478.43374987940797
 20
667.1817663239176
 11
478.43374987940797
 21
659.18176632391794
  0
LINE
  8
_0-1_計細線
  6
CONTINUOUS
 62
    3
 10
478.43374987940797
 20
659.18176632391794
 11
971.43374987940763
 21
659.18176632391794
  0
LINE
  8
_0-1_計細線
  6
CONTINUOUS
 62
    3
 10
971.43374987940763
 20
659.18176632391794
 11
971.43374987940763
 21
667.1817663239176
  0
LINE
  8
_0-1_計細線
  6
CONTINUOUS
 62
    3
 10
971.43374987940763
 20
667.1817663239176
 11
478.43374987940797
 21
667.1817663239176
  0
LINE
  8
_0-0_計極細
  6
CONTINUOUS
 62
    2
 10
577.43374987940797
 20
673.18176632391737
 11
577.43374987940797
 21
667.18176632391715
  0
LINE
  8
_0-0_計極細
  6
CONTINUOUS
 62
    2
 10
572.43374987940797
 20
667.18176632391692
 11
572.43374987940797
 21
673.18176632391737
  0
LINE
  8
_0-0_計極細
  6
CONTINUOUS
 62
    2
 10
677.43374987940797
 20
673.18176632391737
 11
677.43374987940797
 21
667.18176632391715
  0
LINE
  8
_0-0_計極細
  6
CONTINUOUS
 62
    2
 10
672.43374987940797
 20
667.18176632391692
 11
672.43374987940797
 21
673.18176632391737
  0
LINE
  8
_0-0_計極細
  6
CONTINUOUS
 62
    2
 10
777.43374987940751
 20
673.18176632391737
 11
777.43374987940751
 21
667.18176632391715
  0
LINE
  8
_0-0_計極細
  6
CONTINUOUS
 62
    2
 10
772.43374987940751
 20
667.18176632391692
 11
772.43374987940751
 21
673.18176632391737
  0
LINE
  8
_0-0_計極細
  6
CONTINUOUS
 62
    2
 10
877.43374987940751
 20
673.18176632391737
 11
877.43374987940751
 21
667.18176632391715
  0
LINE
  8
_0-0_計極細
  6
CONTINUOUS
 62
    2
 10
872.43374987940751
 20
667.18176632391692
 11
872.43374987940751
 21
673.18176632391737
  0
LINE
  8
_0-1_計細線
  6
CONTINUOUS
 62
    3
 10
478.43374987940797
 20
653.18176632391771
 11
478.43374987940797
 21
645.18176632391783
  0
LINE
  8
_0-1_計細線
  6
CONTINUOUS
 62
    3
 10
478.43374987940797
 20
645.18176632391783
 11
971.43374987940763
 21
645.18176632391783
  0
LINE
  8
_0-1_計細線
  6
CONTINUOUS
 62
    3
 10
971.43374987940763
 20
645.18176632391783
 11
971.43374987940763
 21
653.18176632391771
  0
LINE
  8
_0-1_計細線
  6
CONTINUOUS
 62
    3
 10
971.43374987940763
 20
653.18176632391771
 11
478.43374987940797
 21
653.18176632391771
  0
LINE
  8
_0-0_計極細
  6
CONTINUOUS
 62
    2
 10
577.43374987940797
 20
659.18176632391737
 11
577.43374987940797
 21
653.18176632391715
  0
LINE
  8
_0-0_計極細
  6
CONTINUOUS
 62
    2
 10
572.43374987940797
 20
653.18176632391692
 11
572.43374987940797
 21
659.18176632391737
  0
LINE
  8
_0-0_計極細
  6
CONTINUOUS
 62
    2
 10
677.43374987940797
 20
659.18176632391737
 11
677.43374987940797
 21
653.18176632391715
  0
LINE
  8
_0-0_計極細
  6
CONTINUOUS
 62
    2
 10
672.43374987940797
 20
653.18176632391692
 11
672.43374987940797
 21
659.18176632391737
  0
LINE
  8
_0-0_計極細
  6
CONTINUOUS
 62
    2
 10
777.43374987940751
 20
659.18176632391737
 11
777.43374987940751
 21
653.18176632391715
  0
LINE
  8
_0-0_計極細
  6
CONTINUOUS
 62
    2
 10
772.43374987940751
 20
653.18176632391692
 11
772.43374987940751
 21
659.18176632391737
  0
LINE
  8
_0-0_計極細
  6
CONTINUOUS
 62
    2
 10
877.43374987940751
 20
659.18176632391737
 11
877.43374987940751
 21
653.18176632391715
  0
LINE
  8
_0-0_計極細
  6
CONTINUOUS
 62
    2
 10
872.43374987940751
 20
653.18176632391692
 11
872.43374987940751
 21
659.18176632391737
  0
LINE
  8
_0-1_計細線
  6
CONTINUOUS
 62
    3
 10
478.43374987940797
 20
639.1817663239176
 11
478.43374987940797
 21
631.18176632391783
  0
LINE
  8
_0-1_計細線
  6
CONTINUOUS
 62
    3
 10
478.43374987940797
 20
631.18176632391783
 11
971.43374987940763
 21
631.18176632391783
  0
LINE
  8
_0-1_計細線
  6
CONTINUOUS
 62
    3
 10
971.43374987940763
 20
631.18176632391783
 11
971.43374987940763
 21
639.1817663239176
  0
LINE
  8
_0-1_計細線
  6
CONTINUOUS
 62
    3
 10
971.43374987940763
 20
639.1817663239176
 11
478.43374987940797
 21
639.1817663239176
  0
LINE
  8
_0-0_計極細
  6
CONTINUOUS
 62
    2
 10
577.43374987940797
 20
645.18176632391737
 11
577.43374987940797
 21
639.18176632391715
  0
LINE
  8
_0-0_計極細
  6
CONTINUOUS
 62
    2
 10
572.43374987940797
 20
639.18176632391692
 11
572.43374987940797
 21
645.18176632391737
  0
LINE
  8
_0-0_計極細
  6
CONTINUOUS
 62
    2
 10
677.43374987940797
 20
645.18176632391737
 11
677.43374987940797
 21
639.18176632391715
  0
LINE
  8
_0-0_計極細
  6
CONTINUOUS
 62
    2
 10
672.43374987940797
 20
639.18176632391692
 11
672.43374987940797
 21
645.18176632391737
  0
LINE
  8
_0-0_計極細
  6
CONTINUOUS
 62
    2
 10
777.43374987940751
 20
645.18176632391737
 11
777.43374987940751
 21
639.18176632391715
  0
LINE
  8
_0-0_計極細
  6
CONTINUOUS
 62
    2
 10
772.43374987940751
 20
639.18176632391692
 11
772.43374987940751
 21
645.18176632391737
  0
LINE
  8
_0-0_計極細
  6
CONTINUOUS
 62
    2
 10
877.43374987940751
 20
645.18176632391737
 11
877.43374987940751
 21
639.18176632391715
  0
LINE
  8
_0-0_計極細
  6
CONTINUOUS
 62
    2
 10
872.43374987940751
 20
639.18176632391692
 11
872.43374987940751
 21
645.18176632391737
  0
LINE
  8
_0-1_計細線
  6
CONTINUOUS
 62
    3
 10
478.43374987940797
 20
625.1817663239176
 11
478.43374987940797
 21
617.18176632391783
  0
LINE
  8
_0-1_計細線
  6
CONTINUOUS
 62
    3
 10
478.43374987940797
 20
617.18176632391783
 11
971.43374987940763
 21
617.18176632391783
  0
LINE
  8
_0-1_計細線
  6
CONTINUOUS
 62
    3
 10
971.43374987940763
 20
617.18176632391783
 11
971.43374987940763
 21
625.1817663239176
  0
LINE
  8
_0-1_計細線
  6
CONTINUOUS
 62
    3
 10
971.43374987940763
 20
625.1817663239176
 11
478.43374987940797
 21
625.1817663239176
  0
LINE
  8
_0-0_計極細
  6
CONTINUOUS
 62
    2
 10
577.43374987940797
 20
631.18176632391737
 11
577.43374987940797
 21
625.18176632391715
  0
LINE
  8
_0-0_計極細
  6
CONTINUOUS
 62
    2
 10
572.43374987940797
 20
625.18176632391692
 11
572.43374987940797
 21
631.18176632391737
  0
LINE
  8
_0-0_計極細
  6
CONTINUOUS
 62
    2
 10
677.43374987940797
 20
631.18176632391737
 11
677.43374987940797
 21
625.18176632391715
  0
LINE
  8
_0-0_計極細
  6
CONTINUOUS
 62
    2
 10
672.43374987940797
 20
625.18176632391692
 11
672.43374987940797
 21
631.18176632391737
  0
LINE
  8
_0-0_計極細
  6
CONTINUOUS
 62
    2
 10
777.43374987940751
 20
631.18176632391737
 11
777.43374987940751
 21
625.18176632391715
  0
LINE
  8
_0-0_計極細
  6
CONTINUOUS
 62
    2
 10
772.43374987940751
 20
625.18176632391692
 11
772.43374987940751
 21
631.18176632391737
  0
LINE
  8
_0-0_計極細
  6
CONTINUOUS
 62
    2
 10
877.43374987940751
 20
631.18176632391737
 11
877.43374987940751
 21
625.18176632391715
  0
LINE
  8
_0-0_計極細
  6
CONTINUOUS
 62
    2
 10
872.43374987940751
 20
625.18176632391692
 11
872.43374987940751
 21
631.18176632391737
  0
LINE
  8
_0-1_計細線
  6
CONTINUOUS
 62
    3
 10
478.43374987940797
 20
611.1817663239176
 11
478.43374987940797
 21
603.18176632391783
  0
LINE
  8
_0-1_計細線
  6
CONTINUOUS
 62
    3
 10
478.43374987940797
 20
603.18176632391783
 11
971.43374987940763
 21
603.18176632391783
  0
LINE
  8
_0-1_計細線
  6
CONTINUOUS
 62
    3
 10
971.43374987940763
 20
603.18176632391783
 11
971.43374987940763
 21
611.1817663239176
  0
LINE
  8
_0-1_計細線
  6
CONTINUOUS
 62
    3
 10
971.43374987940763
 20
611.1817663239176
 11
478.43374987940797
 21
611.1817663239176
  0
LINE
  8
_0-0_計極細
  6
CONTINUOUS
 62
    2
 10
577.43374987940797
 20
617.18176632391737
 11
577.43374987940797
 21
611.18176632391715
  0
LINE
  8
_0-0_計極細
  6
CONTINUOUS
 62
    2
 10
572.43374987940797
 20
611.18176632391692
 11
572.43374987940797
 21
617.18176632391737
  0
LINE
  8
_0-0_計極細
  6
CONTINUOUS
 62
    2
 10
677.43374987940797
 20
617.18176632391737
 11
677.43374987940797
 21
611.18176632391715
  0
LINE
  8
_0-0_計極細
  6
CONTINUOUS
 62
    2
 10
672.43374987940797
 20
611.18176632391692
 11
672.43374987940797
 21
617.18176632391737
  0
LINE
  8
_0-0_計極細
  6
CONTINUOUS
 62
    2
 10
777.43374987940751
 20
617.18176632391737
 11
777.43374987940751
 21
611.18176632391715
  0
LINE
  8
_0-0_計極細
  6
CONTINUOUS
 62
    2
 10
772.43374987940751
 20
611.18176632391692
 11
772.43374987940751
 21
617.18176632391737
  0
LINE
  8
_0-0_計極細
  6
CONTINUOUS
 62
    2
 10
877.43374987940751
 20
617.18176632391737
 11
877.43374987940751
 21
611.18176632391715
  0
LINE
  8
_0-0_計極細
  6
CONTINUOUS
 62
    2
 10
872.43374987940751
 20
611.18176632391692
 11
872.43374987940751
 21
617.18176632391737
  0
LINE
  8
_0-1_計細線
  6
CONTINUOUS
 62
    3
 10
478.43374987940797
 20
597.1817663239176
 11
478.43374987940797
 21
589.18176632391783
  0
LINE
  8
_0-1_計細線
  6
CONTINUOUS
 62
    3
 10
478.43374987940797
 20
589.18176632391783
 11
971.43374987940763
 21
589.18176632391783
  0
LINE
  8
_0-1_計細線
  6
CONTINUOUS
 62
    3
 10
971.43374987940763
 20
589.18176632391783
 11
971.43374987940763
 21
597.1817663239176
  0
LINE
  8
_0-1_計細線
  6
CONTINUOUS
 62
    3
 10
971.43374987940763
 20
597.1817663239176
 11
478.43374987940797
 21
597.1817663239176
  0
LINE
  8
_0-0_計極細
  6
CONTINUOUS
 62
    2
 10
577.43374987940797
 20
603.18176632391737
 11
577.43374987940797
 21
597.18176632391715
  0
LINE
  8
_0-0_計極細
  6
CONTINUOUS
 62
    2
 10
572.43374987940797
 20
597.18176632391692
 11
572.43374987940797
 21
603.18176632391737
  0
LINE
  8
_0-0_計極細
  6
CONTINUOUS
 62
    2
 10
677.43374987940797
 20
603.18176632391737
 11
677.43374987940797
 21
597.18176632391715
  0
LINE
  8
_0-0_計極細
  6
CONTINUOUS
 62
    2
 10
672.43374987940797
 20
597.18176632391692
 11
672.43374987940797
 21
603.18176632391737
  0
LINE
  8
_0-0_計極細
  6
CONTINUOUS
 62
    2
 10
777.43374987940751
 20
603.18176632391737
 11
777.43374987940751
 21
597.18176632391715
  0
LINE
  8
_0-0_計極細
  6
CONTINUOUS
 62
    2
 10
772.43374987940751
 20
597.18176632391692
 11
772.43374987940751
 21
603.18176632391737
  0
LINE
  8
_0-0_計極細
  6
CONTINUOUS
 62
    2
 10
877.43374987940751
 20
603.18176632391737
 11
877.43374987940751
 21
597.18176632391715
  0
LINE
  8
_0-0_計極細
  6
CONTINUOUS
 62
    2
 10
872.43374987940751
 20
597.18176632391692
 11
872.43374987940751
 21
603.18176632391737
  0
LINE
  8
_0-1_計細線
  6
CONTINUOUS
 62
    3
 10
478.43374987940797
 20
583.1817663239176
 11
478.43374987940797
 21
575.18176632391783
  0
LINE
  8
_0-1_計細線
  6
CONTINUOUS
 62
    3
 10
478.43374987940797
 20
575.18176632391783
 11
971.43374987940763
 21
575.18176632391783
  0
LINE
  8
_0-1_計細線
  6
CONTINUOUS
 62
    3
 10
971.43374987940763
 20
575.18176632391783
 11
971.43374987940763
 21
583.1817663239176
  0
LINE
  8
_0-1_計細線
  6
CONTINUOUS
 62
    3
 10
971.43374987940763
 20
583.1817663239176
 11
478.43374987940797
 21
583.1817663239176
  0
LINE
  8
_0-0_計極細
  6
CONTINUOUS
 62
    2
 10
577.43374987940797
 20
589.18176632391737
 11
577.43374987940797
 21
583.18176632391715
  0
LINE
  8
_0-0_計極細
  6
CONTINUOUS
 62
    2
 10
572.43374987940797
 20
583.18176632391692
 11
572.43374987940797
 21
589.18176632391737
  0
LINE
  8
_0-0_計極細
  6
CONTINUOUS
 62
    2
 10
677.43374987940797
 20
589.18176632391737
 11
677.43374987940797
 21
583.18176632391715
  0
LINE
  8
_0-0_計極細
  6
CONTINUOUS
 62
    2
 10
672.43374987940797
 20
583.18176632391692
 11
672.43374987940797
 21
589.18176632391737
  0
LINE
  8
_0-0_計極細
  6
CONTINUOUS
 62
    2
 10
777.43374987940751
 20
589.18176632391737
 11
777.43374987940751
 21
583.18176632391715
  0
LINE
  8
_0-0_計極細
  6
CONTINUOUS
 62
    2
 10
772.43374987940751
 20
583.18176632391692
 11
772.43374987940751
 21
589.18176632391737
  0
LINE
  8
_0-0_計極細
  6
CONTINUOUS
 62
    2
 10
877.43374987940751
 20
589.18176632391737
 11
877.43374987940751
 21
583.18176632391715
  0
LINE
  8
_0-0_計極細
  6
CONTINUOUS
 62
    2
 10
872.43374987940751
 20
583.18176632391692
 11
872.43374987940751
 21
589.18176632391737
  0
LINE
  8
_0-0_計極細
  6
CONTINUOUS
 62
    2
 10
377.43374987940751
 20
771.18176632391794
 11
377.43374987940751
 21
765.1817663239176
  0
LINE
  8
_0-0_計極細
  6
CONTINUOUS
 62
    2
 10
372.43374987940751
 20
765.18176632391737
 11
372.43374987940751
 21
771.18176632391794
  0
LINE
  8
_0-0_計極細
  6
CONTINUOUS
 62
    2
 10
377.43374987940751
 20
757.18176632391783
 11
377.43374987940751
 21
751.18176632391737
  0
LINE
  8
_0-0_計極細
  6
CONTINUOUS
 62
    2
 10
372.43374987940751
 20
751.18176632391737
 11
372.43374987940751
 21
757.18176632391783
  0
LINE
  8
_0-0_計極細
  6
CONTINUOUS
 62
    2
 10
377.43374987940751
 20
743.18176632391783
 11
377.43374987940751
 21
737.18176632391749
  0
LINE
  8
_0-0_計極細
  6
CONTINUOUS
 62
    2
 10
372.43374987940751
 20
737.18176632391749
 11
372.43374987940751
 21
743.18176632391783
  0
LINE
  8
_0-0_計極細
  6
CONTINUOUS
 62
    2
 10
377.43374987940751
 20
729.18176632391737
 11
377.43374987940751
 21
723.18176632391715
  0
LINE
  8
_0-0_計極細
  6
CONTINUOUS
 62
    2
 10
372.43374987940751
 20
723.18176632391692
 11
372.43374987940751
 21
729.18176632391737
  0
LINE
  8
_0-0_計極細
  6
CONTINUOUS
 62
    2
 10
377.43374987940751
 20
715.18176632391737
 11
377.43374987940751
 21
709.18176632391715
  0
LINE
  8
_0-0_計極細
  6
CONTINUOUS
 62
    2
 10
372.43374987940751
 20
709.18176632391692
 11
372.43374987940751
 21
715.18176632391737
  0
LINE
  8
_0-0_計極細
  6
CONTINUOUS
 62
    2
 10
377.43374987940751
 20
701.18176632391737
 11
377.43374987940751
 21
695.18176632391715
  0
LINE
  8
_0-0_計極細
  6
CONTINUOUS
 62
    2
 10
372.43374987940751
 20
695.18176632391703
 11
372.43374987940751
 21
701.18176632391737
  0
LINE
  8
_0-0_計極細
  6
CONTINUOUS
 62
    2
 10
377.43374987940751
 20
687.18176632391749
 11
377.43374987940751
 21
681.18176632391726
  0
LINE
  8
_0-0_計極細
  6
CONTINUOUS
 62
    2
 10
372.43374987940751
 20
681.18176632391692
 11
372.43374987940751
 21
687.18176632391749
  0
LINE
  8
_0-0_計極細
  6
CONTINUOUS
 62
    2
 10
377.43374987940751
 20
673.18176632391737
 11
377.43374987940751
 21
667.18176632391715
  0
LINE
  8
_0-0_計極細
  6
CONTINUOUS
 62
    2
 10
372.43374987940751
 20
667.18176632391692
 11
372.43374987940751
 21
673.18176632391737
  0
LINE
  8
_0-0_計極細
  6
CONTINUOUS
 62
    2
 10
377.43374987940751
 20
659.18176632391737
 11
377.43374987940751
 21
653.18176632391715
  0
LINE
  8
_0-0_計極細
  6
CONTINUOUS
 62
    2
 10
372.43374987940751
 20
653.18176632391692
 11
372.43374987940751
 21
659.18176632391737
  0
LINE
  8
_0-0_計極細
  6
CONTINUOUS
 62
    2
 10
377.43374987940751
 20
645.18176632391737
 11
377.43374987940751
 21
639.18176632391715
  0
LINE
  8
_0-0_計極細
  6
CONTINUOUS
 62
    2
 10
372.43374987940751
 20
639.18176632391692
 11
372.43374987940751
 21
645.18176632391737
  0
LINE
  8
_0-1_計細線
  6
CONTINUOUS
 62
    3
 10
324.93374987940751
 20
779.1817663239176
 11
471.43374987940803
 21
779.1817663239176
  0
LINE
  8
_0-0_計極細
  6
CONTINUOUS
 62
    2
 10
377.43374987940751
 20
631.18176632391737
 11
377.43374987940751
 21
625.18176632391715
  0
LINE
  8
_0-0_計極細
  6
CONTINUOUS
 62
    2
 10
372.43374987940751
 20
625.18176632391692
 11
372.43374987940751
 21
631.18176632391737
  0
LINE
  8
_0-0_計極細
  6
CONTINUOUS
 62
    2
 10
377.43374987940751
 20
617.18176632391737
 11
377.43374987940751
 21
611.18176632391715
  0
LINE
  8
_0-0_計極細
  6
CONTINUOUS
 62
    2
 10
372.43374987940751
 20
611.18176632391692
 11
372.43374987940751
 21
617.18176632391737
  0
LINE
  8
_0-0_計極細
  6
CONTINUOUS
 62
    2
 10
377.43374987940751
 20
603.18176632391737
 11
377.43374987940751
 21
597.18176632391715
  0
LINE
  8
_0-0_計極細
  6
CONTINUOUS
 62
    2
 10
372.43374987940751
 20
597.18176632391692
 11
372.43374987940751
 21
603.18176632391737
  0
LINE
  8
_0-0_計極細
  6
CONTINUOUS
 62
    2
 10
377.43374987940751
 20
589.18176632391737
 11
377.43374987940751
 21
583.18176632391715
  0
LINE
  8
_0-0_計極細
  6
CONTINUOUS
 62
    2
 10
372.43374987940751
 20
583.18176632391692
 11
372.43374987940751
 21
589.18176632391737
  0
LINE
  8
_0-1_計細線
  6
CONTINUOUS
 62
    3
 10
471.43374987940803
 20
701.18176632391783
 11
318.75727158683685
 21
701.18176632391783
  0
LINE
  8
_0-0_計極細
  6
CONTINUOUS
 62
    2
 10
1077.433749879408
 20
771.18176632391805
 11
1077.433749879408
 21
765.18176632391783
  0
LINE
  8
_0-0_計極細
  6
CONTINUOUS
 62
    2
 10
1072.433749879408
 20
765.1817663239176
 11
1072.433749879408
 21
771.18176632391805
  0
LINE
  8
_0-0_計極細
  6
CONTINUOUS
 62
    2
 10
1077.433749879408
 20
757.18176632391805
 11
1077.433749879408
 21
751.1817663239176
  0
LINE
  8
_0-0_計極細
  6
CONTINUOUS
 62
    2
 10
1072.433749879408
 20
751.1817663239176
 11
1072.433749879408
 21
757.18176632391805
  0
LINE
  8
_0-0_計極細
  6
CONTINUOUS
 62
    2
 10
1077.433749879408
 20
743.18176632391805
 11
1077.433749879408
 21
737.1817663239176
  0
LINE
  8
_0-0_計極細
  6
CONTINUOUS
 62
    2
 10
1072.433749879408
 20
737.1817663239176
 11
1072.433749879408
 21
743.18176632391805
  0
LINE
  8
_0-0_計極細
  6
CONTINUOUS
 62
    2
 10
1077.433749879408
 20
729.1817663239176
 11
1077.433749879408
 21
723.18176632391737
  0
LINE
  8
_0-0_計極細
  6
CONTINUOUS
 62
    2
 10
1072.433749879408
 20
723.18176632391715
 11
1072.433749879408
 21
729.1817663239176
  0
LINE
  8
_0-0_計極細
  6
CONTINUOUS
 62
    2
 10
1077.433749879408
 20
715.1817663239176
 11
1077.433749879408
 21
709.18176632391737
  0
LINE
  8
_0-0_計極細
  6
CONTINUOUS
 62
    2
 10
1072.433749879408
 20
709.18176632391715
 11
1072.433749879408
 21
715.1817663239176
  0
LINE
  8
_0-0_計極細
  6
CONTINUOUS
 62
    2
 10
1077.433749879408
 20
701.1817663239176
 11
1077.433749879408
 21
695.18176632391737
  0
LINE
  8
_0-0_計極細
  6
CONTINUOUS
 62
    2
 10
1072.433749879408
 20
695.18176632391715
 11
1072.433749879408
 21
701.1817663239176
  0
LINE
  8
_0-0_計極細
  6
CONTINUOUS
 62
    2
 10
1077.433749879408
 20
687.1817663239176
 11
1077.433749879408
 21
681.18176632391737
  0
LINE
  8
_0-0_計極細
  6
CONTINUOUS
 62
    2
 10
1072.433749879408
 20
681.18176632391726
 11
1072.433749879408
 21
687.1817663239176
  0
LINE
  8
_0-0_計極細
  6
CONTINUOUS
 62
    2
 10
1077.433749879408
 20
673.18176632391771
 11
1077.433749879408
 21
667.18176632391749
  0
LINE
  8
_0-0_計極細
  6
CONTINUOUS
 62
    2
 10
1072.433749879408
 20
667.18176632391715
 11
1072.433749879408
 21
673.18176632391771
  0
LINE
  8
_0-0_計極細
  6
CONTINUOUS
 62
    2
 10
1077.433749879408
 20
659.1817663239176
 11
1077.433749879408
 21
653.18176632391737
  0
LINE
  8
_0-0_計極細
  6
CONTINUOUS
 62
    2
 10
1072.433749879408
 20
653.18176632391715
 11
1072.433749879408
 21
659.1817663239176
  0
LINE
  8
_0-0_計極細
  6
CONTINUOUS
 62
    2
 10
1077.433749879408
 20
645.1817663239176
 11
1077.433749879408
 21
639.18176632391737
  0
LINE
  8
_0-0_計極細
  6
CONTINUOUS
 62
    2
 10
1072.433749879408
 20
639.18176632391715
 11
1072.433749879408
 21
645.1817663239176
  0
LINE
  8
_0-1_計細線
  6
CONTINUOUS
 62
    3
 10
1124.933749879408
 20
779.18176632391794
 11
978.43374987940763
 21
779.18176632391794
  0
LINE
  8
_0-0_計極細
  6
CONTINUOUS
 62
    2
 10
1077.433749879408
 20
631.1817663239176
 11
1077.433749879408
 21
625.18176632391737
  0
LINE
  8
_0-0_計極細
  6
CONTINUOUS
 62
    2
 10
1072.433749879408
 20
625.18176632391715
 11
1072.433749879408
 21
631.1817663239176
  0
LINE
  8
_0-0_計極細
  6
CONTINUOUS
 62
    2
 10
1077.433749879408
 20
617.1817663239176
 11
1077.433749879408
 21
611.18176632391737
  0
LINE
  8
_0-0_計極細
  6
CONTINUOUS
 62
    2
 10
1072.433749879408
 20
611.18176632391715
 11
1072.433749879408
 21
617.1817663239176
  0
LINE
  8
_0-0_計極細
  6
CONTINUOUS
 62
    2
 10
1077.433749879408
 20
603.1817663239176
 11
1077.433749879408
 21
597.18176632391737
  0
LINE
  8
_0-0_計極細
  6
CONTINUOUS
 62
    2
 10
1072.433749879408
 20
597.18176632391715
 11
1072.433749879408
 21
603.1817663239176
  0
LINE
  8
_0-0_計極細
  6
CONTINUOUS
 62
    2
 10
1077.433749879408
 20
589.1817663239176
 11
1077.433749879408
 21
583.18176632391737
  0
LINE
  8
_0-0_計極細
  6
CONTINUOUS
 62
    2
 10
1072.433749879408
 20
583.18176632391715
 11
1072.433749879408
 21
589.1817663239176
  0
LINE
  8
_0-1_計細線
  6
CONTINUOUS
 62
    3
 10
478.43374987940797
 20
569.1817663239176
 11
478.43374987940797
 21
561.18176632391783
  0
LINE
  8
_0-1_計細線
  6
CONTINUOUS
 62
    3
 10
478.43374987940797
 20
561.18176632391783
 11
971.43374987940763
 21
561.18176632391783
  0
LINE
  8
_0-1_計細線
  6
CONTINUOUS
 62
    3
 10
971.43374987940763
 20
561.18176632391783
 11
971.43374987940763
 21
569.1817663239176
  0
LINE
  8
_0-1_計細線
  6
CONTINUOUS
 62
    3
 10
971.43374987940763
 20
569.1817663239176
 11
478.43374987940797
 21
569.1817663239176
  0
LINE
  8
_0-0_計極細
  6
CONTINUOUS
 62
    2
 10
577.43374987940797
 20
575.18176632391737
 11
577.43374987940797
 21
569.18176632391715
  0
LINE
  8
_0-0_計極細
  6
CONTINUOUS
 62
    2
 10
572.43374987940797
 20
569.18176632391692
 11
572.43374987940797
 21
575.18176632391737
  0
LINE
  8
_0-0_計極細
  6
CONTINUOUS
 62
    2
 10
677.43374987940797
 20
575.18176632391737
 11
677.43374987940797
 21
569.18176632391715
  0
LINE
  8
_0-0_計極細
  6
CONTINUOUS
 62
    2
 10
672.43374987940797
 20
569.18176632391692
 11
672.43374987940797
 21
575.18176632391737
  0
LINE
  8
_0-0_計極細
  6
CONTINUOUS
 62
    2
 10
777.43374987940751
 20
575.18176632391737
 11
777.43374987940751
 21
569.18176632391715
  0
LINE
  8
_0-0_計極細
  6
CONTINUOUS
 62
    2
 10
772.43374987940751
 20
569.18176632391692
 11
772.43374987940751
 21
575.18176632391737
  0
LINE
  8
_0-0_計極細
  6
CONTINUOUS
 62
    2
 10
877.43374987940751
 20
575.18176632391737
 11
877.43374987940751
 21
569.18176632391715
  0
LINE
  8
_0-0_計極細
  6
CONTINUOUS
 62
    2
 10
872.43374987940751
 20
569.18176632391692
 11
872.43374987940751
 21
575.18176632391737
  0
LINE
  8
_0-1_計細線
  6
CONTINUOUS
 62
    3
 10
478.43374987940797
 20
555.1817663239176
 11
478.43374987940797
 21
547.18176632391783
  0
LINE
  8
_0-1_計細線
  6
CONTINUOUS
 62
    3
 10
478.43374987940797
 20
547.18176632391783
 11
971.43374987940763
 21
547.18176632391783
  0
LINE
  8
_0-1_計細線
  6
CONTINUOUS
 62
    3
 10
971.43374987940763
 20
547.18176632391783
 11
971.43374987940763
 21
555.1817663239176
  0
LINE
  8
_0-1_計細線
  6
CONTINUOUS
 62
    3
 10
971.43374987940763
 20
555.1817663239176
 11
478.43374987940797
 21
555.1817663239176
  0
LINE
  8
_0-0_計極細
  6
CONTINUOUS
 62
    2
 10
577.43374987940797
 20
561.18176632391737
 11
577.43374987940797
 21
555.18176632391715
  0
LINE
  8
_0-0_計極細
  6
CONTINUOUS
 62
    2
 10
572.43374987940797
 20
555.18176632391692
 11
572.43374987940797
 21
561.18176632391737
  0
LINE
  8
_0-0_計極細
  6
CONTINUOUS
 62
    2
 10
677.43374987940797
 20
561.18176632391737
 11
677.43374987940797
 21
555.18176632391715
  0
LINE
  8
_0-0_計極細
  6
CONTINUOUS
 62
    2
 10
672.43374987940797
 20
555.18176632391692
 11
672.43374987940797
 21
561.18176632391737
  0
LINE
  8
_0-0_計極細
  6
CONTINUOUS
 62
    2
 10
777.43374987940751
 20
561.18176632391737
 11
777.43374987940751
 21
555.18176632391715
  0
LINE
  8
_0-0_計極細
  6
CONTINUOUS
 62
    2
 10
772.43374987940751
 20
555.18176632391692
 11
772.43374987940751
 21
561.18176632391737
  0
LINE
  8
_0-0_計極細
  6
CONTINUOUS
 62
    2
 10
877.43374987940751
 20
561.18176632391737
 11
877.43374987940751
 21
555.18176632391715
  0
LINE
  8
_0-0_計極細
  6
CONTINUOUS
 62
    2
 10
872.43374987940751
 20
555.18176632391692
 11
872.43374987940751
 21
561.18176632391737
  0
LINE
  8
_0-1_計細線
  6
CONTINUOUS
 62
    3
 10
478.43374987940797
 20
541.1817663239176
 11
478.43374987940797
 21
533.18176632391783
  0
LINE
  8
_0-1_計細線
  6
CONTINUOUS
 62
    3
 10
478.43374987940797
 20
533.18176632391783
 11
971.43374987940763
 21
533.18176632391783
  0
LINE
  8
_0-1_計細線
  6
CONTINUOUS
 62
    3
 10
971.43374987940763
 20
533.18176632391783
 11
971.43374987940763
 21
541.1817663239176
  0
LINE
  8
_0-1_計細線
  6
CONTINUOUS
 62
    3
 10
971.43374987940763
 20
541.1817663239176
 11
478.43374987940797
 21
541.1817663239176
  0
LINE
  8
_0-0_計極細
  6
CONTINUOUS
 62
    2
 10
577.43374987940797
 20
547.18176632391737
 11
577.43374987940797
 21
541.18176632391715
  0
LINE
  8
_0-0_計極細
  6
CONTINUOUS
 62
    2
 10
572.43374987940797
 20
541.18176632391692
 11
572.43374987940797
 21
547.18176632391737
  0
LINE
  8
_0-0_計極細
  6
CONTINUOUS
 62
    2
 10
677.43374987940797
 20
547.18176632391737
 11
677.43374987940797
 21
541.18176632391715
  0
LINE
  8
_0-0_計極細
  6
CONTINUOUS
 62
    2
 10
672.43374987940797
 20
541.18176632391692
 11
672.43374987940797
 21
547.18176632391737
  0
LINE
  8
_0-0_計極細
  6
CONTINUOUS
 62
    2
 10
777.43374987940751
 20
547.18176632391737
 11
777.43374987940751
 21
541.18176632391715
  0
LINE
  8
_0-0_計極細
  6
CONTINUOUS
 62
    2
 10
772.43374987940751
 20
541.18176632391692
 11
772.43374987940751
 21
547.18176632391737
  0
LINE
  8
_0-0_計極細
  6
CONTINUOUS
 62
    2
 10
877.43374987940751
 20
547.18176632391737
 11
877.43374987940751
 21
541.18176632391715
  0
LINE
  8
_0-0_計極細
  6
CONTINUOUS
 62
    2
 10
872.43374987940751
 20
541.18176632391692
 11
872.43374987940751
 21
547.18176632391737
  0
LINE
  8
_0-0_計極細
  6
CONTINUOUS
 62
    2
 10
377.43374987940751
 20
575.18176632391737
 11
377.43374987940751
 21
569.18176632391715
  0
LINE
  8
_0-0_計極細
  6
CONTINUOUS
 62
    2
 10
372.43374987940751
 20
569.18176632391692
 11
372.43374987940751
 21
575.18176632391737
  0
LINE
  8
_0-0_計極細
  6
CONTINUOUS
 62
    2
 10
377.43374987940751
 20
561.18176632391737
 11
377.43374987940751
 21
555.18176632391715
  0
LINE
  8
_0-0_計極細
  6
CONTINUOUS
 62
    2
 10
372.43374987940751
 20
555.18176632391692
 11
372.43374987940751
 21
561.18176632391737
  0
LINE
  8
_0-0_計極細
  6
CONTINUOUS
 62
    2
 10
377.43374987940751
 20
547.18176632391737
 11
377.43374987940751
 21
541.18176632391715
  0
LINE
  8
_0-0_計極細
  6
CONTINUOUS
 62
    2
 10
372.43374987940751
 20
541.18176632391692
 11
372.43374987940751
 21
547.18176632391737
  0
LINE
  8
_0-1_計細線
  6
CONTINUOUS
 62
    3
 10
471.43374987940803
 20
533.18176632391783
 11
324.8953908714725
 21
533.18176632391783
  0
LINE
  8
_0-0_計極細
  6
CONTINUOUS
 62
    2
 10
1077.433749879408
 20
575.1817663239176
 11
1077.433749879408
 21
569.18176632391737
  0
LINE
  8
_0-0_計極細
  6
CONTINUOUS
 62
    2
 10
1072.433749879408
 20
569.18176632391715
 11
1072.433749879408
 21
575.1817663239176
  0
LINE
  8
_0-0_計極細
  6
CONTINUOUS
 62
    2
 10
1077.433749879408
 20
561.1817663239176
 11
1077.433749879408
 21
555.18176632391737
  0
LINE
  8
_0-0_計極細
  6
CONTINUOUS
 62
    2
 10
1072.433749879408
 20
555.18176632391715
 11
1072.433749879408
 21
561.1817663239176
  0
LINE
  8
_0-0_計極細
  6
CONTINUOUS
 62
    2
 10
1077.433749879408
 20
547.1817663239176
 11
1077.433749879408
 21
541.18176632391737
  0
LINE
  8
_0-0_計極細
  6
CONTINUOUS
 62
    2
 10
1072.433749879408
 20
541.18176632391715
 11
1072.433749879408
 21
547.1817663239176
  0
LINE
  8
_0-1_計細線
  6
CONTINUOUS
 62
    3
 10
978.43374987940763
 20
533.18176632391805
 11
1124.9988901857396
 21
533.18176632391805
  0
LINE
  8
_0-1_計細線
  6
CONTINUOUS
 62
    3
 10
471.43374987940803
 20
771.18176632391794
 11
323.39711783218581
 21
771.18176632391794
  0
LINE
  8
_0-1_計細線
  6
CONTINUOUS
 62
    3
 10
322.28341315384978
 20
765.1817663239176
 11
471.43374987940803
 21
765.1817663239176
  0
LINE
  8
_0-1_計細線
  6
CONTINUOUS
 62
    3
 10
471.43374987940803
 20
757.18176632391783
 11
320.89949287423906
 21
757.18176632391783
  0
LINE
  8
_0-1_計細線
  6
CONTINUOUS
 62
    3
 10
284.93374987940842
 20
754.1817663239176
 11
320.42987559976063
 21
754.1817663239176
  0
LINE
  8
_0-1_計細線
  6
CONTINUOUS
 62
    3
 10
319.97838268474652
 20
751.18176632391783
 11
471.43374987940803
 21
751.18176632391783
  0
LINE
  8
_0-1_計細線
  6
CONTINUOUS
 62
    3
 10
471.43374987940803
 20
743.18176632391828
 11
318.94065395026928
 21
743.18176632391828
  0
LINE
  8
_0-1_計細線
  6
CONTINUOUS
 62
    3
 10
318.33689901303302
 20
737.18176632391783
 11
471.43374987940803
 21
737.18176632391783
  0
LINE
  8
_0-1_計細線
  6
CONTINUOUS
 62
    3
 10
471.43374987940803
 20
729.18176632391805
 11
317.81285271330989
 21
729.18176632391805
  0
LINE
  8
_0-1_計細線
  6
CONTINUOUS
 62
    3
 10
317.65881831852948
 20
723.18176632391783
 11
471.43374987940803
 21
723.18176632391783
  0
LINE
  8
_0-1_計細線
  6
CONTINUOUS
 62
    3
 10
471.43374987940803
 20
715.18176632391817
 11
317.80684306712237
 21
715.18176632391817
  0
LINE
  8
_0-1_計細線
  6
CONTINUOUS
 62
    3
 10
318.168482475769
 20
709.1817663239176
 11
471.43374987940803
 21
709.1817663239176
  0
LINE
  8
_0-1_計細線
  6
CONTINUOUS
 62
    3
 10
319.71097904225826
 20
695.1817663239176
 11
471.43374987940803
 21
695.1817663239176
  0
LINE
  8
_0-1_計細線
  6
CONTINUOUS
 62
    3
 10
471.43374987940803
 20
687.18176632391783
 11
320.93828032818061
 21
687.18176632391783
  0
LINE
  8
_0-1_計細線
  6
CONTINUOUS
 62
    3
 10
471.43374987940803
 20
673.18176632391783
 11
323.49041989907846
 21
673.18176632391783
  0
LINE
  8
_0-1_計細線
  6
CONTINUOUS
 62
    3
 10
321.97606532332202
 20
681.1817663239176
 11
471.43374987940803
 21
681.1817663239176
  0
LINE
  8
_0-1_計細線
  6
CONTINUOUS
 62
    3
 10
324.69112444604207
 20
667.1817663239176
 11
471.43374987940803
 21
667.1817663239176
  0
LINE
  8
_0-1_計細線
  6
CONTINUOUS
 62
    3
 10
471.43374987940803
 20
659.18176632391794
 11
326.34710496024582
 21
659.18176632391794
  0
LINE
  8
_0-1_計細線
  6
CONTINUOUS
 62
    3
 10
327.55540237424248
 20
653.18176632391771
 11
471.43374987940803
 21
653.18176632391771
  0
LINE
  8
_0-1_計細線
  6
CONTINUOUS
 62
    3
 10
471.43374987940803
 20
645.18176632391783
 11
329.07432786828218
 21
645.18176632391783
  0
LINE
  8
_0-1_計細線
  6
CONTINUOUS
 62
    3
 10
330.16078748904965
 20
639.1817663239176
 11
471.43374987940803
 21
639.1817663239176
  0
LINE
  8
_0-1_計細線
  6
CONTINUOUS
 62
    3
 10
471.43374987940803
 20
631.18176632391783
 11
331.47918688279242
 21
631.18176632391783
  0
LINE
  8
_0-1_計細線
  6
CONTINUOUS
 62
    3
 10
332.34824576262463
 20
625.1817663239176
 11
471.43374987940803
 21
625.1817663239176
  0
LINE
  8
_0-1_計細線
  6
CONTINUOUS
 62
    3
 10
471.43374987940803
 20
617.18176632391783
 11
333.28432865022614
 21
617.18176632391783
  0
LINE
  8
_0-1_計細線
  6
CONTINUOUS
 62
    3
 10
333.80320427149309
 20
611.1817663239176
 11
471.43374987940803
 21
611.1817663239176
  0
LINE
  8
_0-1_計細線
  6
CONTINUOUS
 62
    3
 10
471.43374987940803
 20
603.18176632391783
 11
334.19818045127067
 21
603.18176632391783
  0
LINE
  8
_0-1_計細線
  6
CONTINUOUS
 62
    3
 10
334.2433856539119
 20
597.1817663239176
 11
471.43374987940803
 21
597.1817663239176
  0
LINE
  8
_0-1_計細線
  6
CONTINUOUS
 62
    3
 10
471.43374987940803
 20
589.18176632391783
 11
333.94414600977007
 21
589.18176632391783
  0
LINE
  8
_0-1_計細線
  6
CONTINUOUS
 62
    3
 10
333.48265916547189
 20
583.1817663239176
 11
471.43374987940803
 21
583.1817663239176
  0
LINE
  8
_0-1_計細線
  6
CONTINUOUS
 62
    3
 10
471.43374987940803
 20
575.18176632391783
 11
332.5926041255093
 21
575.18176632391783
  0
LINE
  8
_0-1_計細線
  6
CONTINUOUS
 62
    3
 10
331.76038048448669
 20
569.1817663239176
 11
471.43374987940803
 21
569.1817663239176
  0
LINE
  8
_0-1_計細線
  6
CONTINUOUS
 62
    3
 10
471.43374987940803
 20
561.18176632391783
 11
330.46373096194338
 21
561.18176632391783
  0
LINE
  8
_0-1_計細線
  6
CONTINUOUS
 62
    3
 10
329.37801162324786
 20
555.1817663239176
 11
471.43374987940803
 21
555.1817663239176
  0
LINE
  8
_0-1_計細線
  6
CONTINUOUS
 62
    3
 10
471.43374987940803
 20
547.18176632391783
 11
327.82557700086954
 21
547.18176632391783
  0
LINE
  8
_0-1_計細線
  6
CONTINUOUS
 62
    3
 10
326.60164208990591
 20
541.1817663239176
 11
471.43374987940803
 21
541.1817663239176
  0
LINE
  8
_0-1_計細線
  6
CONTINUOUS
 62
    3
 10
978.43374987940763
 20
771.18176632391805
 11
1126.4703819266297
 21
771.18176632391805
  0
LINE
  8
_0-1_計細線
  6
CONTINUOUS
 62
    3
 10
1127.5840866049653
 20
765.18176632391783
 11
978.43374987940763
 21
765.18176632391783
  0
LINE
  8
_0-1_計細線
  6
CONTINUOUS
 62
    3
 10
978.43374987940763
 20
757.18176632391805
 11
1128.9680068845764
 21
757.18176632391805
  0
LINE
  8
_0-1_計細線
  6
CONTINUOUS
 62
    3
 10
1129.8891170740685
 20
751.18176632391805
 11
978.43374987940763
 21
751.18176632391805
  0
LINE
  8
_0-1_計細線
  6
CONTINUOUS
 62
    3
 10
978.43374987940763
 20
743.18176632391851
 11
1130.9268458085462
 21
743.18176632391851
  0
LINE
  8
_0-1_計細線
  6
CONTINUOUS
 62
    3
 10
1131.5306007457825
 20
737.18176632391805
 11
978.43374987940763
 21
737.18176632391805
  0
LINE
  8
_0-1_計細線
  6
CONTINUOUS
 62
    3
 10
978.43374987940763
 20
729.18176632391828
 11
1132.054647045506
 21
729.18176632391828
  0
LINE
  8
_0-1_計細線
  6
CONTINUOUS
 62
    3
 10
1132.208681440286
 20
723.18176632391805
 11
978.43374987940763
 21
723.18176632391805
  0
LINE
  8
_0-1_計細線
  6
CONTINUOUS
 62
    3
 10
978.43374987940763
 20
715.18176632391828
 11
1132.0606566916936
 21
715.18176632391828
  0
LINE
  8
_0-1_計細線
  6
CONTINUOUS
 62
    3
 10
1131.6990172830469
 20
709.18176632391794
 11
978.43374987940763
 21
709.18176632391794
  0
LINE
  8
_0-1_計細線
  6
CONTINUOUS
 62
    3
 10
978.43374987940763
 20
701.18176632391805
 11
1130.9245755673696
 21
701.18176632391805
  0
LINE
  8
_0-1_計細線
  6
CONTINUOUS
 62
    3
 10
1130.1565207165572
 20
695.18176632391783
 11
978.43374987940763
 21
695.18176632391783
  0
LINE
  8
_0-1_計細線
  6
CONTINUOUS
 62
    3
 10
978.43374987940763
 20
687.18176632391805
 11
1128.9292194306349
 21
687.18176632391805
  0
LINE
  8
_0-1_計細線
  6
CONTINUOUS
 62
    3
 10
1127.8914344354935
 20
681.18176632391783
 11
978.43374987940763
 21
681.18176632391783
  0
LINE
  8
_0-1_計細線
  6
CONTINUOUS
 62
    3
 10
978.43374987940763
 20
673.18176632391805
 11
1126.377079859737
 21
673.18176632391805
  0
LINE
  8
_0-1_計細線
  6
CONTINUOUS
 62
    3
 10
1125.1763753127739
 20
667.18176632391783
 11
978.43374987940763
 21
667.18176632391783
  0
LINE
  8
_0-1_計細線
  6
CONTINUOUS
 62
    3
 10
978.43374987940763
 20
659.18176632391805
 11
1123.5203947985697
 21
659.18176632391805
  0
LINE
  8
_0-1_計細線
  6
CONTINUOUS
 62
    3
 10
1122.312097384573
 20
653.18176632391783
 11
978.43374987940763
 21
653.18176632391783
  0
LINE
  8
_0-1_計細線
  6
CONTINUOUS
 62
    3
 10
978.43374987940763
 20
645.18176632391817
 11
1120.7931718905334
 21
645.18176632391817
  0
LINE
  8
_0-1_計細線
  6
CONTINUOUS
 62
    3
 10
1119.7067122697658
 20
639.18176632391783
 11
978.43374987940763
 21
639.18176632391783
  0
LINE
  8
_0-1_計細線
  6
CONTINUOUS
 62
    3
 10
978.43374987940763
 20
631.18176632391805
 11
1118.3883128760231
 21
631.18176632391805
  0
LINE
  8
_0-1_計細線
  6
CONTINUOUS
 62
    3
 10
1117.5192539961913
 20
625.18176632391783
 11
978.43374987940763
 21
625.18176632391783
  0
LINE
  8
_0-1_計細線
  6
CONTINUOUS
 62
    3
 10
978.43374987940763
 20
617.18176632391805
 11
1116.5831711085898
 21
617.18176632391805
  0
LINE
  8
_0-1_計細線
  6
CONTINUOUS
 62
    3
 10
978.43374987940763
 20
603.18176632391805
 11
1115.6693193075448
 21
603.18176632391805
  0
LINE
  8
_0-1_計細線
  6
CONTINUOUS
 62
    3
 10
1116.0642954873224
 20
611.18176632391783
 11
978.43374987940763
 21
611.18176632391783
  0
LINE
  8
_0-1_計細線
  6
CONTINUOUS
 62
    3
 10
1115.6241141049036
 20
597.18176632391783
 11
978.43374987940763
 21
597.18176632391783
  0
LINE
  8
_0-1_計細線
  6
CONTINUOUS
 62
    3
 10
978.43374987940763
 20
589.18176632391805
 11
1115.923353749045
 21
589.18176632391805
  0
LINE
  8
_0-1_計細線
  6
CONTINUOUS
 62
    3
 10
1116.3848405933436
 20
583.18176632391783
 11
978.43374987940763
 21
583.18176632391783
  0
LINE
  8
_0-1_計細線
  6
CONTINUOUS
 62
    3
 10
978.43374987940763
 20
575.18176632391805
 11
1117.2748956333066
 21
575.18176632391805
  0
LINE
  8
_0-1_計細線
  6
CONTINUOUS
 62
    3
 10
1118.1071192743289
 20
569.18176632391783
 11
978.43374987940763
 21
569.18176632391783
  0
LINE
  8
_0-1_計細線
  6
CONTINUOUS
 62
    3
 10
978.43374987940763
 20
561.18176632391805
 11
1119.4037687968726
 21
561.18176632391805
  0
LINE
  8
_0-1_計細線
  6
CONTINUOUS
 62
    3
 10
1120.4894881355676
 20
555.18176632391783
 11
978.43374987940763
 21
555.18176632391783
  0
LINE
  8
_0-1_計細線
  6
CONTINUOUS
 62
    3
 10
978.43374987940763
 20
547.18176632391805
 11
1122.0419227579464
 21
547.18176632391805
  0
LINE
  8
_0-1_計細線
  6
CONTINUOUS
 62
    3
 10
1123.2658576689096
 20
541.18176632391783
 11
978.43374987940763
 21
541.18176632391783
  0
LINE
  8
_0-5_寸法線
  6
CONTINUOUS
 62
    7
 10
791.50540582053009
 20
593.12368614015122
 11
795.99260136324551
 21
584.18695988489219
  0
LINE
  8
_0-5_寸法線
  6
CONTINUOUS
 62
    7
 10
791.50540582053009
 20
593.12368614015122
 11
790.92306802464032
 21
583.14065640507192
  0
LINE
  8
_0-5_寸法線
  6
CONTINUOUS
 62
    7
 10
791.50540582053009
 20
593.12368614015122
 11
813.27081860877342
 21
487.66624679621327
  0
LINE
  8
_0-5_寸法線
  6
CONTINUOUS
 62
    7
 10
813.27081860877342
 20
487.66624679621327
 11
945.6684910445357
 21
487.66624679621327
  0
TEXT
  8
_0-5_寸法線
 62
    7
 10
813.66849104453559
 20
487.66624679621327
 40
15
 41
0.8000000000000001
 50
0
  1
ステンレスグレーチング
  0
TEXT
  8
_0-5_寸法線
 62
    7
 10
593.67073227434912
 20
472.66624679621327
 40
15
 41
0.8000000000000001
 50
0
  1
ＧＳＬ－１５
  0
TEXT
  8
_0-5_寸法線
 62
    7
 10
813.27081860877342
 20
472.66624679621327
 40
15
 41
0.8000000000000001
 50
0
  1
ＧＳＴ－１５Ｗ２４６
  0
TEXT
  8
_0-7_枠細線
 62
    5
 10
965.50000000000011
 20
110.00000000000043
 40
20
 41
0.6
 50
0
  1
ＧＳＴ－１５Ｗ２４６
  0
TEXT
  8
_0-7_枠細線
 62
    5
 10
965.50000000000011
 20
150.00000000000043
 40
20
 41
0.5
 50
0
  1
Ｔバー ステンレスグレーチング Ｈ１５タイプ
  0
TEXT
  8
_0-7_枠細線
 62
    5
 10
965.49999999999966
 20
70.000000000000426
 40
20.000000000000004
 41
0.5999999999999997
 50
0
  1
表面形状については記号表参照のこと
  0
LINE
  8
_0-7_枠細線
  6
CONTINUOUS
 62
    5
 10
1409.4018171150183
 20
328.47321710336183
 11
1409.4018171150183
 21
223.47321710336232
  0
TEXT
  8
_0-7_枠細線
 62
    5
 10
1318.4018171150192
 20
308.47321710336183
 40
15.000000000000002
 41
0.8
 50
0
  1
ノンスリップ
  0
TEXT
  8
_0-7_枠細線
 62
    5
 10
1330.4018171150185
 20
283.47321710336189
 40
15.000000000000002
 41
0.8
 50
0
  1
品番－Ｄ
  0
LINE
  8
_0-7_枠細線
  6
CONTINUOUS
 62
    5
 10
1299.4018171150178
 20
328.47321710336183
 11
1299.4018171150178
 21
223.47321710336232
  0
TEXT
  8
_0-7_枠細線
 62
    5
 10
1220.4018171150178
 20
308.47321710336195
 40
15.000000000000002
 41
0.8
 50
0
  1
プレーン
  0
TEXT
  8
_0-7_枠細線
 62
    5
 10
1220.4018171150185
 20
283.47321710336189
 40
15.000000000000002
 41
0.8
 50
0
  1
品番－Ｆ
  0
TEXT
  8
_0-7_枠細線
 62
    5
 10
1140.4018171150183
 20
308.47321710336183
 40
15.000000000000002
 41
0.8
 50
0
  1
タ イ プ
  0
LINE
  8
_0-7_枠細線
  6
CONTINUOUS
 62
    5
 10
1139.4018171150174
 20
278.47321710336189
 11
1409.4018171150183
 21
278.47321710336189
  0
LINE
  8
_0-7_枠細線
  6
CONTINUOUS
 62
    5
 10
1139.4018171150174
 20
303.47321710336183
 11
1409.4018171150183
 21
303.47321710336183
  0
LINE
  8
_0-7_枠細線
  6
CONTINUOUS
 62
    5
 10
1139.4018171150174
 20
328.47321710336183
 11
1409.4018171150183
 21
328.47321710336183
  0
LINE
  8
_0-7_枠細線
  6
CONTINUOUS
 62
    5
 10
1139.4018171150174
 20
223.47321710336232
 11
1409.4018171150183
 21
223.47321710336232
  0
LINE
  8
_0-7_枠細線
  6
CONTINUOUS
 62
    5
 10
1189.4018171150183
 20
328.47321710336183
 11
1189.4018171150183
 21
223.47321710336232
  0
LINE
  8
_0-7_枠細線
  6
CONTINUOUS
 62
    5
 10
1139.4018171150174
 20
328.47321710336183
 11
1139.4018171150174
 21
223.47321710336232
  0
TEXT
  8
_0-7_枠細線
 62
    5
 10
1140.4018171150183
 20
243.47321710336212
 40
15.000000000000002
 41
0.8
 50
0
  1
表面形状
  0
TEXT
  8
_0-7_枠細線
 62
    5
 10
1147.1760284558286
 20
330.97321710336195
 40
17.500000000000004
 41
0.7999999999999996
 50
0
  1
記号表
  0
TEXT
  8
_0-7_枠細線
 62
    5
 10
1140.4018171150183
 20
283.473217103362
 40
15.000000000000002
 41
0.8
 50
0
  1
記　　号
  0
ARC
  8
_0-7_枠細線
  6
CONTINUOUS
 62
    5
 10
1282.9664605906703
 20
242.85777402966852
 40
12.026499332130607
 50
317.5616290000047
 51
42.438370999994966
  0
ARC
  8
_0-7_枠細線
  6
CONTINUOUS
 62
    5
 10
1300.7176602555628
 20
259.08866002804564
 40
12.026499332130607
 50
137.56162900000001
 51
222.43837100000297
  0
ARC
  8
_0-7_枠細線
  6
CONTINUOUS
 62
    5
 10
1188.0859738141417
 20
242.85777402966852
 40
12.026499332130607
 50
317.5616290000047
 51
42.438370999994966
  0
ARC
  8
_0-7_枠細線
  6
CONTINUOUS
 62
    5
 10
1205.8371734790342
 20
259.08866002804564
 40
12.026499332130607
 50
137.56162900000001
 51
222.43837100000297
  0
LINE
  8
_0-7_枠細線
  6
CONTINUOUS
 62
    5
 10
1194.4553061852557
 20
262.97321702885688
 11
1289.3357929617841
 21
262.97321702885688
  0
LINE
  8
_0-7_枠細線
  6
CONTINUOUS
 62
    5
 10
1294.3483278844485
 20
238.97321702885691
 11
1199.4678411079201
 21
238.97321702885691
  0
ARC
  8
_0-7_枠細線
  6
CONTINUOUS
 62
    5
 10
1392.966460590671
 20
242.85777402966852
 40
12.026499332130607
 50
317.5616290000047
 51
42.438370999994966
  0
ARC
  8
_0-7_枠細線
  6
CONTINUOUS
 62
    5
 10
1410.7176602555635
 20
259.08866002804564
 40
12.026499332130607
 50
137.56162900000001
 51
222.43837100000297
  0
ARC
  8
_0-7_枠細線
  6
CONTINUOUS
 62
    5
 10
1298.0859738141421
 20
242.85777402966852
 40
12.026499332130607
 50
317.5616290000047
 51
42.438370999994966
  0
ARC
  8
_0-7_枠細線
  6
CONTINUOUS
 62
    5
 10
1315.8371734790348
 20
259.08866002804564
 40
12.026499332130607
 50
137.56162900000001
 51
222.43837100000297
  0
LINE
  8
_0-7_枠細線
  6
CONTINUOUS
 62
    5
 10
1304.4553061852562
 20
262.97321702885688
 11
1399.3357929617846
 21
262.97321702885688
  0
LINE
  8
_0-7_枠細線
  6
CONTINUOUS
 62
    5
 10
1404.3483278844492
 20
238.97321702885691
 11
1309.4678411079208
 21
238.97321702885691
  0
LINE
  8
_0-7_枠細線
  6
CONTINUOUS
 62
    5
 10
1310.0055655050667
 20
244.45778031321171
 11
1315.4901287894213
 21
238.97321702885705
  0
LINE
  8
_0-7_枠細線
  6
CONTINUOUS
 62
    5
 10
1304.3960893257238
 20
262.79517855391259
 11
1328.218050850779
 21
238.97321702885705
  0
LINE
  8
_0-7_枠細線
  6
CONTINUOUS
 62
    5
 10
1316.9459729121372
 20
262.97321702885705
 11
1340.9459729121368
 21
238.97321702885702
  0
LINE
  8
_0-7_枠細線
  6
CONTINUOUS
 62
    5
 10
1329.6738949734947
 20
262.97321702885699
 11
1353.6738949734945
 21
238.97321702885702
  0
LINE
  8
_0-7_枠細線
  6
CONTINUOUS
 62
    5
 10
1342.4018170348527
 20
262.97321702885699
 11
1366.4018170348525
 21
238.97321702885699
  0
LINE
  8
_0-7_枠細線
  6
CONTINUOUS
 62
    5
 10
1355.1297390962102
 20
262.97321702885699
 11
1379.12973909621
 21
238.97321702885694
  0
LINE
  8
_0-7_枠細線
  6
CONTINUOUS
 62
    5
 10
1367.8576611575681
 20
262.97321702885699
 11
1391.8576611575677
 21
238.97321702885694
  0
LINE
  8
_0-7_枠細線
  6
CONTINUOUS
 62
    5
 10
1380.5855832189261
 20
262.97321702885699
 11
1404.4075447439814
 21
239.151255503801
  0
LINE
  8
_0-7_枠細線
  6
CONTINUOUS
 62
    5
 10
1393.3135052802836
 20
262.97321702885688
 11
1398.7980685646389
 21
257.48865374450162
  0
LINE
  8
_0-7_枠細線
  6
CONTINUOUS
 62
    5
 10
1393.3135052802843
 20
238.97321702885694
 11
1403.3188705607763
 21
248.97858230934887
  0
LINE
  8
_0-7_枠細線
  6
CONTINUOUS
 62
    5
 10
1380.5855832189263
 20
238.97321702885694
 11
1398.8365633238182
 21
257.22419713374859
  0
LINE
  8
_0-7_枠細線
  6
CONTINUOUS
 62
    5
 10
1367.8576611575684
 20
238.97321702885699
 11
1391.8576611575686
 21
262.97321702885688
  0
LINE
  8
_0-7_枠細線
  6
CONTINUOUS
 62
    5
 10
1355.1297390962109
 20
238.97321702885702
 11
1379.1297390962106
 21
262.97321702885699
  0
LINE
  8
_0-7_枠細線
  6
CONTINUOUS
 62
    5
 10
1342.4018170348527
 20
238.97321702885702
 11
1366.4018170348527
 21
262.97321702885699
  0
LINE
  8
_0-7_枠細線
  6
CONTINUOUS
 62
    5
 10
1329.673894973495
 20
238.97321702885705
 11
1353.673894973495
 21
262.97321702885699
  0
LINE
  8
_0-7_枠細線
  6
CONTINUOUS
 62
    5
 10
1316.9459729121374
 20
238.97321702885705
 11
1340.9459729121372
 21
262.97321702885699
  0
LINE
  8
_0-7_枠細線
  6
CONTINUOUS
 62
    5
 10
1309.9670707458877
 20
244.72223692396523
 11
1328.2180508507793
 21
262.97321702885699
  0
LINE
  8
_0-7_枠細線
  6
CONTINUOUS
 62
    5
 10
1305.4847635089297
 20
252.96785174836509
 11
1315.4901287894218
 21
262.97321702885705
  0
LINE
  8
_0-a_極細3
  6
CONTINUOUS
 62
    7
 10
687.5973264368389
 20
256.56810602460087
 11
683.76399310350553
 21
256.56810602460087
  0
LINE
  8
_0-a_極細3
  6
CONTINUOUS
 62
    7
 10
687.5973264368389
 20
259.90143935793429
 11
683.76399310350553
 21
259.90143935793429
  0
LINE
  8
_0-a_極細3
  6
CONTINUOUS
 62
    7
 10
687.5973264368389
 20
253.23477269126755
 11
683.76399310350553
 21
253.23477269126755
  0
LINE
  8
_0-a_極細3
  6
CONTINUOUS
 62
    7
 10
687.5973264368389
 20
263.23477269126755
 11
683.76399310350553
 21
263.23477269126755
  0
LINE
  8
_0-a_極細3
  6
CONTINUOUS
 62
    7
 10
683.76399310350553
 20
229.90143935793429
 11
687.5973264368389
 21
229.90143935793429
  0
LINE
  8
_0-a_極細3
  6
CONTINUOUS
 62
    7
 10
687.5973264368389
 20
279.90143935793429
 11
683.76399310350553
 21
279.90143935793429
  0
LINE
  8
_0-b_細線3
  6
CONTINUOUS
 62
    7
 10
683.76399310350553
 20
283.23477269126755
 11
683.76399310350553
 21
224.90143935793429
  0
LINE
  8
_0-b_細線3
  6
CONTINUOUS
 62
    7
 10
683.76399310350553
 20
224.90143935793429
 11
687.5973264368389
 21
224.90143935793429
  0
LINE
  8
_0-b_細線3
  6
CONTINUOUS
 62
    7
 10
687.5973264368389
 20
224.90143935793429
 11
687.5973264368389
 21
283.23477269126755
  0
LINE
  8
_0-b_細線3
  6
CONTINUOUS
 62
    7
 10
687.5973264368389
 20
283.23477269126755
 11
683.76399310350553
 21
283.23477269126755
  0
LINE
  8
_0-7_枠細線
  6
CONTINUOUS
 62
    5
 10
706.68319453007837
 20
260.96352268742157
 11
699.18319453007837
 21
275.96352268742157
  0
LINE
  8
_0-7_枠細線
  6
CONTINUOUS
 62
    5
 10
691.68319453007837
 20
260.96352268742157
 11
706.68319453007837
 21
260.96352268742157
  0
LINE
  8
_0-7_枠細線
  6
CONTINUOUS
 62
    5
 10
699.18319453007837
 20
275.96352268742157
 11
691.68319453007837
 21
260.96352268742157
  0
TEXT
  8
_0-7_枠細線
 62
    5
 10
694.04834579822648
 20
260.65652044204103
 40
12.5
 41
0.8
 50
0
  1
１
  0
LINE
  8
_0-a_極細3
  6
CONTINUOUS
 62
    7
 10
253.26399310350524
 20
256.56810602460087
 11
257.0973264368385
 21
256.56810602460087
  0
LINE
  8
_0-a_極細3
  6
CONTINUOUS
 62
    7
 10
253.26399310350524
 20
259.90143935793429
 11
257.0973264368385
 21
259.90143935793429
  0
LINE
  8
_0-a_極細3
  6
CONTINUOUS
 62
    7
 10
253.26399310350524
 20
253.23477269126755
 11
257.0973264368385
 21
253.23477269126755
  0
LINE
  8
_0-a_極細3
  6
CONTINUOUS
 62
    7
 10
253.26399310350524
 20
263.23477269126755
 11
257.0973264368385
 21
263.23477269126755
  0
LINE
  8
_0-a_極細3
  6
CONTINUOUS
 62
    7
 10
257.0973264368385
 20
229.90143935793429
 11
253.26399310350524
 21
229.90143935793429
  0
LINE
  8
_0-a_極細3
  6
CONTINUOUS
 62
    7
 10
253.26399310350524
 20
279.90143935793429
 11
257.0973264368385
 21
279.90143935793429
  0
LINE
  8
_0-b_細線3
  6
CONTINUOUS
 62
    7
 10
257.0973264368385
 20
283.23477269126755
 11
257.0973264368385
 21
224.90143935793429
  0
LINE
  8
_0-b_細線3
  6
CONTINUOUS
 62
    7
 10
257.0973264368385
 20
224.90143935793429
 11
253.26399310350524
 21
224.90143935793429
  0
LINE
  8
_0-b_細線3
  6
CONTINUOUS
 62
    7
 10
253.26399310350524
 20
224.90143935793429
 11
253.26399310350524
 21
283.23477269126755
  0
LINE
  8
_0-b_細線3
  6
CONTINUOUS
 62
    7
 10
253.26399310350524
 20
283.23477269126755
 11
257.0973264368385
 21
283.23477269126755
  0
LINE
  8
_0-9_枠極太
  6
CONTINUOUS
 62
    5
 10
60
 20
60.000000000000426
 11
60
 21
960.00000000000057
  0
LINE
  8
_0-9_枠極太
  6
CONTINUOUS
 62
    5
 10
60
 20
960.00000000000057
 11
1425
 21
960.00000000000057
  0
LINE
  8
_0-9_枠極太
  6
CONTINUOUS
 62
    5
 10
1425
 20
960.00000000000057
 11
1425
 21
60.000000000000426
  0
LINE
  8
_0-9_枠極太
  6
CONTINUOUS
 62
    5
 10
1425
 20
60.000000000000426
 11
60
 21
60.000000000000426
  0
LINE
  8
_0-7_枠細線
  6
CONTINUOUS
 62
    5
 10
1425
 20
907.50000000000057
 11
890
 21
907.50000000000057
  0
LINE
  8
_0-7_枠細線
  6
CONTINUOUS
 62
    5
 10
915
 20
908.94233397174742
 11
907.5
 21
923.94233397174742
  0
LINE
  8
_0-7_枠細線
  6
CONTINUOUS
 62
    5
 10
900
 20
908.94233397174742
 11
915
 21
908.94233397174742
  0
LINE
  8
_0-7_枠細線
  6
CONTINUOUS
 62
    5
 10
907.5
 20
923.94233397174742
 11
900
 21
908.94233397174742
  0
TEXT
  8
_0-7_枠細線
 62
    5
 10
902.36515126814822
 20
908.63533172636699
 40
12.5
 41
0.8
 50
0
  1
１
  0
TEXT
  8
_0-7_枠細線
 62
    5
 10
1180
 20
910.00000000000057
 40
12.5
 41
0.7199999999999999
 50
0
  1
２０１９．０９．０１
  0
TEXT
  8
_0-7_枠細線
 62
    5
 10
938.85037037037023
 20
910.00000000000057
 40
12.500000000000002
 41
1
 50
0
  1
アンカー材質･厚み変更
  0
LINE
  8
_0-7_枠細線
  6
CONTINUOUS
 62
    5
 10
890
 20
907.50000000000057
 11
890
 21
959.99999999999955
  0
LINE
  8
_0-7_枠細線
  6
CONTINUOUS
 62
    5
 10
925
 20
907.50000000000057
 11
925
 21
959.99999999999989
  0
LINE
  8
_0-7_枠細線
  6
CONTINUOUS
 62
    5
 10
1175
 20
907.50000000000057
 11
1175
 21
959.99999999999989
  0
LINE
  8
_0-7_枠細線
  6
CONTINUOUS
 62
    5
 10
1275
 20
907.50000000000057
 11
1275
 21
959.99999999999989
  0
LINE
  8
_0-5_寸法線
  6
CONTINUOUS
 62
    7
 10
1176.9337498794107
 20
528.18176632391624
 11
1221.9337498794107
 21
528.18176632391601
  0
LINE
  8
_0-5_寸法線
  6
CONTINUOUS
 62
    7
 10
1216.9337498794107
 20
528.18176632391601
 11
1219.5219403304359
 21
518.52250806102529
  0
LINE
  8
_0-5_寸法線
  6
CONTINUOUS
 62
    7
 10
1216.9337498794107
 20
528.18176632391601
 11
1214.3455594283855
 21
518.52250806102529
  0
LINE
  8
_0-5_寸法線
  6
CONTINUOUS
 62
    7
 10
1176.9337498794107
 20
531.1817663239176
 11
1221.9337498794107
 21
531.1817663239176
  0
CIRCLE
  8
_0-5_寸法線
  6
CONTINUOUS
 62
    1
 10
1216.9337498794107
 20
531.1817663239176
 40
1.5000000000000002
  0
LINE
  8
_0-5_寸法線
  6
CONTINUOUS
 62
    7
 10
1216.9337498794107
 20
503.18176632391607
 11
1216.9337498794107
 21
531.1817663239176
  0
TEXT
  8
_0-5_寸法線
 62
    7
 10
1216.9337498794107
 20
506.981235281892
 40
15
 41
1
 50
90
  1
3
  0
LINE
  8
_0-5_寸法線
  6
CONTINUOUS
 62
    7
 10
1176.9337498794107
 20
533.18176632391737
 11
1221.9337498794107
 21
533.18176632391737
  0
LINE
  8
_0-5_寸法線
  6
CONTINUOUS
 62
    7
 10
1216.9337498794107
 20
531.1817663239176
 11
1216.9337498794107
 21
533.18176632391737
  0
TEXT
  8
_0-5_寸法線
 62
    7
 10
1234.7556146008164
 20
531.1817663239176
 40
15
 41
1
 50
90
  1
2
  0
LINE
  8
_0-5_寸法線
  6
CONTINUOUS
 62
    7
 10
1216.9337498794107
 20
533.18176632391737
 11
1214.3455594283855
 21
542.84102458680809
  0
LINE
  8
_0-5_寸法線
  6
CONTINUOUS
 62
    7
 10
1216.9337498794107
 20
533.18176632391737
 11
1219.5219403304359
 21
542.84102458680809
  0
LINE
  8
_0-5_寸法線
  6
CONTINUOUS
 62
    7
 10
1176.9337498794107
 20
779.18176632391749
 11
1221.9337498794107
 21
779.18176632391749
  0
LINE
  8
_0-5_寸法線
  6
CONTINUOUS
 62
    7
 10
1216.9337498794107
 20
779.18176632391749
 11
1219.5219403304359
 21
769.52250806102666
  0
LINE
  8
_0-5_寸法線
  6
CONTINUOUS
 62
    7
 10
1216.9337498794107
 20
779.18176632391749
 11
1214.3455594283855
 21
769.52250806102666
  0
LINE
  8
_0-5_寸法線
  6
CONTINUOUS
 62
    7
 10
1216.9337498794107
 20
533.18176632391737
 11
1216.9337498794107
 21
779.18176632391749
  0
TEXT
  8
_0-5_寸法線
 62
    7
 10
1216.9337498794107
 20
644.93176632391726
 40
15
 41
1
 50
90
  1
246
  0
LINE
  8
_0-5_寸法線
  6
CONTINUOUS
 62
    7
 10
1176.9337498794107
 20
781.1817663239176
 11
1221.9337498794107
 21
781.18176632391737
  0
CIRCLE
  8
_0-5_寸法線
  6
CONTINUOUS
 62
    1
 10
1216.9337498794107
 20
781.18176632391737
 40
1.5000000000000002
  0
LINE
  8
_0-5_寸法線
  6
CONTINUOUS
 62
    7
 10
1216.9337498794107
 20
779.18176632391749
 11
1216.9337498794107
 21
781.18176632391737
  0
TEXT
  8
_0-5_寸法線
 62
    7
 10
1234.3719835129973
 20
773.6817663239176
 40
15
 41
1
 50
90
  1
2
  0
LINE
  8
_0-5_寸法線
  6
CONTINUOUS
 62
    7
 10
1176.9337498794107
 20
784.18176632391635
 11
1221.9337498794107
 21
784.18176632391601
  0
LINE
  8
_0-5_寸法線
  6
CONTINUOUS
 62
    7
 10
1216.9337498794107
 20
784.18176632391601
 11
1214.3455594283855
 21
793.84102458680672
  0
LINE
  8
_0-5_寸法線
  6
CONTINUOUS
 62
    7
 10
1216.9337498794107
 20
784.18176632391601
 11
1219.5219403304359
 21
793.84102458680672
  0
LINE
  8
_0-5_寸法線
  6
CONTINUOUS
 62
    7
 10
1216.9337498794107
 20
781.18176632391737
 11
1216.9337498794107
 21
809.18176632391601
  0
TEXT
  8
_0-5_寸法線
 62
    7
 10
1216.9337498794107
 20
797.56910908161285
 40
15
 41
1
 50
90
  1
3
  0
LINE
  8
_0-d_寸法3
  6
CONTINUOUS
 62
    7
 10
257.0973264368385
 20
368.23477102292281
 11
247.43806817394784
 21
365.64658057189763
  0
LINE
  8
_0-d_寸法3
  6
CONTINUOUS
 62
    7
 10
257.0973264368385
 20
368.23477102292281
 11
247.43806817394784
 21
370.822961473948
  0
LINE
  8
_0-d_寸法3
  6
CONTINUOUS
 62
    7
 10
262.0973264368385
 20
297.40143935793407
 11
262.0973264368385
 21
373.23477102292281
  0
CIRCLE
  8
_0-d_寸法3
  6
CONTINUOUS
 62
    1
 10
262.0973264368385
 20
368.23477102292281
 40
1.5000000000000002
  0
LINE
  8
_0-d_寸法3
  6
CONTINUOUS
 62
    7
 10
232.0973264368385
 20
368.23477102292281
 11
262.0973264368385
 21
368.23477102292281
  0
TEXT
  8
_0-d_寸法3
 62
    7
 10
235.95265849291536
 20
368.23477102292281
 40
15
 41
1
 50
0
  1
3
  0
LINE
  8
_0-d_寸法3
  6
CONTINUOUS
 62
    7
 10
265.43065977017164
 20
294.90143768958973
 11
265.43065977017204
 21
373.23477102292281
  0
LINE
  8
_0-d_寸法3
  6
CONTINUOUS
 62
    7
 10
262.0973264368385
 20
368.23477102292281
 11
265.43065977017199
 21
368.23477102292281
  0
TEXT
  8
_0-d_寸法3
 62
    7
 10
260.01399310350507
 20
368.23477102292281
 40
15
 41
1
 50
0
  1
2
  0
LINE
  8
_0-d_寸法3
  6
CONTINUOUS
 62
    7
 10
265.43065977017199
 20
368.23477102292281
 11
275.08991803306265
 21
370.82296147394794
  0
LINE
  8
_0-d_寸法3
  6
CONTINUOUS
 62
    7
 10
265.43065977017199
 20
368.23477102292281
 11
275.08991803306265
 21
365.64658057189763
  0
LINE
  8
_0-d_寸法3
  6
CONTINUOUS
 62
    7
 10
675.43065977017204
 20
294.90143768958973
 11
675.43065977017204
 21
373.23477102292281
  0
LINE
  8
_0-d_寸法3
  6
CONTINUOUS
 62
    7
 10
675.43065977017204
 20
368.23477102292281
 11
665.77140150728144
 21
365.64658057189763
  0
LINE
  8
_0-d_寸法3
  6
CONTINUOUS
 62
    7
 10
675.43065977017204
 20
368.23477102292281
 11
665.77140150728144
 21
370.822961473948
  0
LINE
  8
_0-d_寸法3
  6
CONTINUOUS
 62
    7
 10
265.43065977017199
 20
368.23477102292281
 11
675.43065977017204
 21
368.23477102292281
  0
TEXT
  8
_0-d_寸法3
 62
    7
 10
459.18065977017199
 20
368.23477102292281
 40
15
 41
1
 50
0
  1
246
  0
LINE
  8
_0-d_寸法3
  6
CONTINUOUS
 62
    7
 10
678.76399310350507
 20
297.40143935793407
 11
678.76399310350507
 21
373.23477102292281
  0
CIRCLE
  8
_0-d_寸法3
  6
CONTINUOUS
 62
    1
 10
678.76399310350507
 20
368.23477102292281
 40
1.5000000000000002
  0
LINE
  8
_0-d_寸法3
  6
CONTINUOUS
 62
    7
 10
675.43065977017204
 20
368.23477102292281
 11
678.76399310350507
 21
368.23477102292281
  0
TEXT
  8
_0-d_寸法3
 62
    7
 10
673.3473264368381
 20
368.23477102292281
 40
15
 41
1
 50
0
  1
2
  0
LINE
  8
_0-d_寸法3
  6
CONTINUOUS
 62
    7
 10
683.76399310350507
 20
368.23477102292281
 11
693.4232513663959
 21
370.82296147394794
  0
LINE
  8
_0-d_寸法3
  6
CONTINUOUS
 62
    7
 10
683.76399310350507
 20
368.23477102292281
 11
693.4232513663959
 21
365.64658057189752
  0
LINE
  8
_0-d_寸法3
  6
CONTINUOUS
 62
    7
 10
678.76399310350507
 20
368.23477102292281
 11
708.76399310350507
 21
368.23477102292281
  0
TEXT
  8
_0-d_寸法3
 62
    7
 10
697.54464686203721
 20
368.23477102292281
 40
15
 41
1
 50
0
  1
3
  0
ENDSEC
  0
EOF
