  0
SECTION
  2
HEADER
  9
$ACADVER
  1
AC1009
  9
$INSBASE
 10
0
 20
0
 30
0
  9
$EXTMIN
 10
0
 20
0
  9
$EXTMAX
 10
1485
 20
1050
  9
$LIMMIN
 10
0
 20
0
  9
$LIMMAX
 10
1485
 20
1050
  9
$LTSCALE
 40
5
  0
ENDSEC
  0
SECTION
  2
TABLES
  0
TABLE
  2
LTYPE
 70
     9
  0
LTYPE
  2
CONTINUOUS
 70
    64
  3
実線
 72
    65
 73
     0
 40
0.0
  0
LTYPE
  2
DASHED1
 70
    64
  3
--  --  --  --  --  --  --  --  
 72
    65
 73
     2
 40
2.5
 49
1.25
 49
-1.25
  0
LTYPE
  2
DASHED2
 70
    64
  3
----    ----    ----    ----    
 72
    65
 73
     2
 40
5.0
 49
2.5
 49
-2.5
  0
LTYPE
  2
DASHED3
 70
    64
  3
------  ------  ------  ------  
 72
    65
 73
     2
 40
5.0
 49
3.75
 49
-1.25
  0
LTYPE
  2
CENTER1
 70
    64
  3
----- - ----- - ----- - ----- - 
 72
    65
 73
     4
 40
10.0
 49
6.25
 49
-1.25
 49
1.25
 49
-1.25
  0
LTYPE
  2
CENTER2
 70
    64
  3
----------  --  ----------  --  
 72
    65
 73
     4
 40
20.0
 49
12.5
 49
-2.5
 49
2.5
 49
-2.5
  0
LTYPE
  2
PHANTOM1
 70
    64
  3
--- - - --- - - --- - - --- - - 
 72
    65
 73
     6
 40
10.0
 49
3.25
 49
-1.25
 49
1.25
 49
-1.25
 49
1.25
 49
-1.25
  0
LTYPE
  2
PHANTOM2
 70
    64
  3
--------  -  -  --------  -  -  
 72
    65
 73
     6
 40
20.0
 49
10.0
 49
-2.5
 49
1.25
 49
-2.5
 49
1.25
 49
-2.5
  0
LTYPE
  2
DOT
 70
    64
  3
-   -   -   -   -   -   -   -   
 72
    65
 73
     2
 40
2.5
 49
0.625
 49
-1.875
  0
LTYPE
  2
DUMMY
 70
    64
  3
ダミー
 72
    65
 73
     0
 40
0.0
  0
LTYPE
  2
RAND1
 70
    64
  3
ランダム線1
 72
    65
 73
     4
 40
10.0
 49
1.0
 49
-2.0
 49
3.0
 49
-4.0
  0
LTYPE
  2
RAND2
 70
    64
  3
ランダム線2
 72
    65
 73
     4
 40
14.0
 49
2.0
 49
-3.0
 49
4.0
 49
-5.0
  0
LTYPE
  2
RAND3
 70
    64
  3
ランダム線3
 72
    65
 73
     4
 40
18.0
 49
3.0
 49
-4.0
 49
5.0
 49
-6.0
  0
LTYPE
  2
RAND4
 70
    64
  3
ランダム線4
 72
    65
 73
     4
 40
22.0
 49
4.0
 49
-5.0
 49
6.0
 49
-7.0
  0
LTYPE
  2
RAND5
 70
    64
  3
ランダム線5
 72
    65
 73
     4
 40
26.0
 49
5.0
 49
-6.0
 49
7.0
 49
-8.0
  0
LTYPE
  2
LONG1
 70
    64
  3
----------  --  ----------  --  
 72
    65
 73
     4
 40
40.0
 49
32.5
 49
-2.5
 49
2.5
 49
-2.5
  0
LTYPE
  2
LONG2
 70
    64
  3
--------  -  -  --------  -  -  
 72
    65
 73
     6
 40
40.0
 49
30.0
 49
-2.5
 49
1.25
 49
-2.5
 49
1.25
 49
-2.5
  0
LTYPE
  2
LONG3
 70
    64
  3
+++++++++++++++..+++++++++++++++
 72
    65
 73
     2
 40
40.0
 49
37.5
 49
-2.5
  0
LTYPE
  2
LONG4
 70
    64
  3
+++++++++++++++..+++++++++++++++
 72
    65
 73
     2
 40
80.0
 49
75.0
 49
-5.0
  0
LTYPE
  2
LONG5
 70
    64
  3
----------  --  ----------  --  
 72
    65
 73
     4
 40
60.0
 49
37.5
 49
-7.5
 49
7.5
 49
-7.5
  0
LTYPE
  2
dashed
 70
   64
  3
-------   -------------   ------
 72
   65
 73
    2
 40
7.5
 49
6
 49
-1.5
  0
LTYPE
  2
dashed_spaced
 70
   64
  3
----        --------        ----
 72
   65
 73
    2
 40
12
 49
6
 49
-6
  0
LTYPE
  2
long_dashed_dotted
 70
   64
  3
------------- --- --------------
 72
   65
 73
    4
 40
15.25
 49
12
 49
-1.5
 49
0.25
 49
-1.5
  0
LTYPE
  2
long_dashed_double-dotted
 70
   64
  3
----------- --- --- ------------
 72
   65
 73
    6
 40
17
 49
12
 49
-1.5
 49
0.25
 49
-1.5
 49
0.25
 49
-1.5
  0
LTYPE
  2
long_dashed_triplicate-dotted
 70
   64
  3
--------- --- --- --- ----------
 72
   65
 73
    8
 40
18.75
 49
12
 49
-1.5
 49
0.25
 49
-1.5
 49
0.25
 49
-1.5
 49
0.25
 49
-1.5
  0
LTYPE
  2
dotted
 70
   64
  3
   -       -       -       -    
 72
   65
 73
    2
 40
1.75
 49
0.25
 49
-1.5
  0
LTYPE
  2
chain
 70
   64
  3
-------------- -- --------------
 72
   65
 73
    4
 40
18.5
 49
12
 49
-1.5
 49
3.5
 49
-1.5
  0
LTYPE
  2
chain_double_dash
 70
   64
  3
------------ -- -- -------------
 72
   65
 73
    6
 40
23.5
 49
12
 49
-1.5
 49
3.5
 49
-1.5
 49
3.5
 49
-1.5
  0
LTYPE
  2
dashed_dotted
 70
   64
  3
-----------     -     ----------
 72
   65
 73
    4
 40
9.25
 49
6
 49
-1.5
 49
0.25
 49
-1.5
  0
LTYPE
  2
double-dashed_dotted
 70
   64
  3
------   -----------   -   -----
 72
   65
 73
    6
 40
16.75
 49
6
 49
-1.5
 49
6
 49
-1.5
 49
0.25
 49
-1.5
  0
LTYPE
  2
dashed_double-dotted
 70
   64
  3
---------    -    -    ---------
 72
   65
 73
    6
 40
11
 49
6
 49
-1.5
 49
0.25
 49
-1.5
 49
0.25
 49
-1.5
  0
LTYPE
  2
double-dashed_double-dotted
 70
   64
  3
-----   ---------   -   -   ----
 72
   65
 73
    8
 40
18.5
 49
6
 49
-1.5
 49
6
 49
-1.5
 49
0.25
 49
-1.5
 49
0.25
 49
-1.5
  0
LTYPE
  2
dashed_triplicate-dotted
 70
   64
  3
-------    -    -    -    ------
 72
   65
 73
    8
 40
12.75
 49
6
 49
-1.5
 49
0.25
 49
-1.5
 49
0.25
 49
-1.5
 49
0.25
 49
-1.5
  0
LTYPE
  2
double-dashed_triplicate-dotted
 70
   64
  3
-----  ---------  -  -  -  -----
 72
   65
 73
   10
 40
20.25
 49
6
 49
-1.5
 49
6
 49
-1.5
 49
0.25
 49
-1.5
 49
0.25
 49
-1.5
 49
0.25
 49
-1.5
  0
LTYPE
  2
undefined
 70
   64
  3
--------------------------------
 72
   65
 73
    0
 40
0
  0
ENDTAB
  0
TABLE
  2
STYLE
  5
3
100
AcDbSymbolTable
 70
     1
  0
STYLE
  5
10
100
AcDbSymbolTableRecord
100
AcDbTextStyleTableRecord
  2
STANDARD
 70
     0
 40
0.0
 41
1.0
 50
0.0
 71
     0
 42
0.2
  3
txt
  4
bigfont.shx
  0
STYLE
  5
26
100
AcDbSymbolTableRecord
100
AcDbTextStyleTableRecord
  2
TATEGAKI
 70
    68
 40
0.0
 41
1.0
 50
0.0
 71
     0
 42
1.0
  3
txt
  4
bigfont.shx
  0
ENDTAB
  0
TABLE
  2
LAYER
 70
   10
  0
LAYER
  2
_0-0_計極細
 70
   64
 62
    7
  6
CONTINUOUS
  0
LAYER
  2
_0-1_計細線
 70
   64
 62
    7
  6
CONTINUOUS
  0
LAYER
  2
_0-5_寸法線
 70
   64
 62
    7
  6
CONTINUOUS
  0
LAYER
  2
_0-7_枠細線
 70
   64
 62
    7
  6
CONTINUOUS
  0
LAYER
  2
_0-8_枠中線
 70
   64
 62
    7
  6
CONTINUOUS
  0
LAYER
  2
_0-9_枠極太
 70
   64
 62
    7
  6
CONTINUOUS
  0
LAYER
  2
_0-a_極細3
 70
   64
 62
    7
  6
CONTINUOUS
  0
LAYER
  2
_0-b_細線3
 70
   64
 62
    7
  6
CONTINUOUS
  0
LAYER
  2
_0-d_寸法3
 70
   64
 62
    7
  6
CONTINUOUS
  0
LAYER
  2
ADD_LINE
 70
   64
 62
    7
  6
CONTINUOUS
  0
ENDTAB
  0
ENDSEC
  0
SECTION
  2
BLOCKS
  0
ENDSEC
  0
SECTION
  2
ENTITIES
  0
LINE
  8
_0-7_枠細線
  6
CONTINUOUS
 62
    5
 10
1425
 20
942.5
 11
890
 21
942.5
  0
TEXT
  8
_0-7_枠細線
 62
    5
 10
895
 20
945
 40
12.5
 41
1
 50
0
  1
記号
  0
TEXT
  8
_0-7_枠細線
 62
    5
 10
996.875
 20
945
 40
12.5
 41
1
 50
0
  1
訂　 正　 記　 事
  0
TEXT
  8
_0-7_枠細線
 62
    5
 10
1181.25
 20
945
 40
12.5
 41
1
 50
0
  1
訂 正 年 月 日
  0
TEXT
  8
_0-7_枠細線
 62
    5
 10
1306.25
 20
945
 40
12.5
 41
1
 50
0
  1
備　　　　　考
  0
LINE
  8
_0-7_枠細線
  6
CONTINUOUS
 62
    5
 10
1185
 20
180
 11
1185
 21
100
  0
TEXT
  8
_0-7_枠細線
 62
    5
 10
937.5
 20
97.5
 40
17.5
 41
1
 50
0
  1
備考
  7
TATEGAKI
  0
TEXT
  8
_0-7_枠細線
 62
    5
 10
937.5
 20
137.5
 40
17.5
 41
1
 50
0
  1
品番
  7
TATEGAKI
  0
TEXT
  8
_0-7_枠細線
 62
    5
 10
937.5
 20
177.5
 40
17.5
 41
1
 50
0
  1
品名
  7
TATEGAKI
  0
LINE
  8
_0-7_枠細線
  6
CONTINUOUS
 62
    5
 10
1185
 20
140
 11
925
 21
140
  0
LINE
  8
_0-7_枠細線
  6
CONTINUOUS
 62
    5
 10
950
 20
180
 11
950
 21
60
  0
LINE
  8
_0-8_枠中線
  6
CONTINUOUS
 62
    5
 10
1425
 20
180
 11
925
 21
180
  0
LINE
  8
_0-8_枠中線
  6
CONTINUOUS
 62
    5
 10
925
 20
180
 11
925
 21
60
  0
LINE
  8
_0-7_枠細線
  6
CONTINUOUS
 62
    5
 10
1245
 20
180
 11
1245
 21
60
  0
TEXT
  8
_0-7_枠細線
 62
    5
 10
1192.5
 20
160
 40
15
 41
1
 50
0
  1
縮　尺
  0
TEXT
  8
_0-7_枠細線
 62
    5
 10
1194
 20
117.5
 40
20
 41
0.7000000000000001
 50
0
  1
１：５
  0
LINE
  8
_0-7_枠細線
  6
CONTINUOUS
 62
    5
 10
1185
 20
155
 11
1245
 21
155
  0
LINE
  8
_0-7_枠細線
  6
CONTINUOUS
 62
    5
 10
1245
 20
100
 11
925
 21
100
  0
LINE
  8
_0-7_枠細線
  6
CONTINUOUS
 62
    5
 10
1425
 20
90
 11
1245
 21
90
  0
LINE
  8
_0-7_枠細線
  6
CONTINUOUS
 62
    5
 10
1245
 20
120
 11
1425
 21
120
  0
LINE
  8
_0-7_枠細線
  6
CONTINUOUS
 62
    5
 10
1425
 20
140
 11
1245
 21
140
  0
TEXT
  8
_0-7_枠細線
 62
    5
 10
1255
 20
147.5
 40
25
 41
0.8
 50
0
  1
株式会社シマブン
  0
TEXT
  8
_0-7_枠細線
 62
    5
 10
1252.5
 20
60
 40
15
 41
1
 50
0
  1
年月日
  0
TEXT
  8
_0-7_枠細線
 62
    5
 10
1252.5
 20
75
 40
15
 41
1
 50
0
  1
作　成
  0
TEXT
  8
_0-7_枠細線
 62
    5
 10
1256.25
 20
122.5
 40
15
 41
1
 50
0
  1
承 認
  0
LINE
  8
_0-7_枠細線
  6
CONTINUOUS
 62
    5
 10
1305
 20
140
 11
1305
 21
60
  0
TEXT
  8
_0-7_枠細線
 62
    5
 10
1316.25
 20
122.5
 40
15
 41
1
 50
0
  1
検 図
  0
LINE
  8
_0-7_枠細線
  6
CONTINUOUS
 62
    5
 10
1365
 20
140
 11
1365
 21
90
  0
TEXT
  8
_0-7_枠細線
 62
    5
 10
1375
 20
95
 40
20
 41
1
 50
0
  1
藤戸
  0
TEXT
  8
_0-7_枠細線
 62
    5
 10
1376.25
 20
122.5
 40
15
 41
1
 50
0
  1
設 計
  0
TEXT
  8
_0-7_枠細線
 62
    5
 10
1255
 20
95
 40
20
 41
1
 50
0
  1
隠塚
  0
TEXT
  8
_0-7_枠細線
 62
    5
 10
1315
 20
95
 40
20
 41
1
 50
0
  1
渋田
  0
TEXT
  8
_0-7_枠細線
 62
    5
 10
1310
 20
67.5
 40
15
 41
0.6666666666666666
 50
0
  1
２０１２年０２月２９日
  0
LINE
  8
_0-7_枠細線
  6
CONTINUOUS
 62
    5
 10
1425
 20
925
 11
890
 21
925
  0
TEXT
  8
_0-7_枠細線
 62
    5
 10
938.85037037037023
 20
927.5
 40
12.500000000000002
 41
1
 50
0
  1
品番変更
  0
TEXT
  8
_0-7_枠細線
 62
    5
 10
1180
 20
927.5
 40
12.5
 41
0.7199999999999999
 50
0
  1
２０１５．０４．０１
  0
TEXT
  8
_0-7_枠細線
 62
    5
 10
965.50000000000011
 20
110
 40
20
 41
0.6
 50
0
  1
ＧＳＴ－１５Ｗ３４４
  0
TEXT
  8
_0-7_枠細線
 62
    5
 10
965.50000000000011
 20
150
 40
20
 41
0.5
 50
0
  1
Ｔバー ステンレスグレーチング Ｈ１５タイプ
  0
TEXT
  8
_0-7_枠細線
 62
    5
 10
965.49999999999966
 20
69.999999999999858
 40
20.000000000000004
 41
0.5999999999999997
 50
0
  1
表面形状については記号表参照のこと
  0
LINE
  8
_0-9_枠極太
  6
CONTINUOUS
 62
    5
 10
60
 20
60
 11
60
 21
960
  0
LINE
  8
_0-9_枠極太
  6
CONTINUOUS
 62
    5
 10
60
 20
960
 11
1425
 21
960
  0
LINE
  8
_0-9_枠極太
  6
CONTINUOUS
 62
    5
 10
1425
 20
960
 11
1425
 21
60
  0
LINE
  8
_0-9_枠極太
  6
CONTINUOUS
 62
    5
 10
1425
 20
60
 11
60
 21
60
  0
LINE
  8
_0-7_枠細線
  6
CONTINUOUS
 62
    5
 10
1409.4018171150183
 20
307.24848464200693
 11
1409.4018171150183
 21
202.24848464200733
  0
TEXT
  8
_0-7_枠細線
 62
    5
 10
1318.4018171150192
 20
287.24848464200693
 40
15.000000000000002
 41
0.8
 50
0
  1
ノンスリップ
  0
TEXT
  8
_0-7_枠細線
 62
    5
 10
1330.4018171150185
 20
262.24848464200693
 40
15.000000000000002
 41
0.8
 50
0
  1
品番－Ｄ
  0
LINE
  8
_0-7_枠細線
  6
CONTINUOUS
 62
    5
 10
1299.4018171150178
 20
307.24848464200693
 11
1299.4018171150178
 21
202.24848464200733
  0
TEXT
  8
_0-7_枠細線
 62
    5
 10
1220.4018171150178
 20
287.24848464200699
 40
15.000000000000002
 41
0.8
 50
0
  1
プレーン
  0
TEXT
  8
_0-7_枠細線
 62
    5
 10
1220.4018171150185
 20
262.24848464200693
 40
15.000000000000002
 41
0.8
 50
0
  1
品番－Ｆ
  0
TEXT
  8
_0-7_枠細線
 62
    5
 10
1140.4018171150183
 20
287.24848464200693
 40
15.000000000000002
 41
0.8
 50
0
  1
タ イ プ
  0
LINE
  8
_0-7_枠細線
  6
CONTINUOUS
 62
    5
 10
1139.4018171150174
 20
257.24848464200693
 11
1409.4018171150183
 21
257.24848464200693
  0
LINE
  8
_0-7_枠細線
  6
CONTINUOUS
 62
    5
 10
1139.4018171150174
 20
282.24848464200693
 11
1409.4018171150183
 21
282.24848464200693
  0
LINE
  8
_0-7_枠細線
  6
CONTINUOUS
 62
    5
 10
1139.4018171150174
 20
307.24848464200693
 11
1409.4018171150183
 21
307.24848464200693
  0
LINE
  8
_0-7_枠細線
  6
CONTINUOUS
 62
    5
 10
1139.4018171150174
 20
202.24848464200733
 11
1409.4018171150183
 21
202.24848464200733
  0
LINE
  8
_0-7_枠細線
  6
CONTINUOUS
 62
    5
 10
1189.4018171150183
 20
307.24848464200693
 11
1189.4018171150183
 21
202.24848464200733
  0
LINE
  8
_0-7_枠細線
  6
CONTINUOUS
 62
    5
 10
1139.4018171150174
 20
307.24848464200693
 11
1139.4018171150174
 21
202.24848464200733
  0
TEXT
  8
_0-7_枠細線
 62
    5
 10
1140.4018171150183
 20
222.24848464200716
 40
15.000000000000002
 41
0.8
 50
0
  1
表面形状
  0
TEXT
  8
_0-7_枠細線
 62
    5
 10
1147.1760284558286
 20
309.74848464200699
 40
17.500000000000004
 41
0.7999999999999996
 50
0
  1
記号表
  0
TEXT
  8
_0-7_枠細線
 62
    5
 10
1140.4018171150183
 20
262.24848464200704
 40
15.000000000000002
 41
0.8
 50
0
  1
記　　号
  0
ARC
  8
_0-7_枠細線
  6
CONTINUOUS
 62
    5
 10
1282.9664605906703
 20
221.63304156831356
 40
12.026499332130607
 50
317.5616290000047
 51
42.438370999994966
  0
ARC
  8
_0-7_枠細線
  6
CONTINUOUS
 62
    5
 10
1300.7176602555628
 20
237.86392756669071
 40
12.026499332130607
 50
137.56162900000001
 51
222.43837100000297
  0
ARC
  8
_0-7_枠細線
  6
CONTINUOUS
 62
    5
 10
1188.0859738141417
 20
221.63304156831356
 40
12.026499332130607
 50
317.5616290000047
 51
42.438370999994966
  0
ARC
  8
_0-7_枠細線
  6
CONTINUOUS
 62
    5
 10
1205.8371734790342
 20
237.86392756669071
 40
12.026499332130607
 50
137.56162900000001
 51
222.43837100000297
  0
LINE
  8
_0-7_枠細線
  6
CONTINUOUS
 62
    5
 10
1194.4553061852557
 20
241.74848456750195
 11
1289.3357929617841
 21
241.74848456750195
  0
LINE
  8
_0-7_枠細線
  6
CONTINUOUS
 62
    5
 10
1294.3483278844485
 20
217.74848456750192
 11
1199.4678411079201
 21
217.74848456750192
  0
ARC
  8
_0-7_枠細線
  6
CONTINUOUS
 62
    5
 10
1392.966460590671
 20
221.63304156831356
 40
12.026499332130607
 50
317.5616290000047
 51
42.438370999994966
  0
ARC
  8
_0-7_枠細線
  6
CONTINUOUS
 62
    5
 10
1410.7176602555635
 20
237.86392756669071
 40
12.026499332130607
 50
137.56162900000001
 51
222.43837100000297
  0
ARC
  8
_0-7_枠細線
  6
CONTINUOUS
 62
    5
 10
1298.0859738141421
 20
221.63304156831356
 40
12.026499332130607
 50
317.5616290000047
 51
42.438370999994966
  0
ARC
  8
_0-7_枠細線
  6
CONTINUOUS
 62
    5
 10
1315.8371734790348
 20
237.86392756669071
 40
12.026499332130607
 50
137.56162900000001
 51
222.43837100000297
  0
LINE
  8
_0-7_枠細線
  6
CONTINUOUS
 62
    5
 10
1304.4553061852562
 20
241.74848456750195
 11
1399.3357929617846
 21
241.74848456750195
  0
LINE
  8
_0-7_枠細線
  6
CONTINUOUS
 62
    5
 10
1404.3483278844492
 20
217.74848456750192
 11
1309.4678411079208
 21
217.74848456750192
  0
LINE
  8
_0-7_枠細線
  6
CONTINUOUS
 62
    5
 10
1310.0055655050667
 20
223.23304785185678
 11
1315.4901287894213
 21
217.74848456750209
  0
LINE
  8
_0-7_枠細線
  6
CONTINUOUS
 62
    5
 10
1304.3960893257238
 20
241.57044609255763
 11
1328.218050850779
 21
217.74848456750206
  0
LINE
  8
_0-7_枠細線
  6
CONTINUOUS
 62
    5
 10
1316.9459729121372
 20
241.74848456750212
 11
1340.9459729121368
 21
217.74848456750206
  0
LINE
  8
_0-7_枠細線
  6
CONTINUOUS
 62
    5
 10
1329.6738949734947
 20
241.74848456750203
 11
1353.6738949734945
 21
217.74848456750206
  0
LINE
  8
_0-7_枠細線
  6
CONTINUOUS
 62
    5
 10
1342.4018170348527
 20
241.74848456750203
 11
1366.4018170348525
 21
217.74848456750203
  0
LINE
  8
_0-7_枠細線
  6
CONTINUOUS
 62
    5
 10
1355.1297390962102
 20
241.74848456750198
 11
1379.12973909621
 21
217.74848456750198
  0
LINE
  8
_0-7_枠細線
  6
CONTINUOUS
 62
    5
 10
1367.8576611575681
 20
241.74848456750198
 11
1391.8576611575677
 21
217.74848456750198
  0
LINE
  8
_0-7_枠細線
  6
CONTINUOUS
 62
    5
 10
1380.5855832189261
 20
241.74848456750198
 11
1404.4075447439814
 21
217.92652304244604
  0
LINE
  8
_0-7_枠細線
  6
CONTINUOUS
 62
    5
 10
1393.3135052802836
 20
241.74848456750195
 11
1398.7980685646389
 21
236.26392128314666
  0
LINE
  8
_0-7_枠細線
  6
CONTINUOUS
 62
    5
 10
1393.3135052802843
 20
217.74848456750198
 11
1403.3188705607763
 21
227.75384984799391
  0
LINE
  8
_0-7_枠細線
  6
CONTINUOUS
 62
    5
 10
1380.5855832189263
 20
217.74848456750198
 11
1398.8365633238182
 21
235.99946467239363
  0
LINE
  8
_0-7_枠細線
  6
CONTINUOUS
 62
    5
 10
1367.8576611575684
 20
217.74848456750203
 11
1391.8576611575686
 21
241.74848456750195
  0
LINE
  8
_0-7_枠細線
  6
CONTINUOUS
 62
    5
 10
1355.1297390962109
 20
217.74848456750206
 11
1379.1297390962106
 21
241.74848456750198
  0
LINE
  8
_0-7_枠細線
  6
CONTINUOUS
 62
    5
 10
1342.4018170348527
 20
217.74848456750206
 11
1366.4018170348527
 21
241.74848456750198
  0
LINE
  8
_0-7_枠細線
  6
CONTINUOUS
 62
    5
 10
1329.673894973495
 20
217.74848456750206
 11
1353.673894973495
 21
241.74848456750198
  0
LINE
  8
_0-7_枠細線
  6
CONTINUOUS
 62
    5
 10
1316.9459729121374
 20
217.74848456750209
 11
1340.9459729121372
 21
241.74848456750203
  0
LINE
  8
_0-7_枠細線
  6
CONTINUOUS
 62
    5
 10
1309.9670707458877
 20
223.49750446261027
 11
1328.2180508507793
 21
241.74848456750203
  0
LINE
  8
_0-7_枠細線
  6
CONTINUOUS
 62
    5
 10
1305.4847635089297
 20
231.74311928701013
 11
1315.4901287894218
 21
241.74848456750212
  0
LINE
  8
_0-a_極細3
  6
CENTER1
 62
    7
 10
470.43065977017204
 20
232.07272441865916
 11
470.43065977017204
 21
287.18939108533209
  0
TEXT
  8
_0-7_枠細線
 62
    5
 10
420.50861213093822
 20
98.258188902430916
 40
25
 41
0.8
 50
0
  1
断面詳細図
  0
TEXT
  8
_0-7_枠細線
 62
    5
 10
535.45758188010586
 20
98.258188902430916
 40
20
 41
0.6
 50
0
  1
Ｓ＝１：３
  0
CIRCLE
  8
_0-a_極細3
  6
CONTINUOUS
 62
    7
 10
162.04756590032275
 20
258.21751987632433
 40
0.5530864197530718
  0
LINE
  8
_0-a_極細3
  6
CONTINUOUS
 62
    7
 10
167.09732643683856
 20
273.25855390410902
 11
167.09732643683856
 21
261.59188723744205
  0
LINE
  8
_0-a_極細3
  6
CONTINUOUS
 62
    7
 10
167.09732643683856
 20
273.25855390410902
 11
77.919579291723977
 21
273.25855390410902
  0
LINE
  8
_0-a_極細3
  6
CONTINUOUS
 62
    7
 10
175.43065977017207
 20
261.59188723744205
 11
77.919579291723977
 21
261.59188723744205
  0
LINE
  8
_0-a_極細3
  6
CONTINUOUS
 62
    7
 10
175.43065977017207
 20
273.25855390410902
 11
167.09732643683856
 21
273.25855390410902
  0
LINE
  8
_0-a_極細3
  6
CONTINUOUS
 62
    7
 10
175.43065977017207
 20
272.42522057077554
 11
175.43065977017207
 21
273.25855390410902
  0
LINE
  8
_0-a_極細3
  6
CONTINUOUS
 62
    7
 10
175.23256951381242
 20
261.59188723744205
 11
175.43065977017164
 21
261.78997749380164
  0
LINE
  8
_0-a_極細3
  6
CONTINUOUS
 62
    7
 10
170.98992882669336
 20
261.59188723744205
 11
175.43065977017207
 21
266.03261818092074
  0
LINE
  8
_0-a_極細3
  6
CONTINUOUS
 62
    7
 10
167.09732643683856
 20
261.9419255347068
 11
175.43065977017207
 21
270.27525886804005
  0
LINE
  8
_0-a_極細3
  6
CONTINUOUS
 62
    7
 10
167.09732643683856
 20
266.18456622182589
 11
174.17131411912123
 21
273.25855390410902
  0
LINE
  8
_0-a_極細3
  6
CONTINUOUS
 62
    7
 10
167.09732643683856
 20
270.42720690894544
 11
169.92867343200217
 21
273.25855390410902
  0
LINE
  8
_0-a_極細3
  6
CONTINUOUS
 62
    7
 10
175.43065977017207
 20
270.97758703185036
 11
173.14969289791364
 21
273.25855390410902
  0
LINE
  8
_0-a_極細3
  6
CONTINUOUS
 62
    7
 10
175.43065977017207
 20
266.73494634473104
 11
168.90705221079406
 21
273.25855390410902
  0
LINE
  8
_0-a_極細3
  6
CONTINUOUS
 62
    7
 10
167.09732643683856
 20
270.82563899094521
 11
175.43065977017207
 21
262.49230565761195
  0
LINE
  8
_0-a_極細3
  6
CONTINUOUS
 62
    7
 10
167.09732643683856
 20
266.58299830382589
 11
172.08843750322194
 21
261.59188723744205
  0
LINE
  8
_0-a_極細3
  6
CONTINUOUS
 62
    7
 10
167.09732643683856
 20
262.34035761670657
 11
167.84579681610282
 21
261.59188723744205
  0
LINE
  8
_0-a_極細3
  6
CONTINUOUS
 62
    7
 10
158.26200675920788
 20
261.59188723131479
 11
167.09732643683856
 21
270.42720690894544
  0
LINE
  8
_0-a_極細3
  6
CONTINUOUS
 62
    7
 10
137.04880330890049
 20
261.59188721660371
 11
148.71546999640577
 21
273.25855390410879
  0
LINE
  8
_0-a_極細3
  6
CONTINUOUS
 62
    7
 10
115.83559985859253
 20
261.59188720189218
 11
127.50226656080898
 21
273.25855390410902
  0
LINE
  8
_0-a_極細3
  6
CONTINUOUS
 62
    7
 10
94.622396408284715
 20
261.5918871871811
 11
106.28906312521259
 21
273.25855390410902
  0
LINE
  8
_0-a_極細3
  6
CONTINUOUS
 62
    7
 10
77.919579291723977
 20
266.10227350621631
 11
85.075859689616209
 21
273.25855390410879
  0
LINE
  8
_0-a_極細3
  6
DASHED2
 62
    7
 10
147.65540503405418
 20
261.59188722395925
 11
159.32207171420396
 21
273.25855390410902
  0
LINE
  8
_0-a_極細3
  6
DASHED2
 62
    7
 10
126.4422015837463
 20
261.59188720924794
 11
138.10886827860756
 21
273.25855390410902
  0
LINE
  8
_0-a_極細3
  6
DASHED2
 62
    7
 10
105.22899813343884
 20
261.59188719453664
 11
116.89566484301075
 21
273.25855390410902
  0
LINE
  8
_0-a_極細3
  6
DASHED2
 62
    7
 10
84.015794683130878
 20
261.59188717982556
 11
95.682461407414365
 21
273.25855390410902
  0
LINE
  8
_0-a_極細3
  6
CONTINUOUS
 62
    7
 10
108.76399310350507
 20
236.59188723744228
 11
108.76399310350507
 21
168.25855390410908
  0
LINE
  8
_0-a_極細3
  6
CONTINUOUS
 62
    7
 10
192.09732643683856
 20
168.25855390410908
 11
108.76399310350507
 21
168.25855390410908
  0
LINE
  8
_0-a_極細3
  6
CONTINUOUS
 62
    7
 10
108.76399310350507
 20
236.59188723744228
 11
77.919579291723977
 21
236.59188723744228
  0
LINE
  8
_0-a_極細3
  6
CONTINUOUS
 62
    7
 10
192.09732643683856
 20
168.25855390410908
 11
192.09732643683856
 21
142.01695360932987
  0
LINE
  8
_0-a_極細3
  6
CONTINUOUS
 62
    7
 10
154.67535187184879
 20
142.0169537257668
 11
180.91695205019141
 21
168.25855390410908
  0
LINE
  8
_0-a_極細3
  6
CONTINUOUS
 62
    7
 10
83.964673973207482
 20
142.01695394577996
 11
110.20627393153653
 21
168.25855390410908
  0
LINE
  8
_0-a_極細3
  6
CONTINUOUS
 62
    7
 10
77.919579291723977
 20
206.68253738295132
 11
107.82892914621513
 21
236.59188723744228
  0
LINE
  8
_0-a_極細3
  6
CONTINUOUS
 62
    7
 10
147.60428408198459
 20
142.01695374776818
 11
173.84588423832568
 21
168.25855390410908
  0
LINE
  8
_0-a_極細3
  6
CONTINUOUS
 62
    7
 10
77.919579291723977
 20
143.04292707616199
 11
108.76399310350507
 21
173.88734088794337
  0
LINE
  8
_0-a_極細3
  6
CONTINUOUS
 62
    7
 10
77.919579291723977
 20
213.75360519481686
 11
100.75786133434946
 21
236.59188723744228
  0
LINE
  8
_0-a_極細3
  6
CONTINUOUS
 62
    7
 10
140.53321629212087
 20
142.01695376976957
 11
166.77481642646035
 21
168.25855390410908
  0
LINE
  8
_0-a_極細3
  6
CONTINUOUS
 62
    7
 10
77.919579291723977
 20
150.11399488802752
 11
108.76399310350507
 21
180.9584086998089
  0
LINE
  8
_0-a_極細3
  6
CONTINUOUS
 62
    7
 10
77.919579291723977
 20
220.82467300668213
 11
93.686793522484066
 21
236.59188723744228
  0
CIRCLE
  8
_0-a_極細3
  6
CONTINUOUS
 62
    7
 10
95.815467134891179
 20
251.79529765410237
 40
0.5530864197530718
  0
CIRCLE
  8
_0-a_極細3
  6
CONTINUOUS
 62
    7
 10
85.484602937360705
 20
241.83974209854682
 40
0.5530864197530718
  0
CIRCLE
  8
_0-a_極細3
  6
CONTINUOUS
 62
    7
 10
96.092010344767971
 20
242.90640876521343
 40
0.5530864197530718
  0
CIRCLE
  8
_0-a_極細3
  6
CONTINUOUS
 62
    7
 10
108.71423256699018
 20
244.86196432076895
 40
0.5530864197530718
  0
CIRCLE
  8
_0-a_極細3
  6
CONTINUOUS
 62
    7
 10
137.15867701143409
 20
256.5952976541023
 40
0.5530864197530718
  0
CIRCLE
  8
_0-a_極細3
  6
CONTINUOUS
 62
    7
 10
167.73645478921168
 20
250.37307543188012
 40
0.5530864197530718
  0
CIRCLE
  8
_0-a_極細3
  6
CONTINUOUS
 62
    7
 10
142.84756590032293
 20
249.83974209854682
 40
0.5530864197530718
  0
CIRCLE
  8
_0-a_極細3
  6
CONTINUOUS
 62
    7
 10
115.65867701143453
 20
237.6064087652135
 40
0.5530864197530718
  0
CIRCLE
  8
_0-a_極細3
  6
CONTINUOUS
 62
    7
 10
136.10312145587841
 20
236.36196432076898
 40
0.5530864197530718
  0
CIRCLE
  8
_0-a_極細3
  6
CONTINUOUS
 62
    7
 10
161.16978812254501
 20
232.62863098743583
 40
0.5530864197530718
  0
CIRCLE
  8
_0-a_極細3
  6
CONTINUOUS
 62
    7
 10
148.54756590032275
 20
226.93974209854699
 40
0.5530864197530718
  0
CIRCLE
  8
_0-a_極細3
  6
CONTINUOUS
 62
    7
 10
133.79201034476773
 20
213.42863098743578
 40
0.5530864197530718
  0
CIRCLE
  8
_0-a_極細3
  6
CONTINUOUS
 62
    7
 10
161.16978812254501
 20
220.71751987632481
 40
0.5530864197530718
  0
CIRCLE
  8
_0-a_極細3
  6
CONTINUOUS
 62
    7
 10
120.05867701143416
 20
193.60640876521393
 40
0.5530864197530718
  0
CIRCLE
  8
_0-a_極細3
  6
CONTINUOUS
 62
    7
 10
114.3697881225453
 20
175.65085320965841
 40
0.5530864197530718
  0
CIRCLE
  8
_0-a_極細3
  6
CONTINUOUS
 62
    7
 10
123.0808992336565
 20
182.40640876521388
 40
0.5530864197530718
  0
CIRCLE
  8
_0-a_極細3
  6
CONTINUOUS
 62
    7
 10
129.30312145587868
 20
173.87307543188058
 40
0.5530864197530718
  0
CIRCLE
  8
_0-a_極細3
  6
CONTINUOUS
 62
    7
 10
168.60312145587841
 20
191.76196432076949
 40
0.5530864197530718
  0
CIRCLE
  8
_0-a_極細3
  6
CONTINUOUS
 62
    7
 10
157.40312145587859
 20
186.25085320965837
 40
0.5530864197530718
  0
CIRCLE
  8
_0-a_極細3
  6
CONTINUOUS
 62
    7
 10
163.62534367810076
 20
183.76196432076952
 40
0.5530864197530718
  0
CIRCLE
  8
_0-a_極細3
  6
CONTINUOUS
 62
    7
 10
160.06978812254516
 20
174.5175198763252
 40
0.5530864197530718
  0
CIRCLE
  8
_0-a_極細3
  6
CONTINUOUS
 62
    7
 10
179.98089923365612
 20
175.5841865429918
 40
0.5530864197530718
  0
CIRCLE
  8
_0-a_極細3
  6
CONTINUOUS
 62
    7
 10
192.95867701143379
 20
178.78418654299182
 40
0.5530864197530718
  0
CIRCLE
  8
_0-a_極細3
  6
CONTINUOUS
 62
    7
 10
206.64756590032269
 20
163.85085320965871
 40
0.5530864197530718
  0
CIRCLE
  8
_0-a_極細3
  6
CONTINUOUS
 62
    7
 10
199.71423256698927
 20
148.91751987632531
 40
0.5530864197530718
  0
CIRCLE
  8
_0-a_極細3
  6
CONTINUOUS
 62
    7
 10
183.04756590032275
 20
192.53233469113979
 40
0.5530864197530718
  0
CIRCLE
  8
_0-a_極細3
  6
CONTINUOUS
 62
    7
 10
197.80312145587828
 20
226.66566802447304
 40
0.5530864197530718
  0
CIRCLE
  8
_0-a_極細3
  6
CONTINUOUS
 62
    7
 10
212.91423256698906
 20
216.71011246891752
 40
0.5530864197530718
  0
CIRCLE
  8
_0-a_極細3
  6
CONTINUOUS
 62
    7
 10
213.44756590032239
 20
198.75455691336199
 40
0.5530864197530718
  0
CIRCLE
  8
_0-a_極細3
  6
CONTINUOUS
 62
    7
 10
178.20312145587835
 20
228.48789024669512
 40
0.5530864197530718
  0
CIRCLE
  8
_0-a_極細3
  6
CONTINUOUS
 62
    7
 10
157.91423256698954
 20
250.47184086397897
 40
1.825531472681392
  0
CIRCLE
  8
_0-a_極細3
  6
CONTINUOUS
 62
    7
 10
106.1521128655545
 20
257.40145513867674
 40
1.825531472681392
  0
CIRCLE
  8
_0-a_極細3
  6
CONTINUOUS
 62
    7
 10
132.69201034476737
 20
227.67184086397904
 40
1.825531472681392
  0
CIRCLE
  8
_0-a_極細3
  6
CONTINUOUS
 62
    7
 10
113.09201034476743
 20
189.6718408639795
 40
1.825531472681392
  0
CIRCLE
  8
_0-a_極細3
  6
CONTINUOUS
 62
    7
 10
166.29201034476679
 20
176.87184086397977
 40
1.825531472681392
  0
CIRCLE
  8
_0-a_極細3
  6
CONTINUOUS
 62
    7
 10
202.26978812254444
 20
173.27184086397983
 40
1.825531472681392
  0
CIRCLE
  8
_0-a_極細3
  6
CONTINUOUS
 62
    7
 10
207.0697881225442
 20
154.60517419731332
 40
1.825531472681392
  0
CIRCLE
  8
_0-a_極細3
  6
CONTINUOUS
 62
    7
 10
85.95503332447521
 20
258.29406308620105
 40
1.825531472681392
  0
LINE
  8
_0-a_極細3
  6
CONTINUOUS
 62
    7
 10
224.59732643683856
 20
243.25855390410905
 11
225.43065977017207
 21
243.25855390410905
  0
LINE
  8
_0-a_極細3
  6
CONTINUOUS
 62
    7
 10
225.43065977017207
 20
243.25855390410905
 11
225.43065977017207
 21
142.01695360932987
  0
CIRCLE
  8
_0-a_極細3
  6
CONTINUOUS
 62
    7
 10
218.5432256225431
 20
227.27184086397961
 40
1.825531472681392
  0
CIRCLE
  8
_0-a_極細3
  6
CONTINUOUS
 62
    7
 10
217.55126960402592
 20
172.56196432076968
 40
0.5530864197530718
  0
CIRCLE
  8
_0-a_極細3
  6
CONTINUOUS
 62
    7
 10
218.88460293735989
 20
149.90589328759981
 40
0.5530864197530718
  0
CIRCLE
  8
_0-a_極細3
  6
CONTINUOUS
 62
    7
 10
206.51423256698493
 20
208.16072975286875
 40
1.825531472681392
  0
LINE
  8
_0-a_極細3
  6
CONTINUOUS
 62
    7
 10
131.7905915496867
 20
193.14025506661253
 11
126.66028939980151
 21
207.23564437840108
  0
LINE
  8
_0-a_極細3
  6
CONTINUOUS
 62
    7
 10
181.78463422348301
 20
227.29926507764731
 11
186.91493637336819
 21
213.20387576585884
  0
LINE
  8
_0-a_極細3
  6
CONTINUOUS
 62
    7
 10
126.66028939980151
 20
207.23564437840108
 11
181.78463422348301
 21
227.29926507764731
  0
LINE
  8
_0-a_極細3
  6
CONTINUOUS
 62
    7
 10
131.7905915496867
 20
193.14025506661253
 11
186.91493637336819
 21
213.20387576585884
  0
LINE
  8
_0-a_極細3
  6
CENTER1
 62
    7
 10
124.27000708275138
 20
198.3843196824769
 11
188.3010275653173
 21
221.68970516751233
  0
LINE
  8
_0-a_極細3
  6
CONTINUOUS
 62
    7
 10
150.43065977017207
 20
168.25855390410908
 11
150.43065977017207
 21
212.34411525242513
  0
LINE
  8
_0-a_極細3
  6
CONTINUOUS
 62
    7
 10
150.43065977017207
 20
212.34411525242513
 11
135.43065977017207
 21
212.34411525242513
  0
LINE
  8
_0-a_極細3
  6
CONTINUOUS
 62
    7
 10
135.43065977017207
 20
212.34411525242513
 11
135.43065977017207
 21
168.25855390410908
  0
CIRCLE
  8
_0-a_極細3
  6
CONTINUOUS
 62
    7
 10
164.81052886328598
 20
198.18048283928789
 40
1.825531472681392
  0
CIRCLE
  8
_0-a_極細3
  6
CONTINUOUS
 62
    7
 10
186.51917083859459
 20
204.40270506151023
 40
1.825531472681392
  0
LINE
  8
_0-a_極細3
  6
CENTER1
 62
    7
 10
142.93065977017207
 20
159.98181361965612
 11
142.93065977017207
 21
216.61983541703466
  0
LINE
  8
_0-d_寸法3
  6
CONTINUOUS
 62
    7
 10
165.43065977017207
 20
273.25855390410908
 11
119.48062869158228
 21
273.25855390410902
  0
LINE
  8
_0-d_寸法3
  6
CONTINUOUS
 62
    7
 10
124.48062869158228
 20
273.25855390410902
 11
127.06881914260748
 21
263.5992956412183
  0
LINE
  8
_0-d_寸法3
  6
CONTINUOUS
 62
    7
 10
124.48062869158228
 20
273.25855390410902
 11
121.89243824055708
 21
263.59929564121836
  0
LINE
  8
_0-d_寸法3
  6
CONTINUOUS
 62
    7
 10
163.43065977017204
 20
243.25855390410908
 11
119.48062869158278
 21
243.25855390410908
  0
LINE
  8
_0-d_寸法3
  6
CONTINUOUS
 62
    7
 10
124.48062869158278
 20
243.25855390410905
 11
121.89243824055751
 21
252.91781216699974
  0
LINE
  8
_0-d_寸法3
  6
CONTINUOUS
 62
    7
 10
124.48062869158278
 20
243.25855390410905
 11
127.06881914260791
 21
252.91781216699974
  0
LINE
  8
_0-d_寸法3
  6
CONTINUOUS
 62
    7
 10
124.48062869158228
 20
273.25855390410902
 11
124.48062869158278
 21
243.25855390410905
  0
TEXT
  8
_0-d_寸法3
 62
    7
 10
124.48062869158278
 20
250.75855390410905
 40
15
 41
1
 50
90
  1
18
  0
LINE
  8
_0-d_寸法3
  6
CONTINUOUS
 62
    7
 10
165.43065977017207
 20
243.25855390410882
 11
119.48062869158278
 21
243.25855390410882
  0
LINE
  8
_0-d_寸法3
  6
CONTINUOUS
 62
    7
 10
124.48062869158278
 20
243.25855390410879
 11
127.06881914260791
 21
233.59929564121813
  0
LINE
  8
_0-d_寸法3
  6
CONTINUOUS
 62
    7
 10
124.48062869158278
 20
243.25855390410879
 11
121.89243824055751
 21
233.59929564121813
  0
LINE
  8
_0-d_寸法3
  6
CONTINUOUS
 62
    7
 10
163.43065977017204
 20
204.92522057077559
 11
119.48062869158278
 21
204.92522057077559
  0
LINE
  8
_0-d_寸法3
  6
CONTINUOUS
 62
    7
 10
124.48062869158278
 20
204.92522057077551
 11
121.89243824055751
 21
214.58447883366625
  0
LINE
  8
_0-d_寸法3
  6
CONTINUOUS
 62
    7
 10
124.48062869158278
 20
204.92522057077551
 11
127.06881914260791
 21
214.58447883366625
  0
LINE
  8
_0-d_寸法3
  6
CONTINUOUS
 62
    7
 10
124.48062869158278
 20
243.25855390410879
 11
124.48062869158278
 21
204.92522057077551
  0
TEXT
  8
_0-d_寸法3
 62
    7
 10
124.48062869158278
 20
216.59188723744228
 40
15
 41
1
 50
90
  1
23
  0
LINE
  8
_0-d_寸法3
  6
CONTINUOUS
 62
    7
 10
175.43065977017207
 20
194.92522057077579
 11
175.43065977017207
 21
177.78052866987039
  0
LINE
  8
_0-d_寸法3
  6
CONTINUOUS
 62
    7
 10
175.43065977017207
 20
182.78052866987039
 11
185.08991803306273
 21
185.36871912089561
  0
LINE
  8
_0-d_寸法3
  6
CONTINUOUS
 62
    7
 10
175.43065977017207
 20
182.78052866987039
 11
185.08991803306273
 21
180.19233821884512
  0
LINE
  8
_0-d_寸法3
  6
CONTINUOUS
 62
    7
 10
225.43065977017193
 20
233.25855390410905
 11
225.43065977017108
 21
177.78052866987039
  0
LINE
  8
_0-d_寸法3
  6
CONTINUOUS
 62
    7
 10
225.43065977017113
 20
182.78052866987039
 11
215.77140150728042
 21
180.19233821884518
  0
LINE
  8
_0-d_寸法3
  6
CONTINUOUS
 62
    7
 10
225.43065977017113
 20
182.78052866987039
 11
215.77140150728047
 21
185.36871912089566
  0
LINE
  8
_0-d_寸法3
  6
CONTINUOUS
 62
    7
 10
175.43065977017207
 20
182.78052866987039
 11
225.43065977017113
 21
182.78052866987039
  0
TEXT
  8
_0-d_寸法3
 62
    7
 10
192.93065977017164
 20
182.78052866987039
 40
15
 41
1
 50
0
  1
30
  0
ARC
  8
_0-b_細線3
  6
CONTINUOUS
 62
    7
 10
180.43065977017207
 20
248.25855390410905
 40
5
 50
179.99999999999983
 51
269.99999999999977
  0
LINE
  8
_0-b_細線3
  6
CONTINUOUS
 62
    7
 10
175.43065977017207
 20
248.25855390410905
 11
175.43065977017207
 21
272.42522057077554
  0
LINE
  8
_0-b_細線3
  6
CONTINUOUS
 62
    7
 10
180.43065977017207
 20
243.25855390410905
 11
224.59732643683856
 21
243.25855390410905
  0
LINE
  8
_0-b_細線3
  6
CONTINUOUS
 62
    7
 10
225.43065977017207
 20
244.09188723744228
 11
224.59732643683856
 21
243.25855390410905
  0
LINE
  8
_0-b_細線3
  6
CONTINUOUS
 62
    7
 10
225.43065977017207
 20
247.42522057077579
 11
225.43065977017207
 21
244.09188723744228
  0
LINE
  8
_0-b_細線3
  6
CONTINUOUS
 62
    7
 10
224.59732643683856
 20
248.25855390410905
 11
225.43065977017207
 21
247.42522057077579
  0
LINE
  8
_0-b_細線3
  6
CONTINUOUS
 62
    7
 10
180.43065977017207
 20
248.25855390410905
 11
224.59732643683856
 21
248.25855390410905
  0
LINE
  8
_0-b_細線3
  6
CONTINUOUS
 62
    7
 10
176.26399310350507
 20
273.25855390410902
 11
175.43065977017207
 21
272.42522057077554
  0
LINE
  8
_0-b_細線3
  6
CONTINUOUS
 62
    7
 10
179.59732643683856
 20
273.25855390410902
 11
176.26399310350507
 21
273.25855390410902
  0
LINE
  8
_0-b_細線3
  6
CONTINUOUS
 62
    7
 10
180.43065977017207
 20
272.42522057077554
 11
179.59732643683856
 21
273.25855390410902
  0
LINE
  8
_0-b_細線3
  6
CONTINUOUS
 62
    7
 10
180.43065977017207
 20
248.25855390410905
 11
180.43065977017207
 21
272.42522057077554
  0
CIRCLE
  8
_0-a_極細3
  6
CONTINUOUS
 62
    7
 10
837.42534367809697
 20
258.52400135780567
 40
0.5530864197530718
  0
CIRCLE
  8
_0-a_極細3
  6
CONTINUOUS
 62
    7
 10
785.42534367809731
 20
259.45733469113907
 40
0.5530864197530718
  0
LINE
  8
_0-a_極細3
  6
CONTINUOUS
 62
    7
 10
773.76399310350507
 20
273.25855390410902
 11
773.76399310350507
 21
261.59188723744205
  0
LINE
  8
_0-a_極細3
  6
CONTINUOUS
 62
    7
 10
773.76399310350507
 20
273.25855390410902
 11
862.94174024861968
 21
273.25855390410902
  0
LINE
  8
_0-a_極細3
  6
CONTINUOUS
 62
    7
 10
765.43065977017159
 20
261.59188723744205
 11
862.94174024861968
 21
261.59188723744205
  0
LINE
  8
_0-a_極細3
  6
CONTINUOUS
 62
    7
 10
765.43065977017159
 20
273.25855390410902
 11
773.76399310350507
 21
273.25855390410902
  0
LINE
  8
_0-a_極細3
  6
CONTINUOUS
 62
    7
 10
765.43065977017159
 20
272.42522057077554
 11
765.43065977017159
 21
273.25855390410902
  0
LINE
  8
_0-a_極細3
  6
CONTINUOUS
 62
    7
 10
773.76399310350507
 20
265.26097351816702
 11
770.0949068227801
 21
261.59188723744205
  0
LINE
  8
_0-a_極細3
  6
CONTINUOUS
 62
    7
 10
773.76399310350507
 20
269.50361420528611
 11
765.85226613566101
 21
261.59188723744205
  0
LINE
  8
_0-a_極細3
  6
CONTINUOUS
 62
    7
 10
765.43065977017159
 20
265.41292155907217
 11
773.27629211520843
 21
273.25855390410902
  0
LINE
  8
_0-a_極細3
  6
CONTINUOUS
 62
    7
 10
765.43065977017159
 20
269.65556224619149
 11
769.03365142808889
 21
273.25855390410879
  0
LINE
  8
_0-a_極細3
  6
CONTINUOUS
 62
    7
 10
773.76399310350507
 20
271.7492316946034
 11
772.25467089399956
 21
273.25855390410902
  0
LINE
  8
_0-a_極細3
  6
CONTINUOUS
 62
    7
 10
773.76399310350507
 20
267.50659100748408
 11
768.01203020688035
 21
273.25855390410902
  0
LINE
  8
_0-a_極細3
  6
CONTINUOUS
 62
    7
 10
773.76399310350507
 20
263.26395032036476
 11
765.43065977017159
 21
271.59728365369824
  0
LINE
  8
_0-a_極細3
  6
CONTINUOUS
 62
    7
 10
771.19341549930823
 20
261.59188723744205
 11
765.43065977017159
 21
267.35464296657892
  0
LINE
  8
_0-a_極細3
  6
CONTINUOUS
 62
    7
 10
766.95077481218914
 20
261.59188723744205
 11
765.43065977017159
 21
263.1120022794596
  0
LINE
  8
_0-a_極細3
  6
CONTINUOUS
 62
    7
 10
842.21979850380785
 20
261.59188723744205
 11
853.88646454368563
 21
273.25855327731983
  0
LINE
  8
_0-a_極細3
  6
CONTINUOUS
 62
    7
 10
821.0065950682116
 20
261.59188723744228
 11
832.67326127403805
 21
273.25855344326851
  0
LINE
  8
_0-a_極細3
  6
CONTINUOUS
 62
    7
 10
799.79339163261511
 20
261.59188723744205
 11
811.46005800438979
 21
273.25855360921673
  0
LINE
  8
_0-a_極細3
  6
CONTINUOUS
 62
    7
 10
778.58018819701886
 20
261.59188723744205
 11
790.24685473474221
 21
273.25855377516541
  0
LINE
  8
_0-a_極細3
  6
DASHED2
 62
    7
 10
852.82640022160649
 20
261.59188723744228
 11
862.94174024861968
 21
271.7072272644557
  0
LINE
  8
_0-a_極細3
  6
DASHED2
 62
    7
 10
831.61319678600978
 20
261.59188723744205
 11
843.27986290886156
 21
273.25855336029394
  0
LINE
  8
_0-a_極細3
  6
DASHED2
 62
    7
 10
810.3999933504133
 20
261.59188723744205
 11
822.06665963921398
 21
273.25855352624262
  0
LINE
  8
_0-a_極細3
  6
DASHED2
 62
    7
 10
789.18678991481693
 20
261.59188723744205
 11
800.85345636956572
 21
273.25855369219107
  0
LINE
  8
_0-a_極細3
  6
DASHED2
 62
    7
 10
773.76399310350507
 20
267.38229386172657
 11
779.64025309991814
 21
273.25855385813952
  0
LINE
  8
_0-a_極細3
  6
CONTINUOUS
 62
    7
 10
832.09732643683822
 20
236.59188723744228
 11
832.09732643683822
 21
168.25855390410908
  0
LINE
  8
_0-a_極細3
  6
CONTINUOUS
 62
    7
 10
748.76399310350507
 20
168.25855390410908
 11
832.09732643683822
 21
168.25855390410908
  0
LINE
  8
_0-a_極細3
  6
CONTINUOUS
 62
    7
 10
832.09732643683822
 20
236.59188723744228
 11
862.94174024861968
 21
236.59188723744228
  0
LINE
  8
_0-a_極細3
  6
CONTINUOUS
 62
    7
 10
748.76399310350507
 20
168.25855390410908
 11
748.76399310350507
 21
142.01695360932987
  0
LINE
  8
_0-a_極細3
  6
CONTINUOUS
 62
    7
 10
840.38732885143145
 20
142.01695360932987
 11
862.94174029016051
 21
164.57136504805888
  0
LINE
  8
_0-a_極細3
  6
CONTINUOUS
 62
    7
 10
769.67665073277658
 20
142.01695360932987
 11
795.91825102755547
 21
168.25855390410908
  0
LINE
  8
_0-a_極細3
  6
CONTINUOUS
 62
    7
 10
832.09732643683822
 20
204.43762931339165
 11
862.94174024937502
 21
235.2820431259286
  0
LINE
  8
_0-a_極細3
  6
CONTINUOUS
 62
    7
 10
833.3162610395658
 20
142.01695360932987
 11
862.94174028608177
 21
171.64243285584604
  0
LINE
  8
_0-a_極細3
  6
CONTINUOUS
 62
    7
 10
762.60558292091093
 20
142.01695360932987
 11
788.84718321569028
 21
168.25855390410908
  0
LINE
  8
_0-a_極細3
  6
CONTINUOUS
 62
    7
 10
832.09732643683822
 20
211.50869712525719
 11
857.18051636947303
 21
236.59188705789191
  0
LINE
  8
_0-a_極細3
  6
CONTINUOUS
 62
    7
 10
826.24519322770038
 20
142.01695360932987
 11
862.94174028200314
 21
178.71350066363291
  0
LINE
  8
_0-a_極細3
  6
CONTINUOUS
 62
    7
 10
755.53451510904551
 20
142.01695360932987
 11
781.77611540382486
 21
168.25855390410908
  0
LINE
  8
_0-a_極細3
  6
CONTINUOUS
 62
    7
 10
832.09732643683822
 20
218.57976493712272
 11
850.10944860822394
 21
236.59188710850799
  0
CIRCLE
  8
_0-a_極細3
  6
CONTINUOUS
 62
    7
 10
735.1697881225424
 20
227.11289024669512
 40
0.5530864197530718
  0
CIRCLE
  8
_0-a_極細3
  6
CONTINUOUS
 62
    7
 10
745.12534367809758
 20
231.91289024669504
 40
0.5530864197530718
  0
CIRCLE
  8
_0-a_極細3
  6
CONTINUOUS
 62
    7
 10
741.03645478920907
 20
206.93511246891762
 40
0.5530864197530718
  0
CIRCLE
  8
_0-a_極細3
  6
CONTINUOUS
 62
    7
 10
758.56978812254238
 20
189.91289024669555
 40
0.5530864197530718
  0
CIRCLE
  8
_0-a_極細3
  6
CONTINUOUS
 62
    7
 10
740.73645478920889
 20
166.61289024669577
 40
0.5530864197530718
  0
CIRCLE
  8
_0-a_極細3
  6
CONTINUOUS
 62
    7
 10
731.40312145587586
 20
148.74622358002924
 40
0.5530864197530718
  0
CIRCLE
  8
_0-a_極細3
  6
CONTINUOUS
 62
    7
 10
742.86978812254222
 20
178.6128902466956
 40
0.5530864197530718
  0
CIRCLE
  8
_0-a_極細3
  6
CONTINUOUS
 62
    7
 10
756.73645478920889
 20
173.81289024669556
 40
0.5530864197530718
  0
CIRCLE
  8
_0-a_極細3
  6
CONTINUOUS
 62
    7
 10
783.66978812254229
 20
174.07955691336227
 40
0.5530864197530718
  0
CIRCLE
  8
_0-a_極細3
  6
CONTINUOUS
 62
    7
 10
771.66978812254229
 20
183.14622358002885
 40
0.5530864197530718
  0
CIRCLE
  8
_0-a_極細3
  6
CONTINUOUS
 62
    7
 10
782.86978812254222
 20
188.74622358002881
 40
0.5530864197530718
  0
CIRCLE
  8
_0-a_極細3
  6
CONTINUOUS
 62
    7
 10
770.892010344764
 20
243.03511246891708
 40
0.5530864197530718
  0
CIRCLE
  8
_0-a_極細3
  6
CONTINUOUS
 62
    7
 10
791.42534367809731
 20
242.32400135780608
 40
0.5530864197530718
  0
CIRCLE
  8
_0-a_極細3
  6
CONTINUOUS
 62
    7
 10
779.82534367809751
 20
228.32400135780608
 40
0.5530864197530718
  0
CIRCLE
  8
_0-a_極細3
  6
CONTINUOUS
 62
    7
 10
819.02534367809722
 20
175.12400135780672
 40
0.5530864197530718
  0
CIRCLE
  8
_0-a_極細3
  6
CONTINUOUS
 62
    7
 10
826.22534367809703
 20
189.12400135780672
 40
0.5530864197530718
  0
CIRCLE
  8
_0-a_極細3
  6
CONTINUOUS
 62
    7
 10
824.62534367809667
 20
209.92400135780645
 40
0.5530864197530718
  0
CIRCLE
  8
_0-a_極細3
  6
CONTINUOUS
 62
    7
 10
806.62534367809712
 20
231.12400135780629
 40
0.5530864197530718
  0
CIRCLE
  8
_0-a_極細3
  6
CONTINUOUS
 62
    7
 10
823.42534367809685
 20
250.72400135780597
 40
0.5530864197530718
  0
CIRCLE
  8
_0-a_極細3
  6
CONTINUOUS
 62
    7
 10
820.62534367809678
 20
223.92400135780622
 40
0.5530864197530718
  0
CIRCLE
  8
_0-a_極細3
  6
CONTINUOUS
 62
    7
 10
850.22534367809669
 20
245.12400135780607
 40
0.5530864197530718
  0
CIRCLE
  8
_0-a_極細3
  6
CONTINUOUS
 62
    7
 10
845.42534367809651
 20
258.89406308620096
 40
1.825531472681392
  0
CIRCLE
  8
_0-a_極細3
  6
CONTINUOUS
 62
    7
 10
829.78089923365235
 20
243.42739641953449
 40
1.825531472681392
  0
CIRCLE
  8
_0-a_極細3
  6
CONTINUOUS
 62
    7
 10
774.35867701143081
 20
250.00517419731227
 40
1.825531472681392
  0
CIRCLE
  8
_0-a_極細3
  6
CONTINUOUS
 62
    7
 10
806.35867701143025
 20
218.0051741973125
 40
1.825531472681392
  0
CIRCLE
  8
_0-a_極細3
  6
CONTINUOUS
 62
    7
 10
735.96423256698699
 20
173.455174197313
 40
1.825531472681392
  0
CIRCLE
  8
_0-a_極細3
  6
CONTINUOUS
 62
    7
 10
746.18645478920871
 20
203.32184086397959
 40
1.825531472681392
  0
CIRCLE
  8
_0-a_極細3
  6
CONTINUOUS
 62
    7
 10
781.38645478920864
 20
180.9218408639797
 40
1.825531472681392
  0
CIRCLE
  8
_0-a_極細3
  6
CONTINUOUS
 62
    7
 10
827.65164742449224
 20
170.73478847201022
 40
1.825531472681392
  0
CIRCLE
  8
_0-a_極細3
  6
CONTINUOUS
 62
    7
 10
776.98645478920855
 20
224.12184086397929
 40
1.825531472681392
  0
CIRCLE
  8
_0-a_極細3
  6
CONTINUOUS
 62
    7
 10
729.52040540649296
 20
218.69863545694287
 40
0.5530864197530718
  0
CIRCLE
  8
_0-a_極細3
  6
CONTINUOUS
 62
    7
 10
729.72040540649368
 20
194.74307990138755
 40
0.5530864197530718
  0
CIRCLE
  8
_0-a_極細3
  6
CONTINUOUS
 62
    7
 10
806.75867701143034
 20
255.47184086397897
 40
1.825531472681392
  0
LINE
  8
_0-a_極細3
  6
CONTINUOUS
 62
    7
 10
716.26399310350416
 20
243.25855390410905
 11
715.43065977017125
 21
243.25855390410905
  0
LINE
  8
_0-a_極細3
  6
CONTINUOUS
 62
    7
 10
715.43065977017125
 20
243.25855390410905
 11
715.43065977017125
 21
142.01695360932987
  0
CIRCLE
  8
_0-a_極細3
  6
CONTINUOUS
 62
    7
 10
721.4150556122546
 20
203.20177913558425
 40
0.5530864197530718
  0
CIRCLE
  8
_0-a_極細3
  6
CONTINUOUS
 62
    7
 10
722.72163997439429
 20
163.94622358002906
 40
0.5530864197530718
  0
CIRCLE
  8
_0-a_極細3
  6
CONTINUOUS
 62
    7
 10
722.0827510855047
 20
229.89961864175757
 40
1.825531472681392
  0
CIRCLE
  8
_0-a_極細3
  6
CONTINUOUS
 62
    7
 10
725.03089923365269
 20
157.27739641953505
 40
1.825531472681392
  0
LINE
  8
_0-a_極細3
  6
CONTINUOUS
 62
    7
 10
809.07072799065702
 20
193.14025506661253
 11
814.20103014054223
 21
207.23564437840108
  0
LINE
  8
_0-a_極細3
  6
CONTINUOUS
 62
    7
 10
759.07668531686068
 20
227.29926507764731
 11
753.94638316697592
 21
213.20387576585884
  0
LINE
  8
_0-a_極細3
  6
CONTINUOUS
 62
    7
 10
814.20103014054223
 20
207.23564437840108
 11
759.07668531686068
 21
227.29926507764731
  0
LINE
  8
_0-a_極細3
  6
CONTINUOUS
 62
    7
 10
809.07072799065702
 20
193.14025506661253
 11
753.94638316697592
 21
213.20387576585884
  0
LINE
  8
_0-a_極細3
  6
CENTER1
 62
    7
 10
816.59131245759227
 20
198.3843196824769
 11
752.56029197502687
 21
221.68970516751233
  0
LINE
  8
_0-a_極細3
  6
CONTINUOUS
 62
    7
 10
790.43065977017159
 20
168.25855390410908
 11
790.43065977017159
 21
212.34411525242513
  0
LINE
  8
_0-a_極細3
  6
CONTINUOUS
 62
    7
 10
790.43065977017159
 20
212.34411525242513
 11
805.43065977017159
 21
212.34411525242513
  0
LINE
  8
_0-a_極細3
  6
CONTINUOUS
 62
    7
 10
805.43065977017159
 20
212.34411525242513
 11
805.43065977017159
 21
168.25855390410908
  0
LINE
  8
_0-a_極細3
  6
CENTER1
 62
    7
 10
797.93065977017159
 20
159.98181361965612
 11
797.93065977017159
 21
216.61983541703466
  0
CIRCLE
  8
_0-a_極細3
  6
CONTINUOUS
 62
    7
 10
792.04756590032002
 20
225.4202976541026
 40
0.5530864197530718
  0
CIRCLE
  8
_0-a_極細3
  6
CONTINUOUS
 62
    7
 10
814.26375245724694
 20
212.07708777755968
 40
0.5530864197530718
  0
LINE
  8
_0-d_寸法3
  6
CONTINUOUS
 62
    7
 10
765.43065977017204
 20
194.92522057077579
 11
765.43065977017204
 21
177.78052866987039
  0
LINE
  8
_0-d_寸法3
  6
CONTINUOUS
 62
    7
 10
765.43065977017204
 20
182.78052866987039
 11
755.77140150728144
 21
180.19233821884512
  0
LINE
  8
_0-d_寸法3
  6
CONTINUOUS
 62
    7
 10
765.43065977017204
 20
182.78052866987039
 11
755.77140150728144
 21
185.36871912089561
  0
LINE
  8
_0-d_寸法3
  6
CONTINUOUS
 62
    7
 10
715.43065977017204
 20
233.25855390410905
 11
715.43065977017204
 21
177.78052866987039
  0
LINE
  8
_0-d_寸法3
  6
CONTINUOUS
 62
    7
 10
715.43065977017204
 20
182.78052866987039
 11
725.08991803306276
 21
185.36871912089566
  0
LINE
  8
_0-d_寸法3
  6
CONTINUOUS
 62
    7
 10
715.43065977017204
 20
182.78052866987039
 11
725.08991803306276
 21
180.19233821884518
  0
LINE
  8
_0-d_寸法3
  6
CONTINUOUS
 62
    7
 10
765.43065977017204
 20
182.78052866987039
 11
715.43065977017204
 21
182.78052866987039
  0
TEXT
  8
_0-d_寸法3
 62
    7
 10
732.93065977017204
 20
182.78052866987039
 40
15
 41
1
 50
0
  1
30
  0
ARC
  8
_0-b_細線3
  6
CONTINUOUS
 62
    7
 10
760.43065977017159
 20
248.25855390410905
 40
5
 50
269.99999999999977
 51
359.99999999999966
  0
LINE
  8
_0-b_細線3
  6
CONTINUOUS
 62
    7
 10
765.43065977017159
 20
248.25855390410905
 11
765.43065977017159
 21
272.42522057077554
  0
LINE
  8
_0-b_細線3
  6
CONTINUOUS
 62
    7
 10
760.43065977017159
 20
243.25855390410905
 11
716.26399310350416
 21
243.25855390410905
  0
LINE
  8
_0-b_細線3
  6
CONTINUOUS
 62
    7
 10
715.43065977017125
 20
244.09188723744228
 11
716.26399310350416
 21
243.25855390410905
  0
LINE
  8
_0-b_細線3
  6
CONTINUOUS
 62
    7
 10
715.43065977017125
 20
247.42522057077579
 11
715.43065977017125
 21
244.09188723744228
  0
LINE
  8
_0-b_細線3
  6
CONTINUOUS
 62
    7
 10
716.26399310350416
 20
248.25855390410905
 11
715.43065977017125
 21
247.42522057077579
  0
LINE
  8
_0-b_細線3
  6
CONTINUOUS
 62
    7
 10
760.43065977017159
 20
248.25855390410905
 11
716.26399310350416
 21
248.25855390410905
  0
LINE
  8
_0-b_細線3
  6
CONTINUOUS
 62
    7
 10
764.59732643683867
 20
273.25855390410902
 11
765.43065977017159
 21
272.42522057077554
  0
LINE
  8
_0-b_細線3
  6
CONTINUOUS
 62
    7
 10
761.26399310350507
 20
273.25855390410902
 11
764.59732643683867
 21
273.25855390410902
  0
LINE
  8
_0-b_細線3
  6
CONTINUOUS
 62
    7
 10
760.43065977017159
 20
272.42522057077554
 11
761.26399310350507
 21
273.25855390410902
  0
LINE
  8
_0-b_細線3
  6
CONTINUOUS
 62
    7
 10
760.43065977017159
 20
248.25855390410905
 11
760.43065977017159
 21
272.42522057077554
  0
LINE
  8
_0-d_寸法3
  6
CONTINUOUS
 62
    7
 10
175.43065977017207
 20
278.25855390410902
 11
175.43065977017207
 21
388.2585522357644
  0
LINE
  8
_0-d_寸法3
  6
CONTINUOUS
 62
    7
 10
175.43065977017207
 20
383.25855223576434
 11
185.08991803306273
 21
385.84674268678953
  0
LINE
  8
_0-d_寸法3
  6
CONTINUOUS
 62
    7
 10
175.43065977017207
 20
383.25855223576434
 11
185.08991803306273
 21
380.67036178473921
  0
LINE
  8
_0-d_寸法3
  6
CONTINUOUS
 62
    7
 10
765.43065977017159
 20
278.25855390410902
 11
765.43065977017204
 21
388.2585522357644
  0
LINE
  8
_0-d_寸法3
  6
CONTINUOUS
 62
    7
 10
765.43065977017204
 20
383.25855223576434
 11
755.77140150728144
 21
380.67036178473921
  0
LINE
  8
_0-d_寸法3
  6
CONTINUOUS
 62
    7
 10
765.43065977017204
 20
383.25855223576434
 11
755.77140150728144
 21
385.84674268678958
  0
LINE
  8
_0-d_寸法3
  6
CONTINUOUS
 62
    7
 10
175.43065977017207
 20
383.25855223576434
 11
765.43065977017204
 21
383.25855223576434
  0
TEXT
  8
_0-d_寸法3
 62
    7
 10
459.18065977017204
 20
383.25855223576434
 40
15
 41
1
 50
0
  1
354
  0
LINE
  8
_0-d_寸法3
  6
CONTINUOUS
 62
    7
 10
225.43065977017207
 20
238.25855390410905
 11
225.43065977017207
 21
177.78052866987039
  0
LINE
  8
_0-d_寸法3
  6
CONTINUOUS
 62
    7
 10
225.43065977017207
 20
182.78052866987039
 11
235.08991803306273
 21
185.36871912089561
  0
LINE
  8
_0-d_寸法3
  6
CONTINUOUS
 62
    7
 10
225.43065977017207
 20
182.78052866987039
 11
235.08991803306273
 21
180.19233821884512
  0
LINE
  8
_0-d_寸法3
  6
CONTINUOUS
 62
    7
 10
715.43065977017125
 20
238.25855390410905
 11
715.43065977017125
 21
177.78052866987039
  0
LINE
  8
_0-d_寸法3
  6
CONTINUOUS
 62
    7
 10
715.43065977017125
 20
182.78052866987039
 11
705.77140150728042
 21
180.19233821884518
  0
LINE
  8
_0-d_寸法3
  6
CONTINUOUS
 62
    7
 10
715.43065977017125
 20
182.78052866987039
 11
705.77140150728042
 21
185.36871912089566
  0
LINE
  8
_0-d_寸法3
  6
CONTINUOUS
 62
    7
 10
225.43065977017207
 20
182.78052866987039
 11
715.43065977017125
 21
182.78052866987039
  0
TEXT
  8
_0-d_寸法3
 62
    7
 10
459.18065977017164
 20
182.78052866987039
 40
15
 41
1
 50
0
  1
294
  0
LINE
  8
_0-a_極細3
  6
CENTER1
 62
    7
 10
768.09741483799371
 20
259.92522057077588
 11
173.77666732563148
 21
259.92522057077588
  0
ARC
  8
_0-b_細線3
  6
CONTINUOUS
 62
    7
 10
505.43065977017204
 20
350.78769486113799
 40
97.696522151886498
 50
263.73185704547677
 51
276.2681429545222
  0
ARC
  8
_0-b_細線3
  6
CONTINUOUS
 62
    7
 10
505.43065977017204
 20
169.06274628041331
 40
97.696522151886498
 50
83.731857045477128
 51
96.268142954522872
  0
ARC
  8
_0-b_細線3
  6
CONTINUOUS
 62
    7
 10
482.09732643683856
 20
350.78769486113799
 40
97.696522151886498
 50
263.73185704547677
 51
276.26814295452255
  0
ARC
  8
_0-b_細線3
  6
CONTINUOUS
 62
    7
 10
482.09732643683856
 20
169.06274628041331
 40
97.696522151886498
 50
83.731857045477128
 51
96.268142954522872
  0
LINE
  8
_0-b_細線3
  6
CONTINUOUS
 62
    7
 10
477.09732643683856
 20
271.25855390410891
 11
477.09732643683856
 21
273.25855390410891
  0
LINE
  8
_0-b_細線3
  6
CONTINUOUS
 62
    7
 10
471.4306597701725
 20
271.25855390410891
 11
477.09732643683856
 21
271.25855390410891
  0
LINE
  8
_0-b_細線3
  6
CONTINUOUS
 62
    7
 10
471.4306597701725
 20
248.25855390410894
 11
471.4306597701725
 21
271.25855390410891
  0
LINE
  8
_0-b_細線3
  6
CONTINUOUS
 62
    7
 10
469.43065977017204
 20
248.25855390410894
 11
471.4306597701725
 21
248.25855390410894
  0
LINE
  8
_0-b_細線3
  6
CONTINUOUS
 62
    7
 10
469.43065977017204
 20
271.25855390410891
 11
469.43065977017204
 21
248.25855390410894
  0
LINE
  8
_0-b_細線3
  6
CONTINUOUS
 62
    7
 10
463.76399310350507
 20
271.25855390410891
 11
469.43065977017204
 21
271.25855390410891
  0
LINE
  8
_0-b_細線3
  6
CONTINUOUS
 62
    7
 10
463.76399310350507
 20
273.25855390410891
 11
463.76399310350507
 21
271.25855390410891
  0
LINE
  8
_0-b_細線3
  6
CONTINUOUS
 62
    7
 10
477.09732643683856
 20
273.25855390410891
 11
463.76399310350507
 21
273.25855390410891
  0
LINE
  8
_0-b_細線3
  6
CONTINUOUS
 62
    7
 10
500.4306597701725
 20
271.25855390410891
 11
500.4306597701725
 21
273.25855390410891
  0
LINE
  8
_0-b_細線3
  6
CONTINUOUS
 62
    7
 10
494.76399310350507
 20
271.25855390410891
 11
500.4306597701725
 21
271.25855390410891
  0
LINE
  8
_0-b_細線3
  6
CONTINUOUS
 62
    7
 10
494.76399310350507
 20
248.25855390410894
 11
494.76399310350507
 21
271.25855390410891
  0
LINE
  8
_0-b_細線3
  6
CONTINUOUS
 62
    7
 10
492.76399310350553
 20
248.25855390410894
 11
494.76399310350507
 21
248.25855390410894
  0
LINE
  8
_0-b_細線3
  6
CONTINUOUS
 62
    7
 10
492.76399310350553
 20
271.25855390410891
 11
492.76399310350553
 21
248.25855390410894
  0
LINE
  8
_0-b_細線3
  6
CONTINUOUS
 62
    7
 10
487.09732643683907
 20
271.25855390410891
 11
492.76399310350553
 21
271.25855390410891
  0
LINE
  8
_0-b_細線3
  6
CONTINUOUS
 62
    7
 10
487.09732643683907
 20
273.25855390410891
 11
487.09732643683907
 21
271.25855390410891
  0
LINE
  8
_0-b_細線3
  6
CONTINUOUS
 62
    7
 10
500.4306597701725
 20
273.25855390410891
 11
487.09732643683907
 21
273.25855390410891
  0
ARC
  8
_0-b_細線3
  6
CONTINUOUS
 62
    7
 10
458.76399310350507
 20
350.78769486113799
 40
97.696522151886498
 50
263.73185704547706
 51
276.26814295452255
  0
ARC
  8
_0-b_細線3
  6
CONTINUOUS
 62
    7
 10
458.76399310350507
 20
169.06274628041331
 40
97.696522151886498
 50
83.731857045477128
 51
96.268142954522617
  0
LINE
  8
_0-b_細線3
  6
CONTINUOUS
 62
    7
 10
453.76399310350507
 20
271.25855390410891
 11
453.76399310350507
 21
273.25855390410891
  0
LINE
  8
_0-b_細線3
  6
CONTINUOUS
 62
    7
 10
448.09732643683901
 20
271.25855390410891
 11
453.76399310350507
 21
271.25855390410891
  0
LINE
  8
_0-b_細線3
  6
CONTINUOUS
 62
    7
 10
448.09732643683901
 20
248.25855390410894
 11
448.09732643683901
 21
271.25855390410891
  0
LINE
  8
_0-b_細線3
  6
CONTINUOUS
 62
    7
 10
446.09732643683907
 20
248.25855390410894
 11
448.09732643683901
 21
248.25855390410894
  0
LINE
  8
_0-b_細線3
  6
CONTINUOUS
 62
    7
 10
446.09732643683907
 20
271.25855390410891
 11
446.09732643683907
 21
248.25855390410894
  0
LINE
  8
_0-b_細線3
  6
CONTINUOUS
 62
    7
 10
440.43065977017204
 20
271.25855390410891
 11
446.09732643683907
 21
271.25855390410891
  0
LINE
  8
_0-b_細線3
  6
CONTINUOUS
 62
    7
 10
440.43065977017204
 20
273.25855390410891
 11
440.43065977017204
 21
271.25855390410891
  0
LINE
  8
_0-b_細線3
  6
CONTINUOUS
 62
    7
 10
453.76399310350507
 20
273.25855390410891
 11
440.43065977017204
 21
273.25855390410891
  0
ARC
  8
_0-b_細線3
  6
CONTINUOUS
 62
    7
 10
435.43065977017204
 20
350.78769486113799
 40
97.696522151886498
 50
263.73185704547677
 51
276.2681429545222
  0
ARC
  8
_0-b_細線3
  6
CONTINUOUS
 62
    7
 10
435.43065977017204
 20
169.06274628041331
 40
97.696522151886498
 50
83.731857045477398
 51
96.268142954522872
  0
ARC
  8
_0-b_細線3
  6
CONTINUOUS
 62
    7
 10
528.76399310350462
 20
350.78769486113799
 40
97.696522151886498
 50
263.73185704547706
 51
276.26814295452255
  0
ARC
  8
_0-b_細線3
  6
CONTINUOUS
 62
    7
 10
528.76399310350462
 20
169.06274628041331
 40
97.696522151886498
 50
83.731857045477128
 51
96.268142954522617
  0
LINE
  8
_0-b_細線3
  6
CONTINUOUS
 62
    7
 10
523.76399310350507
 20
271.25855390410891
 11
523.76399310350507
 21
273.25855390410891
  0
LINE
  8
_0-b_細線3
  6
CONTINUOUS
 62
    7
 10
518.0973264368381
 20
271.25855390410891
 11
523.76399310350507
 21
271.25855390410891
  0
LINE
  8
_0-b_細線3
  6
CONTINUOUS
 62
    7
 10
518.0973264368381
 20
248.25855390410894
 11
518.0973264368381
 21
271.25855390410891
  0
LINE
  8
_0-b_細線3
  6
CONTINUOUS
 62
    7
 10
516.09732643683856
 20
248.25855390410894
 11
518.0973264368381
 21
248.25855390410894
  0
LINE
  8
_0-b_細線3
  6
CONTINUOUS
 62
    7
 10
516.09732643683856
 20
271.25855390410891
 11
516.09732643683856
 21
248.25855390410894
  0
LINE
  8
_0-b_細線3
  6
CONTINUOUS
 62
    7
 10
510.43065977017164
 20
271.25855390410891
 11
516.09732643683856
 21
271.25855390410891
  0
LINE
  8
_0-b_細線3
  6
CONTINUOUS
 62
    7
 10
510.43065977017164
 20
273.25855390410891
 11
510.43065977017164
 21
271.25855390410891
  0
LINE
  8
_0-b_細線3
  6
CONTINUOUS
 62
    7
 10
523.76399310350507
 20
273.25855390410891
 11
510.43065977017164
 21
273.25855390410891
  0
ARC
  8
_0-b_細線3
  6
CONTINUOUS
 62
    7
 10
552.09732643683765
 20
350.78769486113799
 40
97.696522151886498
 50
263.73185704547677
 51
276.2681429545222
  0
ARC
  8
_0-b_細線3
  6
CONTINUOUS
 62
    7
 10
552.09732643683765
 20
169.06274628041331
 40
97.696522151886498
 50
83.731857045477128
 51
96.268142954522872
  0
LINE
  8
_0-b_細線3
  6
CONTINUOUS
 62
    7
 10
547.0973264368381
 20
271.25855390410891
 11
547.0973264368381
 21
273.25855390410891
  0
LINE
  8
_0-b_細線3
  6
CONTINUOUS
 62
    7
 10
541.43065977017068
 20
271.25855390410891
 11
547.0973264368381
 21
271.25855390410891
  0
LINE
  8
_0-b_細線3
  6
CONTINUOUS
 62
    7
 10
541.43065977017068
 20
248.25855390410894
 11
541.43065977017068
 21
271.25855390410891
  0
LINE
  8
_0-b_細線3
  6
CONTINUOUS
 62
    7
 10
539.43065977017113
 20
248.25855390410894
 11
541.43065977017068
 21
248.25855390410894
  0
LINE
  8
_0-b_細線3
  6
CONTINUOUS
 62
    7
 10
539.43065977017113
 20
271.25855390410891
 11
539.43065977017113
 21
248.25855390410894
  0
LINE
  8
_0-b_細線3
  6
CONTINUOUS
 62
    7
 10
533.76399310350462
 20
271.25855390410891
 11
539.43065977017113
 21
271.25855390410891
  0
LINE
  8
_0-b_細線3
  6
CONTINUOUS
 62
    7
 10
533.76399310350462
 20
273.25855390410891
 11
533.76399310350462
 21
271.25855390410891
  0
LINE
  8
_0-b_細線3
  6
CONTINUOUS
 62
    7
 10
547.0973264368381
 20
273.25855390410891
 11
533.76399310350462
 21
273.25855390410891
  0
ARC
  8
_0-b_細線3
  6
CONTINUOUS
 62
    7
 10
575.43065977017022
 20
350.78769486113799
 40
97.696522151886498
 50
263.73185704547706
 51
276.26814295452255
  0
ARC
  8
_0-b_細線3
  6
CONTINUOUS
 62
    7
 10
575.43065977017022
 20
169.06274628041331
 40
97.696522151886498
 50
83.731857045477128
 51
96.268142954522617
  0
LINE
  8
_0-b_細線3
  6
CONTINUOUS
 62
    7
 10
570.43065977017068
 20
271.25855390410891
 11
570.43065977017068
 21
273.25855390410891
  0
LINE
  8
_0-b_細線3
  6
CONTINUOUS
 62
    7
 10
564.76399310350371
 20
271.25855390410891
 11
570.43065977017068
 21
271.25855390410891
  0
LINE
  8
_0-b_細線3
  6
CONTINUOUS
 62
    7
 10
564.76399310350371
 20
248.25855390410894
 11
564.76399310350371
 21
271.25855390410891
  0
LINE
  8
_0-b_細線3
  6
CONTINUOUS
 62
    7
 10
562.76399310350416
 20
248.25855390410894
 11
564.76399310350371
 21
248.25855390410894
  0
LINE
  8
_0-b_細線3
  6
CONTINUOUS
 62
    7
 10
562.76399310350416
 20
271.25855390410891
 11
562.76399310350416
 21
248.25855390410894
  0
LINE
  8
_0-b_細線3
  6
CONTINUOUS
 62
    7
 10
557.09732643683719
 20
271.25855390410891
 11
562.76399310350416
 21
271.25855390410891
  0
LINE
  8
_0-b_細線3
  6
CONTINUOUS
 62
    7
 10
557.09732643683719
 20
273.25855390410891
 11
557.09732643683719
 21
271.25855390410891
  0
LINE
  8
_0-b_細線3
  6
CONTINUOUS
 62
    7
 10
570.43065977017068
 20
273.25855390410891
 11
557.09732643683719
 21
273.25855390410891
  0
LINE
  8
_0-b_細線3
  6
CONTINUOUS
 62
    7
 10
593.76399310350371
 20
271.25855390410891
 11
593.76399310350371
 21
273.25855390410891
  0
LINE
  8
_0-b_細線3
  6
CONTINUOUS
 62
    7
 10
588.09732643683628
 20
271.25855390410891
 11
593.76399310350371
 21
271.25855390410891
  0
LINE
  8
_0-b_細線3
  6
CONTINUOUS
 62
    7
 10
588.09732643683628
 20
248.25855390410894
 11
588.09732643683628
 21
271.25855390410891
  0
LINE
  8
_0-b_細線3
  6
CONTINUOUS
 62
    7
 10
586.09732643683674
 20
248.25855390410894
 11
588.09732643683628
 21
248.25855390410894
  0
LINE
  8
_0-b_細線3
  6
CONTINUOUS
 62
    7
 10
586.09732643683674
 20
271.25855390410891
 11
586.09732643683674
 21
248.25855390410894
  0
LINE
  8
_0-b_細線3
  6
CONTINUOUS
 62
    7
 10
580.43065977017022
 20
271.25855390410891
 11
586.09732643683674
 21
271.25855390410891
  0
LINE
  8
_0-b_細線3
  6
CONTINUOUS
 62
    7
 10
580.43065977017022
 20
273.25855390410891
 11
580.43065977017022
 21
271.25855390410891
  0
LINE
  8
_0-b_細線3
  6
CONTINUOUS
 62
    7
 10
593.76399310350371
 20
273.25855390410891
 11
580.43065977017022
 21
273.25855390410891
  0
LINE
  8
_0-b_細線3
  6
CONTINUOUS
 62
    7
 10
430.43065977017204
 20
271.25855390410891
 11
430.43065977017204
 21
273.25855390410891
  0
LINE
  8
_0-b_細線3
  6
CONTINUOUS
 62
    7
 10
424.76399310350558
 20
271.25855390410891
 11
430.43065977017204
 21
271.25855390410891
  0
LINE
  8
_0-b_細線3
  6
CONTINUOUS
 62
    7
 10
424.76399310350558
 20
248.25855390410894
 11
424.76399310350558
 21
271.25855390410891
  0
LINE
  8
_0-b_細線3
  6
CONTINUOUS
 62
    7
 10
422.76399310350553
 20
248.25855390410894
 11
424.76399310350558
 21
248.25855390410894
  0
LINE
  8
_0-b_細線3
  6
CONTINUOUS
 62
    7
 10
422.76399310350553
 20
271.25855390410891
 11
422.76399310350553
 21
248.25855390410894
  0
LINE
  8
_0-b_細線3
  6
CONTINUOUS
 62
    7
 10
417.09732643683856
 20
271.25855390410891
 11
422.76399310350553
 21
271.25855390410891
  0
LINE
  8
_0-b_細線3
  6
CONTINUOUS
 62
    7
 10
417.09732643683856
 20
273.25855390410891
 11
417.09732643683856
 21
271.25855390410891
  0
LINE
  8
_0-b_細線3
  6
CONTINUOUS
 62
    7
 10
430.43065977017204
 20
273.25855390410891
 11
417.09732643683856
 21
273.25855390410891
  0
ARC
  8
_0-b_細線3
  6
CONTINUOUS
 62
    7
 10
412.09732643683856
 20
350.78769486113799
 40
97.696522151886498
 50
263.73185704547677
 51
276.26814295452255
  0
ARC
  8
_0-b_細線3
  6
CONTINUOUS
 62
    7
 10
412.09732643683856
 20
169.06274628041331
 40
97.696522151886498
 50
83.731857045477128
 51
96.268142954522872
  0
LINE
  8
_0-b_細線3
  6
CONTINUOUS
 62
    7
 10
407.09732643683856
 20
271.25855390410891
 11
407.09732643683856
 21
273.25855390410891
  0
LINE
  8
_0-b_細線3
  6
CONTINUOUS
 62
    7
 10
401.4306597701721
 20
271.25855390410891
 11
407.09732643683856
 21
271.25855390410891
  0
LINE
  8
_0-b_細線3
  6
CONTINUOUS
 62
    7
 10
401.4306597701721
 20
248.25855390410894
 11
401.4306597701721
 21
271.25855390410891
  0
LINE
  8
_0-b_細線3
  6
CONTINUOUS
 62
    7
 10
399.43065977017204
 20
248.25855390410894
 11
401.4306597701721
 21
248.25855390410894
  0
LINE
  8
_0-b_細線3
  6
CONTINUOUS
 62
    7
 10
399.43065977017204
 20
271.25855390410891
 11
399.43065977017204
 21
248.25855390410894
  0
LINE
  8
_0-b_細線3
  6
CONTINUOUS
 62
    7
 10
393.76399310350507
 20
271.25855390410891
 11
399.43065977017204
 21
271.25855390410891
  0
LINE
  8
_0-b_細線3
  6
CONTINUOUS
 62
    7
 10
393.76399310350507
 20
273.25855390410891
 11
393.76399310350507
 21
271.25855390410891
  0
LINE
  8
_0-b_細線3
  6
CONTINUOUS
 62
    7
 10
407.09732643683856
 20
273.25855390410891
 11
393.76399310350507
 21
273.25855390410891
  0
ARC
  8
_0-b_細線3
  6
CONTINUOUS
 62
    7
 10
388.76399310350507
 20
350.78769486113799
 40
97.696522151886498
 50
263.73185704547677
 51
276.26814295452255
  0
ARC
  8
_0-b_細線3
  6
CONTINUOUS
 62
    7
 10
388.76399310350507
 20
169.06274628041331
 40
97.696522151886498
 50
83.731857045477128
 51
96.268142954522872
  0
LINE
  8
_0-b_細線3
  6
CONTINUOUS
 62
    7
 10
383.76399310350507
 20
271.25855390410891
 11
383.76399310350507
 21
273.25855390410891
  0
LINE
  8
_0-b_細線3
  6
CONTINUOUS
 62
    7
 10
378.09732643683901
 20
271.25855390410891
 11
383.76399310350507
 21
271.25855390410891
  0
LINE
  8
_0-b_細線3
  6
CONTINUOUS
 62
    7
 10
378.09732643683901
 20
248.25855390410894
 11
378.09732643683901
 21
271.25855390410891
  0
LINE
  8
_0-b_細線3
  6
CONTINUOUS
 62
    7
 10
376.09732643683907
 20
248.25855390410894
 11
378.09732643683901
 21
248.25855390410894
  0
LINE
  8
_0-b_細線3
  6
CONTINUOUS
 62
    7
 10
376.09732643683907
 20
271.25855390410891
 11
376.09732643683907
 21
248.25855390410894
  0
LINE
  8
_0-b_細線3
  6
CONTINUOUS
 62
    7
 10
370.43065977017204
 20
271.25855390410891
 11
376.09732643683907
 21
271.25855390410891
  0
LINE
  8
_0-b_細線3
  6
CONTINUOUS
 62
    7
 10
370.43065977017204
 20
273.25855390410891
 11
370.43065977017204
 21
271.25855390410891
  0
LINE
  8
_0-b_細線3
  6
CONTINUOUS
 62
    7
 10
383.76399310350507
 20
273.25855390410891
 11
370.43065977017204
 21
273.25855390410891
  0
ARC
  8
_0-b_細線3
  6
CONTINUOUS
 62
    7
 10
365.43065977017204
 20
350.78769486113799
 40
97.696522151886498
 50
263.73185704547654
 51
276.2681429545222
  0
ARC
  8
_0-b_細線3
  6
CONTINUOUS
 62
    7
 10
365.43065977017204
 20
169.06274628041331
 40
97.696522151886498
 50
83.731857045477398
 51
96.268142954523142
  0
LINE
  8
_0-b_細線3
  6
CONTINUOUS
 62
    7
 10
360.43065977017204
 20
271.25855390410891
 11
360.43065977017204
 21
273.25855390410891
  0
LINE
  8
_0-b_細線3
  6
CONTINUOUS
 62
    7
 10
354.76399310350553
 20
271.25855390410891
 11
360.43065977017204
 21
271.25855390410891
  0
LINE
  8
_0-b_細線3
  6
CONTINUOUS
 62
    7
 10
354.76399310350553
 20
248.25855390410894
 11
354.76399310350553
 21
271.25855390410891
  0
LINE
  8
_0-b_細線3
  6
CONTINUOUS
 62
    7
 10
352.76399310350553
 20
248.25855390410894
 11
354.76399310350553
 21
248.25855390410894
  0
LINE
  8
_0-b_細線3
  6
CONTINUOUS
 62
    7
 10
352.76399310350553
 20
271.25855390410891
 11
352.76399310350553
 21
248.25855390410894
  0
LINE
  8
_0-b_細線3
  6
CONTINUOUS
 62
    7
 10
347.09732643683856
 20
271.25855390410891
 11
352.76399310350553
 21
271.25855390410891
  0
LINE
  8
_0-b_細線3
  6
CONTINUOUS
 62
    7
 10
347.09732643683856
 20
273.25855390410891
 11
347.09732643683856
 21
271.25855390410891
  0
LINE
  8
_0-b_細線3
  6
CONTINUOUS
 62
    7
 10
360.43065977017204
 20
273.25855390410891
 11
347.09732643683856
 21
273.25855390410891
  0
LINE
  8
_0-d_寸法3
  6
CONTINUOUS
 62
    7
 10
493.76399310350558
 20
283.25855390410891
 11
493.76399310350558
 21
324.92522057077633
  0
LINE
  8
_0-d_寸法3
  6
CONTINUOUS
 62
    7
 10
493.76399310350558
 20
319.92522057077633
 11
503.42325136639624
 21
322.51341102180157
  0
LINE
  8
_0-d_寸法3
  6
CONTINUOUS
 62
    7
 10
493.76399310350558
 20
319.92522057077633
 11
503.42325136639624
 21
317.33703011975115
  0
LINE
  8
_0-d_寸法3
  6
CONTINUOUS
 62
    7
 10
517.09732643683867
 20
283.25855390410891
 11
517.09732643683901
 21
324.92522057077633
  0
LINE
  8
_0-d_寸法3
  6
CONTINUOUS
 62
    7
 10
517.09732643683901
 20
319.92522057077633
 11
507.43806817394835
 21
317.33703011975115
  0
LINE
  8
_0-d_寸法3
  6
CONTINUOUS
 62
    7
 10
517.09732643683901
 20
319.92522057077633
 11
507.43806817394841
 21
322.51341102180157
  0
LINE
  8
_0-d_寸法3
  6
CONTINUOUS
 62
    7
 10
493.76399310350558
 20
319.92522057077633
 11
517.09732643683901
 21
319.92522057077633
  0
TEXT
  8
_0-d_寸法3
 62
    7
 10
497.9306597701725
 20
319.92522057077633
 40
15
 41
1
 50
0
  1
14
  0
LINE
  8
_0-d_寸法3
  6
CONTINUOUS
 62
    7
 10
517.09732643683901
 20
319.92522057077633
 11
526.75658469972973
 21
322.51341102180152
  0
LINE
  8
_0-d_寸法3
  6
CONTINUOUS
 62
    7
 10
517.09732643683901
 20
319.92522057077633
 11
526.75658469972973
 21
317.33703011975109
  0
LINE
  8
_0-d_寸法3
  6
CONTINUOUS
 62
    7
 10
540.43065977017227
 20
283.25855390410891
 11
540.4306597701725
 21
324.92522057077633
  0
LINE
  8
_0-d_寸法3
  6
CONTINUOUS
 62
    7
 10
540.4306597701725
 20
319.92522057077633
 11
530.77140150728178
 21
317.33703011975115
  0
LINE
  8
_0-d_寸法3
  6
CONTINUOUS
 62
    7
 10
540.4306597701725
 20
319.92522057077633
 11
530.77140150728178
 21
322.51341102180157
  0
LINE
  8
_0-d_寸法3
  6
CONTINUOUS
 62
    7
 10
517.09732643683901
 20
319.92522057077633
 11
540.4306597701725
 21
319.92522057077633
  0
TEXT
  8
_0-d_寸法3
 62
    7
 10
521.26399310350553
 20
319.92522057077633
 40
15
 41
1
 50
0
  1
14
  0
ARC
  8
_0-b_細線3
  6
CONTINUOUS
 62
    7
 10
342.09732643683856
 20
350.78769486113799
 40
97.696522151886498
 50
263.73185704547677
 51
276.2681429545222
  0
ARC
  8
_0-b_細線3
  6
CONTINUOUS
 62
    7
 10
342.09732643683856
 20
169.06274628041331
 40
97.696522151886498
 50
83.731857045477398
 51
96.268142954522872
  0
LINE
  8
_0-b_細線3
  6
CONTINUOUS
 62
    7
 10
337.09732643683856
 20
271.25855390410891
 11
337.09732643683856
 21
273.25855390410891
  0
LINE
  8
_0-b_細線3
  6
CONTINUOUS
 62
    7
 10
331.4306597701721
 20
271.25855390410891
 11
337.09732643683856
 21
271.25855390410891
  0
LINE
  8
_0-b_細線3
  6
CONTINUOUS
 62
    7
 10
331.4306597701721
 20
248.25855390410894
 11
331.4306597701721
 21
271.25855390410891
  0
LINE
  8
_0-b_細線3
  6
CONTINUOUS
 62
    7
 10
329.43065977017204
 20
248.25855390410894
 11
331.4306597701721
 21
248.25855390410894
  0
LINE
  8
_0-b_細線3
  6
CONTINUOUS
 62
    7
 10
329.43065977017204
 20
271.25855390410891
 11
329.43065977017204
 21
248.25855390410894
  0
LINE
  8
_0-b_細線3
  6
CONTINUOUS
 62
    7
 10
323.76399310350507
 20
271.25855390410891
 11
329.43065977017204
 21
271.25855390410891
  0
LINE
  8
_0-b_細線3
  6
CONTINUOUS
 62
    7
 10
323.76399310350507
 20
273.25855390410891
 11
323.76399310350507
 21
271.25855390410891
  0
LINE
  8
_0-b_細線3
  6
CONTINUOUS
 62
    7
 10
337.09732643683856
 20
273.25855390410891
 11
323.76399310350507
 21
273.25855390410891
  0
ARC
  8
_0-b_細線3
  6
CONTINUOUS
 62
    7
 10
318.76399310350507
 20
350.78769486113799
 40
97.696522151886498
 50
263.73185704547677
 51
276.2681429545222
  0
ARC
  8
_0-b_細線3
  6
CONTINUOUS
 62
    7
 10
318.76399310350507
 20
169.06274628041331
 40
97.696522151886498
 50
83.731857045477398
 51
96.268142954522872
  0
LINE
  8
_0-b_細線3
  6
CONTINUOUS
 62
    7
 10
313.76399310350507
 20
271.25855390410891
 11
313.76399310350507
 21
273.25855390410891
  0
LINE
  8
_0-b_細線3
  6
CONTINUOUS
 62
    7
 10
308.09732643683856
 20
271.25855390410891
 11
313.76399310350507
 21
271.25855390410891
  0
LINE
  8
_0-b_細線3
  6
CONTINUOUS
 62
    7
 10
308.09732643683856
 20
248.25855390410894
 11
308.09732643683856
 21
271.25855390410891
  0
LINE
  8
_0-b_細線3
  6
CONTINUOUS
 62
    7
 10
306.09732643683856
 20
248.25855390410894
 11
308.09732643683856
 21
248.25855390410894
  0
LINE
  8
_0-b_細線3
  6
CONTINUOUS
 62
    7
 10
306.09732643683856
 20
271.25855390410891
 11
306.09732643683856
 21
248.25855390410894
  0
LINE
  8
_0-b_細線3
  6
CONTINUOUS
 62
    7
 10
300.43065977017164
 20
271.25855390410891
 11
306.09732643683856
 21
271.25855390410891
  0
LINE
  8
_0-b_細線3
  6
CONTINUOUS
 62
    7
 10
300.43065977017164
 20
273.25855390410891
 11
300.43065977017164
 21
271.25855390410891
  0
LINE
  8
_0-b_細線3
  6
CONTINUOUS
 62
    7
 10
313.76399310350507
 20
273.25855390410891
 11
300.43065977017164
 21
273.25855390410891
  0
ARC
  8
_0-b_細線3
  6
CONTINUOUS
 62
    7
 10
598.76399310350325
 20
350.78769486113799
 40
97.696522151886498
 50
263.73185704547677
 51
276.2681429545222
  0
ARC
  8
_0-b_細線3
  6
CONTINUOUS
 62
    7
 10
598.76399310350325
 20
169.06274628041331
 40
97.696522151886498
 50
83.731857045477128
 51
96.268142954522872
  0
LINE
  8
_0-b_細線3
  6
CONTINUOUS
 62
    7
 10
617.09732643683628
 20
271.25855390410891
 11
617.09732643683628
 21
273.25855390410891
  0
LINE
  8
_0-b_細線3
  6
CONTINUOUS
 62
    7
 10
611.43065977016931
 20
271.25855390410891
 11
617.09732643683628
 21
271.25855390410891
  0
LINE
  8
_0-b_細線3
  6
CONTINUOUS
 62
    7
 10
611.43065977016931
 20
248.25855390410894
 11
611.43065977016931
 21
271.25855390410891
  0
LINE
  8
_0-b_細線3
  6
CONTINUOUS
 62
    7
 10
609.43065977016977
 20
248.25855390410894
 11
611.43065977016931
 21
248.25855390410894
  0
LINE
  8
_0-b_細線3
  6
CONTINUOUS
 62
    7
 10
609.43065977016977
 20
271.25855390410891
 11
609.43065977016977
 21
248.25855390410894
  0
LINE
  8
_0-b_細線3
  6
CONTINUOUS
 62
    7
 10
603.7639931035028
 20
271.25855390410891
 11
609.43065977016977
 21
271.25855390410891
  0
LINE
  8
_0-b_細線3
  6
CONTINUOUS
 62
    7
 10
603.7639931035028
 20
273.25855390410891
 11
603.7639931035028
 21
271.25855390410891
  0
LINE
  8
_0-b_細線3
  6
CONTINUOUS
 62
    7
 10
617.09732643683628
 20
273.25855390410891
 11
603.7639931035028
 21
273.25855390410891
  0
ARC
  8
_0-b_細線3
  6
CONTINUOUS
 62
    7
 10
295.43065977017164
 20
350.78769486113799
 40
97.696522151886498
 50
263.73185704547677
 51
276.26814295452255
  0
ARC
  8
_0-b_細線3
  6
CONTINUOUS
 62
    7
 10
295.43065977017164
 20
169.06274628041331
 40
97.696522151886498
 50
83.731857045477128
 51
96.268142954522872
  0
LINE
  8
_0-b_細線3
  6
CONTINUOUS
 62
    7
 10
290.43065977017164
 20
271.25855390410891
 11
290.43065977017164
 21
273.25855390410891
  0
LINE
  8
_0-b_細線3
  6
CONTINUOUS
 62
    7
 10
284.76399310350507
 20
271.25855390410891
 11
290.43065977017164
 21
271.25855390410891
  0
LINE
  8
_0-b_細線3
  6
CONTINUOUS
 62
    7
 10
284.76399310350507
 20
248.25855390410894
 11
284.76399310350507
 21
271.25855390410891
  0
LINE
  8
_0-b_細線3
  6
CONTINUOUS
 62
    7
 10
282.76399310350513
 20
248.25855390410894
 11
284.76399310350507
 21
248.25855390410894
  0
LINE
  8
_0-b_細線3
  6
CONTINUOUS
 62
    7
 10
282.76399310350513
 20
271.25855390410891
 11
282.76399310350513
 21
248.25855390410894
  0
LINE
  8
_0-b_細線3
  6
CONTINUOUS
 62
    7
 10
277.0973264368381
 20
271.25855390410891
 11
282.76399310350513
 21
271.25855390410891
  0
LINE
  8
_0-b_細線3
  6
CONTINUOUS
 62
    7
 10
277.0973264368381
 20
273.25855390410891
 11
277.0973264368381
 21
271.25855390410891
  0
LINE
  8
_0-b_細線3
  6
CONTINUOUS
 62
    7
 10
290.43065977017164
 20
273.25855390410891
 11
277.0973264368381
 21
273.25855390410891
  0
ARC
  8
_0-b_細線3
  6
CONTINUOUS
 62
    7
 10
622.09732643683583
 20
350.78769486113799
 40
97.696522151886498
 50
263.73185704547706
 51
276.26814295452255
  0
ARC
  8
_0-b_細線3
  6
CONTINUOUS
 62
    7
 10
622.09732643683583
 20
169.06274628041331
 40
97.696522151886498
 50
83.731857045477128
 51
96.268142954522617
  0
LINE
  8
_0-b_細線3
  6
CONTINUOUS
 62
    7
 10
640.43065977016931
 20
271.25855390410891
 11
640.43065977016931
 21
273.25855390410891
  0
LINE
  8
_0-b_細線3
  6
CONTINUOUS
 62
    7
 10
634.76399310350189
 20
271.25855390410891
 11
640.43065977016931
 21
271.25855390410891
  0
LINE
  8
_0-b_細線3
  6
CONTINUOUS
 62
    7
 10
634.76399310350189
 20
248.25855390410894
 11
634.76399310350189
 21
271.25855390410891
  0
LINE
  8
_0-b_細線3
  6
CONTINUOUS
 62
    7
 10
632.76399310350234
 20
248.25855390410894
 11
634.76399310350189
 21
248.25855390410894
  0
LINE
  8
_0-b_細線3
  6
CONTINUOUS
 62
    7
 10
632.76399310350234
 20
271.25855390410891
 11
632.76399310350234
 21
248.25855390410894
  0
LINE
  8
_0-b_細線3
  6
CONTINUOUS
 62
    7
 10
627.09732643683583
 20
271.25855390410891
 11
632.76399310350234
 21
271.25855390410891
  0
LINE
  8
_0-b_細線3
  6
CONTINUOUS
 62
    7
 10
627.09732643683583
 20
273.25855390410891
 11
627.09732643683583
 21
271.25855390410891
  0
LINE
  8
_0-b_細線3
  6
CONTINUOUS
 62
    7
 10
640.43065977016931
 20
273.25855390410891
 11
627.09732643683583
 21
273.25855390410891
  0
ARC
  8
_0-b_細線3
  6
CONTINUOUS
 62
    7
 10
645.43065977016897
 20
350.78769486113799
 40
97.696522151886498
 50
263.73185704547677
 51
276.2681429545222
  0
ARC
  8
_0-b_細線3
  6
CONTINUOUS
 62
    7
 10
645.43065977016897
 20
169.06274628041331
 40
97.696522151886498
 50
83.731857045477128
 51
96.268142954522872
  0
LINE
  8
_0-b_細線3
  6
CONTINUOUS
 62
    7
 10
663.76399310350189
 20
271.25855390410891
 11
663.76399310350189
 21
273.25855390410891
  0
LINE
  8
_0-b_細線3
  6
CONTINUOUS
 62
    7
 10
658.09732643683492
 20
271.25855390410891
 11
663.76399310350189
 21
271.25855390410891
  0
LINE
  8
_0-b_細線3
  6
CONTINUOUS
 62
    7
 10
658.09732643683492
 20
248.25855390410894
 11
658.09732643683492
 21
271.25855390410891
  0
LINE
  8
_0-b_細線3
  6
CONTINUOUS
 62
    7
 10
656.09732643683537
 20
248.25855390410894
 11
658.09732643683492
 21
248.25855390410894
  0
LINE
  8
_0-b_細線3
  6
CONTINUOUS
 62
    7
 10
656.09732643683537
 20
271.25855390410891
 11
656.09732643683537
 21
248.25855390410894
  0
LINE
  8
_0-b_細線3
  6
CONTINUOUS
 62
    7
 10
650.4306597701684
 20
271.25855390410891
 11
656.09732643683537
 21
271.25855390410891
  0
LINE
  8
_0-b_細線3
  6
CONTINUOUS
 62
    7
 10
650.4306597701684
 20
273.25855390410891
 11
650.4306597701684
 21
271.25855390410891
  0
LINE
  8
_0-b_細線3
  6
CONTINUOUS
 62
    7
 10
663.76399310350189
 20
273.25855390410891
 11
650.4306597701684
 21
273.25855390410891
  0
ARC
  8
_0-b_細線3
  6
CONTINUOUS
 62
    7
 10
272.0973264368381
 20
350.78769486113799
 40
97.696522151886498
 50
263.73185704547706
 51
276.26814295452255
  0
ARC
  8
_0-b_細線3
  6
CONTINUOUS
 62
    7
 10
272.0973264368381
 20
169.06274628041331
 40
97.696522151886498
 50
83.731857045477128
 51
96.268142954522617
  0
LINE
  8
_0-b_細線3
  6
CONTINUOUS
 62
    7
 10
267.0973264368381
 20
271.25855390410891
 11
267.0973264368381
 21
273.25855390410891
  0
LINE
  8
_0-b_細線3
  6
CONTINUOUS
 62
    7
 10
261.43065977017204
 20
271.25855390410891
 11
267.0973264368381
 21
271.25855390410891
  0
LINE
  8
_0-b_細線3
  6
CONTINUOUS
 62
    7
 10
261.43065977017204
 20
248.25855390410894
 11
261.43065977017204
 21
271.25855390410891
  0
LINE
  8
_0-b_細線3
  6
CONTINUOUS
 62
    7
 10
259.43065977017204
 20
271.25855390410891
 11
259.43065977017204
 21
248.25855390410894
  0
LINE
  8
_0-b_細線3
  6
CONTINUOUS
 62
    7
 10
253.76399310350507
 20
271.25855390410891
 11
259.43065977017204
 21
271.25855390410891
  0
LINE
  8
_0-b_細線3
  6
CONTINUOUS
 62
    7
 10
253.76399310350507
 20
273.25855390410891
 11
253.76399310350507
 21
271.25855390410891
  0
LINE
  8
_0-b_細線3
  6
CONTINUOUS
 62
    7
 10
267.0973264368381
 20
273.25855390410891
 11
253.76399310350507
 21
273.25855390410891
  0
LINE
  8
_0-d_寸法3
  6
CONTINUOUS
 62
    7
 10
370.4306597701717
 20
283.25855390410891
 11
370.43065977017216
 21
324.92522057077633
  0
LINE
  8
_0-d_寸法3
  6
CONTINUOUS
 62
    7
 10
370.43065977017204
 20
319.92522057077633
 11
360.77140150728133
 21
317.33703011975115
  0
LINE
  8
_0-d_寸法3
  6
CONTINUOUS
 62
    7
 10
370.43065977017204
 20
319.92522057077633
 11
360.77140150728144
 21
322.51341102180157
  0
LINE
  8
_0-d_寸法3
  6
CONTINUOUS
 62
    7
 10
383.76399310350507
 20
283.25855390410891
 11
383.76399310350507
 21
324.92522057077633
  0
CIRCLE
  8
_0-d_寸法3
  6
CONTINUOUS
 62
    1
 10
383.76399310350507
 20
319.92522057077633
 40
1.5000000000000002
  0
LINE
  8
_0-d_寸法3
  6
CONTINUOUS
 62
    7
 10
345.43065977017204
 20
319.92522057077633
 11
383.76399310350507
 21
319.92522057077633
  0
TEXT
  8
_0-d_寸法3
 62
    7
 10
353.00664380479566
 20
319.92522057077633
 40
15
 41
1
 50
0
  1
8
  0
LINE
  8
_0-d_寸法3
  6
CONTINUOUS
 62
    7
 10
393.76399310350507
 20
283.25855390410891
 11
393.76399310350507
 21
324.92522057077633
  0
LINE
  8
_0-d_寸法3
  6
CONTINUOUS
 62
    7
 10
393.76399310350507
 20
319.92522057077633
 11
403.42325136639579
 21
322.51341102180152
  0
LINE
  8
_0-d_寸法3
  6
CONTINUOUS
 62
    7
 10
393.76399310350507
 20
319.92522057077633
 11
403.42325136639573
 21
317.33703011975109
  0
LINE
  8
_0-d_寸法3
  6
CONTINUOUS
 62
    7
 10
383.76399310350507
 20
319.92522057077633
 11
418.76399310350507
 21
319.92522057077633
  0
TEXT
  8
_0-d_寸法3
 62
    7
 10
400.05586191179054
 20
319.92522057077633
 40
15
 41
1
 50
0
  1
6
  0
ARC
  8
_0-b_細線3
  6
CONTINUOUS
 62
    7
 10
668.76399310350155
 20
350.78769486113799
 40
97.696522151886498
 50
263.73185704547706
 51
276.26814295452255
  0
ARC
  8
_0-b_細線3
  6
CONTINUOUS
 62
    7
 10
668.76399310350155
 20
169.06274628041331
 40
97.696522151886498
 50
83.731857045477128
 51
96.268142954522617
  0
LINE
  8
_0-b_細線3
  6
CONTINUOUS
 62
    7
 10
687.09732643683492
 20
271.25855390410891
 11
687.09732643683492
 21
273.25855390410891
  0
LINE
  8
_0-b_細線3
  6
CONTINUOUS
 62
    7
 10
681.43065977016749
 20
271.25855390410891
 11
687.09732643683492
 21
271.25855390410891
  0
LINE
  8
_0-b_細線3
  6
CONTINUOUS
 62
    7
 10
681.43065977016749
 20
248.25855390410894
 11
681.43065977016749
 21
271.25855390410891
  0
LINE
  8
_0-b_細線3
  6
CONTINUOUS
 62
    7
 10
679.43065977016795
 20
248.25855390410894
 11
681.43065977016749
 21
248.25855390410894
  0
LINE
  8
_0-b_細線3
  6
CONTINUOUS
 62
    7
 10
679.43065977016795
 20
271.25855390410891
 11
679.43065977016795
 21
248.25855390410894
  0
LINE
  8
_0-b_細線3
  6
CONTINUOUS
 62
    7
 10
673.76399310350155
 20
271.25855390410891
 11
679.43065977016795
 21
271.25855390410891
  0
LINE
  8
_0-b_細線3
  6
CONTINUOUS
 62
    7
 10
673.76399310350155
 20
273.25855390410891
 11
673.76399310350155
 21
271.25855390410891
  0
LINE
  8
_0-b_細線3
  6
CONTINUOUS
 62
    7
 10
687.09732643683492
 20
273.25855390410891
 11
673.76399310350155
 21
273.25855390410891
  0
ARC
  8
_0-b_細線3
  6
CONTINUOUS
 62
    7
 10
692.09732643683446
 20
350.78769486113799
 40
97.696522151886498
 50
263.73185704547677
 51
276.2681429545222
  0
ARC
  8
_0-b_細線3
  6
CONTINUOUS
 62
    7
 10
692.09732643683446
 20
169.06274628041331
 40
97.696522151886498
 50
83.731857045477128
 51
96.268142954522872
  0
LINE
  8
_0-b_細線3
  6
CONTINUOUS
 62
    7
 10
710.43065977016749
 20
271.25855390410891
 11
710.43065977016749
 21
273.25855390410891
  0
LINE
  8
_0-b_細線3
  6
CONTINUOUS
 62
    7
 10
704.76399310350064
 20
271.25855390410891
 11
710.43065977016749
 21
271.25855390410891
  0
LINE
  8
_0-b_細線3
  6
CONTINUOUS
 62
    7
 10
704.76399310350064
 20
248.25855390410894
 11
704.76399310350064
 21
271.25855390410891
  0
LINE
  8
_0-b_細線3
  6
CONTINUOUS
 62
    7
 10
702.76399310350098
 20
248.25855390410894
 11
704.76399310350064
 21
248.25855390410894
  0
LINE
  8
_0-b_細線3
  6
CONTINUOUS
 62
    7
 10
702.76399310350098
 20
271.25855390410891
 11
702.76399310350098
 21
248.25855390410894
  0
LINE
  8
_0-b_細線3
  6
CONTINUOUS
 62
    7
 10
697.09732643683412
 20
271.25855390410891
 11
702.76399310350098
 21
271.25855390410891
  0
LINE
  8
_0-b_細線3
  6
CONTINUOUS
 62
    7
 10
697.09732643683412
 20
273.25855390410891
 11
697.09732643683412
 21
271.25855390410891
  0
LINE
  8
_0-b_細線3
  6
CONTINUOUS
 62
    7
 10
710.43065977016749
 20
273.25855390410891
 11
697.09732643683412
 21
273.25855390410891
  0
LINE
  8
_0-b_細線3
  6
CONTINUOUS
 62
    7
 10
259.43065977017204
 20
248.25855390410894
 11
261.43065977017204
 21
248.25855390410894
  0
ARC
  8
_0-b_細線3
  6
CONTINUOUS
 62
    7
 10
248.76399310350507
 20
350.78769486113799
 40
97.696522151886498
 50
263.73185704547677
 51
276.2681429545222
  0
ARC
  8
_0-b_細線3
  6
CONTINUOUS
 62
    7
 10
248.76399310350507
 20
169.06274628041331
 40
97.696522151886498
 50
83.731857045477398
 51
96.268142954522872
  0
LINE
  8
_0-b_細線3
  6
CONTINUOUS
 62
    7
 10
243.76399310350507
 20
271.25855390410891
 11
243.76399310350507
 21
273.25855390410891
  0
LINE
  8
_0-b_細線3
  6
CONTINUOUS
 62
    7
 10
238.09732643683859
 20
271.25855390410891
 11
243.76399310350507
 21
271.25855390410891
  0
LINE
  8
_0-b_細線3
  6
CONTINUOUS
 62
    7
 10
238.09732643683859
 20
248.25855390410894
 11
238.09732643683859
 21
271.25855390410891
  0
LINE
  8
_0-b_細線3
  6
CONTINUOUS
 62
    7
 10
236.09732643683856
 20
271.25855390410891
 11
236.09732643683856
 21
248.25855390410894
  0
LINE
  8
_0-b_細線3
  6
CONTINUOUS
 62
    7
 10
230.43065977017164
 20
271.25855390410891
 11
236.09732643683856
 21
271.25855390410891
  0
LINE
  8
_0-b_細線3
  6
CONTINUOUS
 62
    7
 10
230.43065977017164
 20
273.25855390410891
 11
230.43065977017164
 21
271.25855390410891
  0
LINE
  8
_0-b_細線3
  6
CONTINUOUS
 62
    7
 10
243.76399310350507
 20
273.25855390410891
 11
230.43065977017164
 21
273.25855390410891
  0
LINE
  8
_0-b_細線3
  6
CONTINUOUS
 62
    7
 10
236.09732643683856
 20
248.25855390410894
 11
238.09732643683859
 21
248.25855390410894
  0
ARC
  8
_0-b_細線3
  6
CONTINUOUS
 62
    7
 10
225.43065977017164
 20
350.78769486113799
 40
97.696522151886498
 50
263.73185704547677
 51
276.26814295452255
  0
ARC
  8
_0-b_細線3
  6
CONTINUOUS
 62
    7
 10
225.43065977017164
 20
169.06274628041331
 40
97.696522151886498
 50
83.731857045477128
 51
96.268142954522872
  0
LINE
  8
_0-b_細線3
  6
CONTINUOUS
 62
    7
 10
220.43065977017164
 20
271.25855390410891
 11
220.43065977017164
 21
273.25855390410891
  0
LINE
  8
_0-b_細線3
  6
CONTINUOUS
 62
    7
 10
214.76399310350507
 20
271.25855390410891
 11
220.43065977017164
 21
271.25855390410891
  0
LINE
  8
_0-b_細線3
  6
CONTINUOUS
 62
    7
 10
214.76399310350507
 20
248.25855390410894
 11
214.76399310350507
 21
271.25855390410891
  0
LINE
  8
_0-b_細線3
  6
CONTINUOUS
 62
    7
 10
212.76399310350513
 20
271.25855390410891
 11
212.76399310350513
 21
248.25855390410894
  0
LINE
  8
_0-b_細線3
  6
CONTINUOUS
 62
    7
 10
207.09732643683807
 20
271.25855390410891
 11
212.76399310350513
 21
271.25855390410891
  0
LINE
  8
_0-b_細線3
  6
CONTINUOUS
 62
    7
 10
207.09732643683807
 20
273.25855390410891
 11
207.09732643683807
 21
271.25855390410891
  0
LINE
  8
_0-b_細線3
  6
CONTINUOUS
 62
    7
 10
220.43065977017164
 20
273.25855390410891
 11
207.09732643683807
 21
273.25855390410891
  0
LINE
  8
_0-b_細線3
  6
CONTINUOUS
 62
    7
 10
212.76399310350513
 20
248.25855390410894
 11
214.76399310350507
 21
248.25855390410894
  0
ARC
  8
_0-b_細線3
  6
CONTINUOUS
 62
    7
 10
202.09732643683807
 20
350.78769486113799
 40
97.696522151886498
 50
263.73185704547677
 51
276.26814295452255
  0
ARC
  8
_0-b_細線3
  6
CONTINUOUS
 62
    7
 10
202.09732643683807
 20
169.06274628041331
 40
97.696522151886498
 50
83.731857045477128
 51
96.268142954522872
  0
LINE
  8
_0-b_細線3
  6
CONTINUOUS
 62
    7
 10
197.09732643683807
 20
271.25855390410891
 11
197.09732643683807
 21
273.25855390410891
  0
LINE
  8
_0-b_細線3
  6
CONTINUOUS
 62
    7
 10
191.43065977017201
 20
271.25855390410891
 11
197.09732643683807
 21
271.25855390410891
  0
LINE
  8
_0-b_細線3
  6
CONTINUOUS
 62
    7
 10
191.43065977017201
 20
248.25855390410894
 11
191.43065977017201
 21
271.25855390410891
  0
LINE
  8
_0-b_細線3
  6
CONTINUOUS
 62
    7
 10
189.43065977017204
 20
271.25855390410891
 11
189.43065977017204
 21
248.25855390410894
  0
LINE
  8
_0-b_細線3
  6
CONTINUOUS
 62
    7
 10
183.76399310350507
 20
271.25855390410891
 11
189.43065977017204
 21
271.25855390410891
  0
LINE
  8
_0-b_細線3
  6
CONTINUOUS
 62
    7
 10
183.76399310350507
 20
273.25855390410891
 11
183.76399310350507
 21
271.25855390410891
  0
LINE
  8
_0-b_細線3
  6
CONTINUOUS
 62
    7
 10
197.09732643683807
 20
273.25855390410891
 11
183.76399310350507
 21
273.25855390410891
  0
ARC
  8
_0-b_細線3
  6
CONTINUOUS
 62
    7
 10
715.43065977016704
 20
350.78769486113799
 40
97.696522151886498
 50
263.73185704547706
 51
276.26814295452255
  0
ARC
  8
_0-b_細線3
  6
CONTINUOUS
 62
    7
 10
715.43065977016704
 20
169.06274628041331
 40
97.696522151886498
 50
83.731857045477128
 51
96.268142954522617
  0
LINE
  8
_0-b_細線3
  6
CONTINUOUS
 62
    7
 10
733.76399310350052
 20
271.25855390410891
 11
733.76399310350052
 21
273.25855390410891
  0
LINE
  8
_0-b_細線3
  6
CONTINUOUS
 62
    7
 10
728.09732643683321
 20
271.25855390410891
 11
733.76399310350052
 21
271.25855390410891
  0
LINE
  8
_0-b_細線3
  6
CONTINUOUS
 62
    7
 10
728.09732643683321
 20
248.25855390410894
 11
728.09732643683321
 21
271.25855390410891
  0
LINE
  8
_0-b_細線3
  6
CONTINUOUS
 62
    7
 10
726.09732643683355
 20
248.25855390410894
 11
728.09732643683321
 21
248.25855390410894
  0
LINE
  8
_0-b_細線3
  6
CONTINUOUS
 62
    7
 10
726.09732643683355
 20
271.25855390410891
 11
726.09732643683355
 21
248.25855390410894
  0
LINE
  8
_0-b_細線3
  6
CONTINUOUS
 62
    7
 10
720.43065977016704
 20
271.25855390410891
 11
726.09732643683355
 21
271.25855390410891
  0
LINE
  8
_0-b_細線3
  6
CONTINUOUS
 62
    7
 10
720.43065977016704
 20
273.25855390410891
 11
720.43065977016704
 21
271.25855390410891
  0
LINE
  8
_0-b_細線3
  6
CONTINUOUS
 62
    7
 10
733.76399310350052
 20
273.25855390410891
 11
720.43065977016704
 21
273.25855390410891
  0
ARC
  8
_0-b_細線3
  6
CONTINUOUS
 62
    7
 10
738.76399310350007
 20
350.78769486113799
 40
97.696522151886498
 50
263.73185704547677
 51
276.2681429545222
  0
ARC
  8
_0-b_細線3
  6
CONTINUOUS
 62
    7
 10
738.76399310350007
 20
169.06274628041331
 40
97.696522151886498
 50
83.731857045477128
 51
96.268142954522872
  0
LINE
  8
_0-b_細線3
  6
CONTINUOUS
 62
    7
 10
757.0973264368331
 20
271.25855390410891
 11
757.0973264368331
 21
273.25855390410891
  0
LINE
  8
_0-b_細線3
  6
CONTINUOUS
 62
    7
 10
751.43065977016613
 20
271.25855390410891
 11
757.0973264368331
 21
271.25855390410891
  0
LINE
  8
_0-b_細線3
  6
CONTINUOUS
 62
    7
 10
751.43065977016613
 20
248.25855390410894
 11
751.43065977016613
 21
271.25855390410891
  0
LINE
  8
_0-b_細線3
  6
CONTINUOUS
 62
    7
 10
749.43065977016659
 20
248.25855390410894
 11
751.43065977016613
 21
248.25855390410894
  0
LINE
  8
_0-b_細線3
  6
CONTINUOUS
 62
    7
 10
749.43065977016659
 20
271.25855390410891
 11
749.43065977016659
 21
248.25855390410894
  0
LINE
  8
_0-b_細線3
  6
CONTINUOUS
 62
    7
 10
743.76399310349962
 20
271.25855390410891
 11
749.43065977016659
 21
271.25855390410891
  0
LINE
  8
_0-b_細線3
  6
CONTINUOUS
 62
    7
 10
743.76399310349962
 20
273.25855390410891
 11
743.76399310349962
 21
271.25855390410891
  0
LINE
  8
_0-b_細線3
  6
CONTINUOUS
 62
    7
 10
757.0973264368331
 20
273.25855390410891
 11
743.76399310349962
 21
273.25855390410891
  0
LINE
  8
_0-d_寸法3
  6
CONTINUOUS
 62
    7
 10
462.23913932728215
 20
253.99431826761952
 11
426.88679760159664
 21
278.74829443731016
  0
LINE
  8
_0-d_寸法3
  6
CONTINUOUS
 62
    7
 10
430.98255782304165
 20
275.88041225555492
 11
428.39436737201646
 21
285.53967051844558
  0
LINE
  8
_0-d_寸法3
  6
CONTINUOUS
 62
    7
 10
430.98255782304165
 20
275.88041225555492
 11
433.57074827406683
 21
285.53967051844558
  0
LINE
  8
_0-d_寸法3
  6
CONTINUOUS
 62
    7
 10
462.23913932728215
 20
278.99431826761952
 11
426.88679760159664
 21
303.74829443731028
  0
LINE
  8
_0-d_寸法3
  6
CONTINUOUS
 62
    7
 10
430.98255782304165
 20
300.88041225555503
 11
433.57074827406677
 21
291.22115399266431
  0
LINE
  8
_0-d_寸法3
  6
CONTINUOUS
 62
    7
 10
430.98255782304165
 20
300.88041225555503
 11
428.3943673720164
 21
291.22115399266437
  0
LINE
  8
_0-d_寸法3
  6
CONTINUOUS
 62
    7
 10
430.98255782304165
 20
275.88041225555492
 11
430.98255782304165
 21
300.88041225555503
  0
TEXT
  8
_0-d_寸法3
 62
    7
 10
430.98255782304165
 20
280.8804122555548
 40
15
 41
1
 50
90
  1
15
  0
LINE
  8
_0-a_極細3
  6
CONTINUOUS
 62
    7
 10
769.26399310350553
 20
236.59188723744228
 11
765.43065977017204
 21
236.59188723744228
  0
LINE
  8
_0-a_極細3
  6
CONTINUOUS
 62
    7
 10
769.26399310350553
 20
239.92522057077579
 11
765.43065977017204
 21
239.92522057077579
  0
LINE
  8
_0-a_極細3
  6
CONTINUOUS
 62
    7
 10
769.26399310350553
 20
233.25855390410905
 11
765.43065977017204
 21
233.25855390410905
  0
LINE
  8
_0-a_極細3
  6
CONTINUOUS
 62
    7
 10
769.26399310350553
 20
243.25855390410905
 11
765.43065977017204
 21
243.25855390410905
  0
LINE
  8
_0-a_極細3
  6
CONTINUOUS
 62
    7
 10
765.43065977017204
 20
209.92522057077579
 11
769.26399310350553
 21
209.92522057077579
  0
LINE
  8
_0-a_極細3
  6
CONTINUOUS
 62
    7
 10
769.26399310350553
 20
259.92522057077576
 11
765.43065977017204
 21
259.92522057077576
  0
LINE
  8
_0-b_細線3
  6
CONTINUOUS
 62
    7
 10
765.43065977017204
 20
263.25855390410902
 11
765.43065977017204
 21
204.92522057077579
  0
LINE
  8
_0-b_細線3
  6
CONTINUOUS
 62
    7
 10
765.43065977017204
 20
204.92522057077579
 11
769.26399310350553
 21
204.92522057077579
  0
LINE
  8
_0-b_細線3
  6
CONTINUOUS
 62
    7
 10
769.26399310350553
 20
204.92522057077579
 11
769.26399310350553
 21
263.25855390410902
  0
LINE
  8
_0-b_細線3
  6
CONTINUOUS
 62
    7
 10
769.26399310350553
 20
263.25855390410902
 11
765.43065977017204
 21
263.25855390410902
  0
LINE
  8
_0-7_枠細線
  6
CONTINUOUS
 62
    5
 10
788.349861196745
 20
240.98730390026304
 11
780.849861196745
 21
255.98730390026304
  0
LINE
  8
_0-7_枠細線
  6
CONTINUOUS
 62
    5
 10
773.349861196745
 20
240.98730390026304
 11
788.349861196745
 21
240.98730390026304
  0
LINE
  8
_0-7_枠細線
  6
CONTINUOUS
 62
    5
 10
780.849861196745
 20
255.98730390026304
 11
773.349861196745
 21
240.98730390026304
  0
TEXT
  8
_0-7_枠細線
 62
    5
 10
775.71501246489311
 20
240.68030165488253
 40
12.5
 41
0.8
 50
0
  1
１
  0
LINE
  8
_0-a_極細3
  6
CONTINUOUS
 62
    7
 10
171.59732643683853
 20
236.59188723744228
 11
175.43065977017207
 21
236.59188723744228
  0
LINE
  8
_0-a_極細3
  6
CONTINUOUS
 62
    7
 10
171.59732643683853
 20
239.92522057077579
 11
175.43065977017207
 21
239.92522057077579
  0
LINE
  8
_0-a_極細3
  6
CONTINUOUS
 62
    7
 10
171.59732643683853
 20
233.25855390410905
 11
175.43065977017207
 21
233.25855390410905
  0
LINE
  8
_0-a_極細3
  6
CONTINUOUS
 62
    7
 10
171.59732643683853
 20
243.25855390410905
 11
175.43065977017207
 21
243.25855390410905
  0
LINE
  8
_0-a_極細3
  6
CONTINUOUS
 62
    7
 10
175.43065977017207
 20
209.92522057077579
 11
171.59732643683853
 21
209.92522057077579
  0
LINE
  8
_0-a_極細3
  6
CONTINUOUS
 62
    7
 10
171.59732643683853
 20
259.92522057077576
 11
175.43065977017207
 21
259.92522057077576
  0
LINE
  8
_0-b_細線3
  6
CONTINUOUS
 62
    7
 10
175.43065977017207
 20
263.25855390410902
 11
175.43065977017207
 21
204.92522057077579
  0
LINE
  8
_0-b_細線3
  6
CONTINUOUS
 62
    7
 10
175.43065977017207
 20
204.92522057077579
 11
171.59732643683853
 21
204.92522057077579
  0
LINE
  8
_0-b_細線3
  6
CONTINUOUS
 62
    7
 10
171.59732643683853
 20
204.92522057077579
 11
171.59732643683853
 21
263.25855390410902
  0
LINE
  8
_0-b_細線3
  6
CONTINUOUS
 62
    7
 10
171.59732643683853
 20
263.25855390410902
 11
175.43065977017207
 21
263.25855390410902
  0
LINE
  8
_0-7_枠細線
  6
CONTINUOUS
 62
    5
 10
1139.4018171150183
 20
336.38960100174523
 11
1139.4018171150183
 21
416.38960100174529
  0
LINE
  8
_0-7_枠細線
  6
CONTINUOUS
 62
    5
 10
1229.4018171150183
 20
336.38960100174523
 11
1229.4018171150183
 21
416.38960100174529
  0
TEXT
  8
_0-7_枠細線
 62
    5
 10
1251.9018171150183
 20
393.88960100174529
 40
15
 41
1
 50
0
  1
蓋重量
  0
LINE
  8
_0-7_枠細線
  6
CONTINUOUS
 62
    5
 10
1319.4018171150183
 20
336.38960100174523
 11
1319.4018171150183
 21
416.38960100174529
  0
TEXT
  8
_0-7_枠細線
 62
    5
 10
1341.9018171150183
 20
393.88960100174529
 40
15
 41
1
 50
0
  1
枠重量
  0
LINE
  8
_0-7_枠細線
  6
CONTINUOUS
 62
    5
 10
1139.4018171150183
 20
386.38960100174529
 11
1409.4018171150183
 21
386.38960100174529
  0
LINE
  8
_0-7_枠細線
  6
CONTINUOUS
 62
    5
 10
1139.4018171150183
 20
416.38960100174529
 11
1409.4018171150183
 21
416.38960100174529
  0
LINE
  8
_0-7_枠細線
  6
CONTINUOUS
 62
    5
 10
1139.4018171150183
 20
336.38960100174523
 11
1409.4018171150183
 21
336.38960100174523
  0
LINE
  8
_0-7_枠細線
  6
CONTINUOUS
 62
    5
 10
1409.4018171150183
 20
336.38960100174523
 11
1409.4018171150183
 21
416.38960100174529
  0
TEXT
  8
_0-7_枠細線
 62
    5
 10
1154.4018171150183
 20
393.88960100174529
 40
15
 41
1
 50
0
  1
適用荷重
  0
TEXT
  8
_0-7_枠細線
 62
    5
 10
1161.9018171150183
 20
363.88960100174523
 40
15
 41
1
 50
0
  1
歩道用
  0
TEXT
  8
_0-7_枠細線
 62
    5
 10
1139.4018171150183
 20
343.88960100174523
 40
15
 41
1
 50
0
  1
（5.0kN/㎡）
  0
TEXT
  8
_0-7_枠細線
 62
    5
 10
1334.4018171150183
 20
355.13960100174523
 40
15
 41
0.8000000000000001
 50
0
  1
2.2kg/ｍ組
  0
TEXT
  8
_0-7_枠細線
 62
    5
 10
1250.4018171150187
 20
355.13960100174523
 40
15
 41
0.8000000000000001
 50
0
  1
3.1kg/枚
  0
LINE
  8
_0-1_計細線
  6
CONTINUOUS
 62
    3
 10
978.43374986367235
 20
677.21446549157508
 11
978.43374986367235
 21
671.21446549157497
  0
LINE
  8
_0-1_計細線
  6
CONTINUOUS
 62
    3
 10
978.43374986367235
 20
664.21446549157497
 11
978.43374986367235
 21
658.21446549157497
  0
LINE
  8
_0-1_計細線
  6
CONTINUOUS
 62
    3
 10
978.43374986367235
 20
651.21446549157497
 11
978.43374986367235
 21
645.21446549157508
  0
LINE
  8
_0-1_計細線
  6
CONTINUOUS
 62
    3
 10
978.43374986367235
 20
638.21446549157497
 11
978.43374986367235
 21
632.21446549157497
  0
LINE
  8
_0-1_計細線
  6
CONTINUOUS
 62
    3
 10
978.43374986367235
 20
625.21446549157508
 11
978.43374986367235
 21
619.21446549157497
  0
LINE
  8
_0-1_計細線
  6
CONTINUOUS
 62
    3
 10
978.43374986367235
 20
612.21446549157497
 11
978.43374986367235
 21
606.21446549157497
  0
LINE
  8
_0-0_計極細
  6
CENTER2
 62
    2
 10
284.53432977753164
 20
628.71446549157497
 11
1169.3550705182724
 21
628.71446549157497
  0
LINE
  8
_0-1_計細線
  6
CONTINUOUS
 62
    3
 10
471.43374986367286
 20
677.21446549157508
 11
471.43374986367286
 21
671.21446549157497
  0
LINE
  8
_0-1_計細線
  6
CONTINUOUS
 62
    3
 10
471.43374986367286
 20
664.21446549157497
 11
471.43374986367286
 21
658.21446549157497
  0
LINE
  8
_0-1_計細線
  6
CONTINUOUS
 62
    3
 10
471.43374986367286
 20
651.21446549157497
 11
471.43374986367286
 21
645.21446549157508
  0
LINE
  8
_0-1_計細線
  6
CONTINUOUS
 62
    3
 10
471.43374986367286
 20
638.21446549157497
 11
471.43374986367286
 21
632.21446549157497
  0
LINE
  8
_0-1_計細線
  6
CONTINUOUS
 62
    3
 10
471.43374986367286
 20
625.21446549157508
 11
471.43374986367286
 21
619.21446549157497
  0
LINE
  8
_0-1_計細線
  6
CONTINUOUS
 62
    3
 10
471.43374986367286
 20
612.21446549157497
 11
471.43374986367286
 21
606.21446549157497
  0
LINE
  8
_0-1_計細線
  6
CONTINUOUS
 62
    3
 10
978.43374986367235
 20
709.71446549157508
 11
978.43374986367235
 21
703.71446549157497
  0
LINE
  8
_0-1_計細線
  6
CONTINUOUS
 62
    3
 10
978.43374986367235
 20
696.71446549157497
 11
978.43374986367235
 21
690.71446549157497
  0
LINE
  8
_0-1_計細線
  6
CONTINUOUS
 62
    3
 10
978.43374986367235
 20
683.71446549157497
 11
978.43374986367235
 21
677.71446549157508
  0
LINE
  8
_0-1_計細線
  6
CONTINUOUS
 62
    3
 10
978.43374986367235
 20
735.71446549157497
 11
978.43374986367235
 21
729.71446549157508
  0
LINE
  8
_0-1_計細線
  6
CONTINUOUS
 62
    3
 10
978.43374986367235
 20
722.71446549157508
 11
978.43374986367235
 21
716.71446549157497
  0
LINE
  8
_0-1_計細線
  6
CONTINUOUS
 62
    3
 10
1164.9337498636719
 20
805.71446549157497
 11
284.93374986367286
 21
805.71446549157497
  0
ARC
  8
_0-1_計細線
  6
CONTINUOUS
 62
    3
 10
1151.871249863691
 20
798.2144654915769
 40
15.062499999984542
 50
330.13716564368235
 51
29.862834356304496
  0
ARC
  8
_0-1_計細線
  6
CONTINUOUS
 62
    3
 10
1177.996249863691
 20
783.2144654915769
 40
15.062500000017272
 50
150.13716564376668
 51
209.86283435624458
  0
LINE
  8
_0-5_寸法線
  6
CONTINUOUS
 62
    7
 10
475.4337498636728
 20
815.71446549157372
 11
475.4337498636728
 21
895.71446549157497
  0
LINE
  8
_0-5_寸法線
  6
CONTINUOUS
 62
    7
 10
475.4337498636728
 20
890.71446549157497
 11
485.09300812656352
 21
893.30265594260027
  0
LINE
  8
_0-5_寸法線
  6
CONTINUOUS
 62
    7
 10
475.4337498636728
 20
890.71446549157497
 11
485.09300812656352
 21
888.1262750405499
  0
LINE
  8
_0-5_寸法線
  6
CONTINUOUS
 62
    7
 10
974.43374986367292
 20
815.71446549157372
 11
974.43374986367292
 21
895.71446549157497
  0
LINE
  8
_0-5_寸法線
  6
CONTINUOUS
 62
    7
 10
974.43374986367292
 20
890.71446549157497
 11
964.77449160078208
 21
888.1262750405499
  0
LINE
  8
_0-5_寸法線
  6
CONTINUOUS
 62
    7
 10
974.43374986367292
 20
890.71446549157497
 11
964.77449160078208
 21
893.30265594260027
  0
LINE
  8
_0-5_寸法線
  6
CONTINUOUS
 62
    7
 10
475.4337498636728
 20
890.71446549157497
 11
974.43374986367292
 21
890.71446549157497
  0
TEXT
  8
_0-5_寸法線
 62
    7
 10
713.6837498636728
 20
890.71446549157497
 40
15
 41
1
 50
0
  1
499
  0
LINE
  8
_0-5_寸法線
  6
CONTINUOUS
 62
    7
 10
475.4337498636728
 20
815.71446549157497
 11
475.4337498636728
 21
860.71446549157497
  0
LINE
  8
_0-5_寸法線
  6
CONTINUOUS
 62
    7
 10
475.4337498636728
 20
855.71446549157497
 11
485.09300812656352
 21
858.30265594260027
  0
LINE
  8
_0-5_寸法線
  6
CONTINUOUS
 62
    7
 10
475.4337498636728
 20
855.71446549157497
 11
485.09300812656352
 21
853.1262750405499
  0
LINE
  8
_0-5_寸法線
  6
CONTINUOUS
 62
    7
 10
574.9337498636728
 20
815.71446549157497
 11
574.9337498636728
 21
860.71446549157497
  0
LINE
  8
_0-5_寸法線
  6
CONTINUOUS
 62
    7
 10
574.9337498636728
 20
855.71446549157497
 11
565.27449160078208
 21
853.1262750405499
  0
LINE
  8
_0-5_寸法線
  6
CONTINUOUS
 62
    7
 10
574.9337498636728
 20
855.71446549157497
 11
565.27449160078208
 21
858.30265594260027
  0
LINE
  8
_0-5_寸法線
  6
CONTINUOUS
 62
    7
 10
475.4337498636728
 20
855.71446549157497
 11
574.9337498636728
 21
855.71446549157497
  0
TEXT
  8
_0-5_寸法線
 62
    7
 10
510.18374986367286
 20
855.71446549157497
 40
15
 41
1
 50
0
  1
99.5
  0
LINE
  8
_0-5_寸法線
  6
CONTINUOUS
 62
    7
 10
574.9337498636728
 20
855.71446549157497
 11
584.59300812656352
 21
858.30265594260027
  0
LINE
  8
_0-5_寸法線
  6
CONTINUOUS
 62
    7
 10
574.9337498636728
 20
855.71446549157497
 11
584.59300812656352
 21
853.12627504054967
  0
LINE
  8
_0-5_寸法線
  6
CONTINUOUS
 62
    7
 10
674.9337498636728
 20
815.71446549157497
 11
674.9337498636728
 21
860.71446549157497
  0
LINE
  8
_0-5_寸法線
  6
CONTINUOUS
 62
    7
 10
674.9337498636728
 20
855.71446549157497
 11
665.27449160078208
 21
853.1262750405499
  0
LINE
  8
_0-5_寸法線
  6
CONTINUOUS
 62
    7
 10
674.9337498636728
 20
855.71446549157497
 11
665.27449160078208
 21
858.30265594260027
  0
LINE
  8
_0-5_寸法線
  6
CONTINUOUS
 62
    7
 10
574.9337498636728
 20
855.71446549157497
 11
674.9337498636728
 21
855.71446549157497
  0
TEXT
  8
_0-5_寸法線
 62
    7
 10
613.6837498636728
 20
855.71446549157497
 40
15
 41
1
 50
0
  1
100
  0
LINE
  8
_0-5_寸法線
  6
CONTINUOUS
 62
    7
 10
674.9337498636728
 20
855.71446549157497
 11
684.59300812656352
 21
858.30265594260027
  0
LINE
  8
_0-5_寸法線
  6
CONTINUOUS
 62
    7
 10
674.9337498636728
 20
855.71446549157497
 11
684.59300812656352
 21
853.12627504054967
  0
LINE
  8
_0-5_寸法線
  6
CONTINUOUS
 62
    7
 10
774.93374986367246
 20
815.71446549157531
 11
774.93374986367246
 21
860.71446549157497
  0
LINE
  8
_0-5_寸法線
  6
CONTINUOUS
 62
    7
 10
774.93374986367246
 20
855.71446549157497
 11
765.27449160078163
 21
853.1262750405499
  0
LINE
  8
_0-5_寸法線
  6
CONTINUOUS
 62
    7
 10
774.93374986367246
 20
855.71446549157497
 11
765.27449160078163
 21
858.30265594260027
  0
LINE
  8
_0-5_寸法線
  6
CONTINUOUS
 62
    7
 10
674.9337498636728
 20
855.71446549157497
 11
774.93374986367246
 21
855.71446549157497
  0
TEXT
  8
_0-5_寸法線
 62
    7
 10
713.6837498636728
 20
855.71446549157497
 40
15
 41
1
 50
0
  1
100
  0
LINE
  8
_0-5_寸法線
  6
CONTINUOUS
 62
    7
 10
774.93374986367246
 20
855.71446549157497
 11
784.59300812656306
 21
858.30265594260027
  0
LINE
  8
_0-5_寸法線
  6
CONTINUOUS
 62
    7
 10
774.93374986367246
 20
855.71446549157497
 11
784.59300812656306
 21
853.12627504054967
  0
LINE
  8
_0-5_寸法線
  6
CONTINUOUS
 62
    7
 10
874.93374986367246
 20
815.71446549157497
 11
874.93374986367246
 21
860.71446549157497
  0
LINE
  8
_0-5_寸法線
  6
CONTINUOUS
 62
    7
 10
874.93374986367246
 20
855.71446549157497
 11
865.27449160078163
 21
853.1262750405499
  0
LINE
  8
_0-5_寸法線
  6
CONTINUOUS
 62
    7
 10
874.93374986367246
 20
855.71446549157497
 11
865.27449160078163
 21
858.30265594260027
  0
LINE
  8
_0-5_寸法線
  6
CONTINUOUS
 62
    7
 10
774.93374986367246
 20
855.71446549157497
 11
874.93374986367246
 21
855.71446549157497
  0
TEXT
  8
_0-5_寸法線
 62
    7
 10
813.68374986367246
 20
855.71446549157497
 40
15
 41
1
 50
0
  1
100
  0
LINE
  8
_0-5_寸法線
  6
CONTINUOUS
 62
    7
 10
874.93374986367246
 20
855.71446549157497
 11
884.59300812656306
 21
858.30265594260027
  0
LINE
  8
_0-5_寸法線
  6
CONTINUOUS
 62
    7
 10
874.93374986367246
 20
855.71446549157497
 11
884.59300812656306
 21
853.12627504054967
  0
LINE
  8
_0-5_寸法線
  6
CONTINUOUS
 62
    7
 10
974.43374986367292
 20
815.71446549157497
 11
974.43374986367292
 21
860.71446549157497
  0
LINE
  8
_0-5_寸法線
  6
CONTINUOUS
 62
    7
 10
974.43374986367292
 20
855.71446549157497
 11
964.77449160078208
 21
853.1262750405499
  0
LINE
  8
_0-5_寸法線
  6
CONTINUOUS
 62
    7
 10
974.43374986367292
 20
855.71446549157497
 11
964.77449160078208
 21
858.30265594260027
  0
LINE
  8
_0-5_寸法線
  6
CONTINUOUS
 62
    7
 10
874.93374986367246
 20
855.71446549157497
 11
974.43374986367292
 21
855.71446549157497
  0
TEXT
  8
_0-5_寸法線
 62
    7
 10
909.6837498636728
 20
855.71446549157497
 40
15
 41
1
 50
0
  1
99.5
  0
LINE
  8
_0-1_計細線
  6
CONTINUOUS
 62
    3
 10
978.43374986367235
 20
800.71446549157497
 11
978.43374986367235
 21
794.71446549157508
  0
LINE
  8
_0-1_計細線
  6
CONTINUOUS
 62
    3
 10
978.43374986367235
 20
787.71446549157508
 11
978.43374986367235
 21
781.71446549157508
  0
LINE
  8
_0-1_計細線
  6
CONTINUOUS
 62
    3
 10
978.43374986367235
 20
774.71446549157508
 11
978.43374986367235
 21
768.71446549157497
  0
LINE
  8
_0-1_計細線
  6
CONTINUOUS
 62
    3
 10
1166.2458422492005
 20
802.71446549157508
 11
283.6216574781447
 21
802.71446549157508
  0
LINE
  8
_0-1_計細線
  6
CONTINUOUS
 62
    3
 10
1164.9337498636719
 20
775.71446549157497
 11
1129.3370068364002
 21
775.71446549157497
  0
LINE
  8
_0-1_計細線
  6
CONTINUOUS
 62
    3
 10
978.43374986367235
 20
761.71446549157497
 11
978.43374986367235
 21
755.71446549157497
  0
LINE
  8
_0-1_計細線
  6
CONTINUOUS
 62
    3
 10
978.43374986367235
 20
748.71446549157497
 11
978.43374986367235
 21
742.71446549157508
  0
LINE
  8
_0-0_計極細
  6
CONTINUOUS
 62
    2
 10
1124.9337498636728
 20
628.71446549157497
 11
1125.0288782978141
 21
629.26768563762812
  0
LINE
  8
_0-0_計極細
  6
CONTINUOUS
 62
    2
 10
1125.0288782978141
 20
629.26768563762812
 11
1125.3115821444273
 21
630.91228593581832
  0
LINE
  8
_0-0_計極細
  6
CONTINUOUS
 62
    2
 10
1125.3115821444273
 20
630.91228593581832
 11
1125.7734027768663
 21
633.60366709637572
  0
LINE
  8
_0-0_計極細
  6
CONTINUOUS
 62
    2
 10
1125.7734027768663
 20
633.60366709637572
 11
1126.3990454892121
 21
637.26935791193841
  0
LINE
  8
_0-0_計極細
  6
CONTINUOUS
 62
    2
 10
1126.3990454892121
 20
637.26935791193841
 11
1127.1651749637983
 21
641.8115588175383
  0
LINE
  8
_0-0_計極細
  6
CONTINUOUS
 62
    2
 10
1127.1651749637983
 20
641.8115588175383
 11
1128.0397350956448
 21
647.11026974565368
  0
LINE
  8
_0-0_計極細
  6
CONTINUOUS
 62
    2
 10
1128.0397350956448
 20
647.11026974565368
 11
1128.9824355749681
 21
653.02669894529208
  0
LINE
  8
_0-0_計極細
  6
CONTINUOUS
 62
    2
 10
1128.9824355749681
 20
653.02669894529208
 11
1129.9468189370741
 21
659.4067105672566
  0
LINE
  8
_0-0_計極細
  6
CONTINUOUS
 62
    2
 10
1129.9468189370741
 20
659.4067105672566
 11
1130.8839427476414
 21
666.08418515530786
  0
LINE
  8
_0-0_計極細
  6
CONTINUOUS
 62
    2
 10
1130.8839427476414
 20
666.08418515530786
 11
1131.7472745025123
 21
672.88430690858127
  0
LINE
  8
_0-0_計極細
  6
CONTINUOUS
 62
    2
 10
1131.7472745025123
 20
672.88430690858127
 11
1132.4980131439374
 21
679.62691609875174
  0
LINE
  8
_0-0_計極細
  6
CONTINUOUS
 62
    2
 10
1132.4980131439374
 20
679.62691609875174
 11
1133.1098238928996
 21
686.1301385801487
  0
LINE
  8
_0-0_計極細
  6
CONTINUOUS
 62
    2
 10
1133.1098238928996
 20
686.1301385801487
 11
1133.5719710284391
 21
692.21450308809835
  0
LINE
  8
_0-0_計極細
  6
CONTINUOUS
 62
    2
 10
1133.5719710284391
 20
692.21450308809835
 11
1133.8900724972143
 21
697.70767537696452
  0
LINE
  8
_0-0_計極細
  6
CONTINUOUS
 62
    2
 10
1133.8900724972143
 20
697.70767537696452
 11
1134.0841389199313
 21
702.44979078993811
  0
LINE
  8
_0-0_計極細
  6
CONTINUOUS
 62
    2
 10
1134.0841389199313
 20
702.44979078993811
 11
1134.1841060997531
 21
706.29918542063024
  0
LINE
  8
_0-0_計極細
  6
CONTINUOUS
 62
    2
 10
1134.1841060997531
 20
706.29918542063024
 11
1134.2236038196579
 21
709.13815254524502
  0
LINE
  8
_0-0_計極細
  6
CONTINUOUS
 62
    2
 10
1134.2236038196579
 20
709.13815254524502
 11
1134.2331026143161
 21
710.87822772718346
  0
LINE
  8
_0-0_計極細
  6
CONTINUOUS
 62
    2
 10
1134.2331026143161
 20
710.87822772718346
 11
1134.2337498636725
 21
711.46446549157508
  0
LINE
  8
_0-0_計極細
  6
CONTINUOUS
 62
    2
 10
1134.2337498636725
 20
711.46446549157508
 11
1134.2331026143161
 21
712.0511556345491
  0
LINE
  8
_0-0_計極細
  6
CONTINUOUS
 62
    2
 10
1134.2331026143161
 20
712.0511556345491
 11
1134.2236038196579
 21
713.79786975899037
  0
LINE
  8
_0-0_計極細
  6
CONTINUOUS
 62
    2
 10
1134.2236038196579
 20
713.79786975899037
 11
1134.1841060997531
 21
716.66444281687222
  0
LINE
  8
_0-0_計極細
  6
CONTINUOUS
 62
    2
 10
1134.1841060997531
 20
716.66444281687222
 11
1134.0841389199315
 21
720.5837069818482
  0
LINE
  8
_0-0_計極細
  6
CONTINUOUS
 62
    2
 10
1134.0841389199315
 20
720.5837069818482
 11
1133.8900724972143
 21
725.46146021715106
  0
LINE
  8
_0-0_計極細
  6
CONTINUOUS
 62
    2
 10
1133.8900724972143
 20
725.46146021715106
 11
1133.5719710284391
 21
731.17696148956975
  0
LINE
  8
_0-0_計極細
  6
CONTINUOUS
 62
    2
 10
1133.5719710284391
 20
731.17696148956975
 11
1133.1098238928996
 21
737.58433205999324
  0
LINE
  8
_0-0_計極細
  6
CONTINUOUS
 62
    2
 10
1133.1098238928996
 20
737.58433205999324
 11
1132.4980131439374
 21
744.51516420464316
  0
LINE
  8
_0-0_計極細
  6
CONTINUOUS
 62
    2
 10
1132.4980131439374
 20
744.51516420464316
 11
1131.7472745025123
 21
751.78248319796057
  0
LINE
  8
_0-0_計極細
  6
CONTINUOUS
 62
    2
 10
1131.7472745025123
 20
751.78248319796057
 11
1130.8839427476414
 21
759.18600886592844
  0
LINE
  8
_0-0_計極細
  6
CONTINUOUS
 62
    2
 10
1130.8839427476414
 20
759.18600886592844
 11
1129.9468189370741
 21
766.5184624613654
  0
LINE
  8
_0-0_計極細
  6
CONTINUOUS
 62
    2
 10
1129.9468189370741
 20
766.5184624613654
 11
1128.9824355749679
 21
773.57250546544731
  0
LINE
  8
_0-0_計極細
  6
CONTINUOUS
 62
    2
 10
1128.9824355749679
 20
773.57250546544731
 11
1128.0397350956448
 21
780.14781134418229
  0
LINE
  8
_0-0_計極細
  6
CONTINUOUS
 62
    2
 10
1128.0397350956448
 20
780.14781134418229
 11
1127.1651749637983
 21
786.05777397735199
  0
LINE
  8
_0-0_計極細
  6
CONTINUOUS
 62
    2
 10
1127.1651749637983
 20
786.05777397735199
 11
1126.3990454892121
 21
791.13544172002833
  0
LINE
  8
_0-0_計極細
  6
CONTINUOUS
 62
    2
 10
1126.3990454892121
 20
791.13544172002833
 11
1125.7734027768663
 21
795.23840970013362
  0
LINE
  8
_0-0_計極細
  6
CONTINUOUS
 62
    2
 10
1125.7734027768663
 20
795.23840970013362
 11
1125.3115821444273
 21
798.25256872207308
  0
LINE
  8
_0-0_計極細
  6
CONTINUOUS
 62
    2
 10
1125.3115821444273
 20
798.25256872207308
 11
1125.0288782978141
 21
800.09475773026213
  0
LINE
  8
_0-0_計極細
  6
CONTINUOUS
 62
    2
 10
1125.0288782978141
 20
800.09475773026213
 11
1124.9337498636728
 21
800.71446549157497
  0
LINE
  8
_0-1_計細線
  6
CONTINUOUS
 62
    3
 10
471.43374986367286
 20
709.71446549157508
 11
471.43374986367286
 21
703.71446549157497
  0
LINE
  8
_0-1_計細線
  6
CONTINUOUS
 62
    3
 10
471.43374986367286
 20
696.71446549157497
 11
471.43374986367286
 21
690.71446549157497
  0
LINE
  8
_0-1_計細線
  6
CONTINUOUS
 62
    3
 10
471.43374986367286
 20
683.71446549157497
 11
471.43374986367286
 21
677.71446549157508
  0
LINE
  8
_0-1_計細線
  6
CONTINUOUS
 62
    3
 10
471.43374986367286
 20
735.71446549157497
 11
471.43374986367286
 21
729.71446549157508
  0
LINE
  8
_0-1_計細線
  6
CONTINUOUS
 62
    3
 10
471.43374986367286
 20
722.71446549157508
 11
471.43374986367286
 21
716.71446549157497
  0
ARC
  8
_0-1_計細線
  6
CONTINUOUS
 62
    3
 10
297.99624986365461
 20
798.2144654915769
 40
15.062499999984542
 50
150.13716564369517
 51
209.86283435631606
  0
ARC
  8
_0-1_計細線
  6
CONTINUOUS
 62
    3
 10
271.87124986365461
 20
783.2144654915769
 40
15.062500000017272
 50
330.13716564375386
 51
29.862834356232998
  0
LINE
  8
_0-1_計細線
  6
CONTINUOUS
 62
    3
 10
471.43374986367286
 20
800.71446549157497
 11
471.43374986367286
 21
794.71446549157508
  0
LINE
  8
_0-1_計細線
  6
CONTINUOUS
 62
    3
 10
471.43374986367286
 20
787.71446549157508
 11
471.43374986367286
 21
781.71446549157508
  0
LINE
  8
_0-1_計細線
  6
CONTINUOUS
 62
    3
 10
471.43374986367286
 20
774.71446549157508
 11
471.43374986367286
 21
768.71446549157497
  0
LINE
  8
_0-1_計細線
  6
CONTINUOUS
 62
    3
 10
284.93374986367326
 20
775.71446549157497
 11
320.53049289094497
 21
775.71446549157497
  0
LINE
  8
_0-1_計細線
  6
CONTINUOUS
 62
    3
 10
471.43374986367286
 20
761.71446549157497
 11
471.43374986367286
 21
755.71446549157497
  0
LINE
  8
_0-1_計細線
  6
CONTINUOUS
 62
    3
 10
471.43374986367286
 20
748.71446549157497
 11
471.43374986367286
 21
742.71446549157508
  0
LINE
  8
_0-0_計極細
  6
CONTINUOUS
 62
    2
 10
324.9337498636728
 20
628.71446549157497
 11
324.83862142953171
 21
629.26768563762812
  0
LINE
  8
_0-0_計極細
  6
CONTINUOUS
 62
    2
 10
324.83862142953171
 20
629.26768563762812
 11
324.55591758291814
 21
630.91228593581832
  0
LINE
  8
_0-0_計極細
  6
CONTINUOUS
 62
    2
 10
324.55591758291814
 20
630.91228593581832
 11
324.09409695047918
 21
633.60366709637572
  0
LINE
  8
_0-0_計極細
  6
CONTINUOUS
 62
    2
 10
324.09409695047918
 20
633.60366709637572
 11
323.46845423813352
 21
637.26935791193841
  0
LINE
  8
_0-0_計極細
  6
CONTINUOUS
 62
    2
 10
323.46845423813352
 20
637.26935791193841
 11
322.70232476354738
 21
641.8115588175383
  0
LINE
  8
_0-0_計極細
  6
CONTINUOUS
 62
    2
 10
322.70232476354738
 20
641.8115588175383
 11
321.82776463170063
 21
647.11026974565368
  0
LINE
  8
_0-0_計極細
  6
CONTINUOUS
 62
    2
 10
321.82776463170063
 20
647.11026974565368
 11
320.88506415237737
 21
653.02669894529208
  0
LINE
  8
_0-0_計極細
  6
CONTINUOUS
 62
    2
 10
320.88506415237737
 20
653.02669894529208
 11
319.92068079027126
 21
659.4067105672566
  0
LINE
  8
_0-0_計極細
  6
CONTINUOUS
 62
    2
 10
319.92068079027126
 20
659.4067105672566
 11
318.98355697970385
 21
666.08418515530786
  0
LINE
  8
_0-0_計極細
  6
CONTINUOUS
 62
    2
 10
318.98355697970385
 20
666.08418515530786
 11
318.12022522483301
 21
672.88430690858127
  0
LINE
  8
_0-0_計極細
  6
CONTINUOUS
 62
    2
 10
318.12022522483301
 20
672.88430690858127
 11
317.36948658340782
 21
679.62691609875174
  0
LINE
  8
_0-0_計極細
  6
CONTINUOUS
 62
    2
 10
317.36948658340782
 20
679.62691609875174
 11
316.75767583444565
 21
686.1301385801487
  0
LINE
  8
_0-0_計極細
  6
CONTINUOUS
 62
    2
 10
316.75767583444565
 20
686.1301385801487
 11
316.2955286989062
 21
692.21450308809835
  0
LINE
  8
_0-0_計極細
  6
CONTINUOUS
 62
    2
 10
316.2955286989062
 20
692.21450308809835
 11
315.97742723013073
 21
697.70767537696452
  0
LINE
  8
_0-0_計極細
  6
CONTINUOUS
 62
    2
 10
315.97742723013073
 20
697.70767537696452
 11
315.78336080741371
 21
702.44979078993811
  0
LINE
  8
_0-0_計極細
  6
CONTINUOUS
 62
    2
 10
315.78336080741371
 20
702.44979078993811
 11
315.68339362759218
 21
706.29918542063024
  0
LINE
  8
_0-0_計極細
  6
CONTINUOUS
 62
    2
 10
315.68339362759218
 20
706.29918542063024
 11
315.64389590768724
 21
709.13815254524502
  0
LINE
  8
_0-0_計極細
  6
CONTINUOUS
 62
    2
 10
315.64389590768724
 20
709.13815254524502
 11
315.63439711302919
 21
710.87822772718346
  0
LINE
  8
_0-0_計極細
  6
CONTINUOUS
 62
    2
 10
315.63439711302919
 20
710.87822772718346
 11
315.63374986367262
 21
711.46446549157508
  0
LINE
  8
_0-0_計極細
  6
CONTINUOUS
 62
    2
 10
315.63374986367262
 20
711.46446549157508
 11
315.63439711302919
 21
712.0511556345491
  0
LINE
  8
_0-0_計極細
  6
CONTINUOUS
 62
    2
 10
315.63439711302919
 20
712.0511556345491
 11
315.64389590768718
 21
713.79786975899037
  0
LINE
  8
_0-0_計極細
  6
CONTINUOUS
 62
    2
 10
315.64389590768718
 20
713.79786975899037
 11
315.68339362759224
 21
716.66444281687222
  0
LINE
  8
_0-0_計極細
  6
CONTINUOUS
 62
    2
 10
315.68339362759224
 20
716.66444281687222
 11
315.78336080741371
 21
720.5837069818482
  0
LINE
  8
_0-0_計極細
  6
CONTINUOUS
 62
    2
 10
315.78336080741371
 20
720.5837069818482
 11
315.97742723013073
 21
725.46146021715106
  0
LINE
  8
_0-0_計極細
  6
CONTINUOUS
 62
    2
 10
315.97742723013073
 20
725.46146021715106
 11
316.2955286989062
 21
731.17696148956975
  0
LINE
  8
_0-0_計極細
  6
CONTINUOUS
 62
    2
 10
316.2955286989062
 20
731.17696148956975
 11
316.75767583444559
 21
737.58433205999324
  0
LINE
  8
_0-0_計極細
  6
CONTINUOUS
 62
    2
 10
316.75767583444559
 20
737.58433205999324
 11
317.36948658340782
 21
744.51516420464316
  0
LINE
  8
_0-0_計極細
  6
CONTINUOUS
 62
    2
 10
317.36948658340782
 20
744.51516420464316
 11
318.12022522483301
 21
751.78248319796057
  0
LINE
  8
_0-0_計極細
  6
CONTINUOUS
 62
    2
 10
318.12022522483301
 20
751.78248319796057
 11
318.98355697970385
 21
759.18600886592844
  0
LINE
  8
_0-0_計極細
  6
CONTINUOUS
 62
    2
 10
318.98355697970385
 20
759.18600886592844
 11
319.92068079027126
 21
766.5184624613654
  0
LINE
  8
_0-0_計極細
  6
CONTINUOUS
 62
    2
 10
319.92068079027126
 20
766.5184624613654
 11
320.88506415237731
 21
773.57250546544731
  0
LINE
  8
_0-0_計極細
  6
CONTINUOUS
 62
    2
 10
320.88506415237731
 20
773.57250546544731
 11
321.82776463170057
 21
780.14781134418229
  0
LINE
  8
_0-0_計極細
  6
CONTINUOUS
 62
    2
 10
321.82776463170057
 20
780.14781134418229
 11
322.70232476354738
 21
786.05777397735199
  0
LINE
  8
_0-0_計極細
  6
CONTINUOUS
 62
    2
 10
322.70232476354738
 20
786.05777397735199
 11
323.4684542381334
 21
791.13544172002833
  0
LINE
  8
_0-0_計極細
  6
CONTINUOUS
 62
    2
 10
323.4684542381334
 20
791.13544172002833
 11
324.09409695047918
 21
795.23840970013362
  0
LINE
  8
_0-0_計極細
  6
CONTINUOUS
 62
    2
 10
324.09409695047918
 20
795.23840970013362
 11
324.55591758291814
 21
798.25256872207308
  0
LINE
  8
_0-0_計極細
  6
CONTINUOUS
 62
    2
 10
324.55591758291814
 20
798.25256872207308
 11
324.83862142953171
 21
800.09475773026213
  0
LINE
  8
_0-0_計極細
  6
CONTINUOUS
 62
    2
 10
324.83862142953171
 20
800.09475773026213
 11
324.9337498636728
 21
800.71446549157497
  0
LINE
  8
_0-1_計細線
  6
CONTINUOUS
 62
    3
 10
978.43374986367235
 20
599.21446549157497
 11
978.43374986367235
 21
599.71446549157497
  0
LINE
  8
_0-1_計細線
  6
CONTINUOUS
 62
    3
 10
978.43374986367235
 20
592.71446549157508
 11
978.43374986367235
 21
586.71446549157497
  0
LINE
  8
_0-1_計細線
  6
CONTINUOUS
 62
    3
 10
978.43374986367235
 20
579.71446549157497
 11
978.43374986367235
 21
573.71446549157497
  0
LINE
  8
_0-1_計細線
  6
CONTINUOUS
 62
    3
 10
978.43374986367235
 20
566.71446549157497
 11
978.43374986367235
 21
560.71446549157497
  0
LINE
  8
_0-1_計細線
  6
CONTINUOUS
 62
    3
 10
978.43374986367235
 20
553.71446549157497
 11
978.43374986367235
 21
547.71446549157508
  0
LINE
  8
_0-1_計細線
  6
CONTINUOUS
 62
    3
 10
978.43374986367235
 20
527.71446549157508
 11
978.43374986367235
 21
521.71446549157497
  0
LINE
  8
_0-1_計細線
  6
CONTINUOUS
 62
    3
 10
978.43374986367235
 20
540.71446549157497
 11
978.43374986367235
 21
534.71446549157497
  0
LINE
  8
_0-1_計細線
  6
CONTINUOUS
 62
    3
 10
1164.9337498636719
 20
451.7144654915752
 11
284.93374986367286
 21
451.7144654915752
  0
ARC
  8
_0-1_計細線
  6
CONTINUOUS
 62
    3
 10
1177.9962498636619
 20
459.21446549157707
 40
15.06249999999028
 50
150.13716564371197
 51
209.86283435630014
  0
ARC
  8
_0-1_計細線
  6
CONTINUOUS
 62
    3
 10
1151.8712498637055
 20
474.2144654915657
 40
15.062499999975882
 50
330.13716564369213
 51
29.862834356369991
  0
LINE
  8
_0-5_寸法線
  6
CONTINUOUS
 62
    7
 10
789.91333547298484
 20
576.37025970484535
 11
793.82852332642278
 21
567.16855855384665
  0
LINE
  8
_0-5_寸法線
  6
CONTINUOUS
 62
    7
 10
789.91333547298484
 20
576.37025970484535
 11
788.70313703915087
 21
566.44375882332895
  0
LINE
  8
_0-5_寸法線
  6
CONTINUOUS
 62
    7
 10
789.91333547298484
 20
576.37025970484535
 11
813.27081859303871
 21
411.19894596387093
  0
LINE
  8
_0-5_寸法線
  6
CONTINUOUS
 62
    7
 10
813.27081859303871
 20
411.19894596387093
 11
947.70983080815859
 21
411.19894596387093
  0
TEXT
  8
_0-5_寸法線
 62
    7
 10
815.70983080815859
 20
411.19894596387093
 40
15
 41
0.8000000000000001
 50
0
  1
ステンレスグレーチング
  0
LINE
  8
_0-5_寸法線
  6
CONTINUOUS
 62
    7
 10
582.489070061245
 20
452.92947718310813
 11
587.489070061245
 21
444.26922314526371
  0
LINE
  8
_0-5_寸法線
  6
CONTINUOUS
 62
    7
 10
582.489070061245
 20
452.92947718310813
 11
582.489070061245
 21
442.92947718310813
  0
LINE
  8
_0-5_寸法線
  6
CONTINUOUS
 62
    7
 10
582.489070061245
 20
452.92947718310813
 11
593.67073220116072
 21
411.19894596387093
  0
LINE
  8
_0-5_寸法線
  6
CONTINUOUS
 62
    7
 10
593.67073220116072
 20
411.19894596387093
 11
701.72160541259518
 21
411.19894596387093
  0
TEXT
  8
_0-5_寸法線
 62
    7
 10
593.72160541259518
 20
411.19894596387093
 40
15
 41
0.8000000000000001
 50
0
  1
ＳＵＳアングル受枠
  0
LINE
  8
_0-1_計細線
  6
CONTINUOUS
 62
    3
 10
978.43374986367235
 20
488.71446549157497
 11
978.43374986367235
 21
482.71446549157503
  0
LINE
  8
_0-1_計細線
  6
CONTINUOUS
 62
    3
 10
978.43374986367235
 20
475.71446549157497
 11
978.43374986367235
 21
469.71446549157497
  0
LINE
  8
_0-1_計細線
  6
CONTINUOUS
 62
    3
 10
978.43374986367235
 20
462.71446549157503
 11
978.43374986367235
 21
456.71446549157503
  0
LINE
  8
_0-1_計細線
  6
CONTINUOUS
 62
    3
 10
286.24584224919818
 20
454.7144654915752
 11
1163.6216574781474
 21
454.7144654915752
  0
LINE
  8
_0-1_計細線
  6
CONTINUOUS
 62
    3
 10
978.43374986367235
 20
501.71446549157503
 11
978.43374986367235
 21
495.71446549157497
  0
LINE
  8
_0-1_計細線
  6
CONTINUOUS
 62
    3
 10
978.43374986367235
 20
514.71446549157497
 11
978.43374986367235
 21
508.71446549157497
  0
LINE
  8
_0-0_計極細
  6
CONTINUOUS
 62
    2
 10
1124.9337498636728
 20
456.71446549157366
 11
1124.8386214295317
 21
457.33417325288656
  0
LINE
  8
_0-0_計極細
  6
CONTINUOUS
 62
    2
 10
1124.8386214295317
 20
457.33417325288656
 11
1124.5559175829183
 21
459.17636226107561
  0
LINE
  8
_0-0_計極細
  6
CONTINUOUS
 62
    2
 10
1124.5559175829183
 20
459.17636226107561
 11
1124.0940969504795
 21
462.19052128301496
  0
LINE
  8
_0-0_計極細
  6
CONTINUOUS
 62
    2
 10
1124.0940969504795
 20
462.19052128301496
 11
1123.4684542381337
 21
466.29348926312048
  0
LINE
  8
_0-0_計極細
  6
CONTINUOUS
 62
    2
 10
1123.4684542381337
 20
466.29348926312048
 11
1122.7023247635473
 21
471.3711570057967
  0
LINE
  8
_0-0_計極細
  6
CONTINUOUS
 62
    2
 10
1122.7023247635473
 20
471.3711570057967
 11
1121.8277646317006
 21
477.28111963896623
  0
LINE
  8
_0-0_計極細
  6
CONTINUOUS
 62
    2
 10
1121.8277646317006
 20
477.28111963896623
 11
1120.8850641523773
 21
483.85642551770133
  0
LINE
  8
_0-0_計極細
  6
CONTINUOUS
 62
    2
 10
1120.8850641523773
 20
483.85642551770133
 11
1119.9206807902713
 21
490.91046852178323
  0
LINE
  8
_0-0_計極細
  6
CONTINUOUS
 62
    2
 10
1119.9206807902713
 20
490.91046852178323
 11
1118.983556979704
 21
498.24292211722025
  0
LINE
  8
_0-0_計極細
  6
CONTINUOUS
 62
    2
 10
1118.983556979704
 20
498.24292211722025
 11
1118.1202252248329
 21
505.64644778518812
  0
LINE
  8
_0-0_計極細
  6
CONTINUOUS
 62
    2
 10
1118.1202252248329
 20
505.64644778518812
 11
1117.3694865834077
 21
512.91376677850553
  0
LINE
  8
_0-0_計極細
  6
CONTINUOUS
 62
    2
 10
1117.3694865834077
 20
512.91376677850553
 11
1116.7576758344458
 21
519.84459892315533
  0
LINE
  8
_0-0_計極細
  6
CONTINUOUS
 62
    2
 10
1116.7576758344458
 20
519.84459892315533
 11
1116.2955286989063
 21
526.25196949357905
  0
LINE
  8
_0-0_計極細
  6
CONTINUOUS
 62
    2
 10
1116.2955286989063
 20
526.25196949357905
 11
1115.9774272301306
 21
531.96747076599775
  0
LINE
  8
_0-0_計極細
  6
CONTINUOUS
 62
    2
 10
1115.9774272301306
 20
531.96747076599775
 11
1115.7833608074136
 21
536.84522400130038
  0
LINE
  8
_0-0_計極細
  6
CONTINUOUS
 62
    2
 10
1115.7833608074136
 20
536.84522400130038
 11
1115.6833936275921
 21
540.76448816627646
  0
LINE
  8
_0-0_計極細
  6
CONTINUOUS
 62
    2
 10
1115.6833936275921
 20
540.76448816627646
 11
1115.6438959076872
 21
543.6310612241582
  0
LINE
  8
_0-0_計極細
  6
CONTINUOUS
 62
    2
 10
1115.6438959076872
 20
543.6310612241582
 11
1115.6343971130291
 21
545.37777534859947
  0
LINE
  8
_0-0_計極細
  6
CONTINUOUS
 62
    2
 10
1115.6343971130291
 20
545.37777534859947
 11
1115.6337498636726
 21
545.96446549157361
  0
LINE
  8
_0-0_計極細
  6
CONTINUOUS
 62
    2
 10
1115.6337498636726
 20
545.96446549157361
 11
1115.6343971130291
 21
546.55070325596535
  0
LINE
  8
_0-0_計極細
  6
CONTINUOUS
 62
    2
 10
1115.6343971130291
 20
546.55070325596535
 11
1115.6438959076872
 21
548.29077843790355
  0
LINE
  8
_0-0_計極細
  6
CONTINUOUS
 62
    2
 10
1115.6438959076872
 20
548.29077843790355
 11
1115.6833936275921
 21
551.12974556251845
  0
LINE
  8
_0-0_計極細
  6
CONTINUOUS
 62
    2
 10
1115.6833936275921
 20
551.12974556251845
 11
1115.7833608074136
 21
554.97914019321058
  0
LINE
  8
_0-0_計極細
  6
CONTINUOUS
 62
    2
 10
1115.7833608074136
 20
554.97914019321058
 11
1115.9774272301308
 21
559.72125560618406
  0
LINE
  8
_0-0_計極細
  6
CONTINUOUS
 62
    2
 10
1115.9774272301308
 20
559.72125560618406
 11
1116.2955286989061
 21
565.21442789505022
  0
LINE
  8
_0-0_計極細
  6
CONTINUOUS
 62
    2
 10
1116.2955286989061
 20
565.21442789505022
 11
1116.7576758344458
 21
571.29879240299999
  0
LINE
  8
_0-0_計極細
  6
CONTINUOUS
 62
    2
 10
1116.7576758344458
 20
571.29879240299999
 11
1117.3694865834079
 21
577.80201488439673
  0
LINE
  8
_0-0_計極細
  6
CONTINUOUS
 62
    2
 10
1117.3694865834079
 20
577.80201488439673
 11
1118.1202252248329
 21
584.54462407456765
  0
LINE
  8
_0-0_計極細
  6
CONTINUOUS
 62
    2
 10
1118.1202252248329
 20
584.54462407456765
 11
1118.983556979704
 21
591.3447458278406
  0
LINE
  8
_0-0_計極細
  6
CONTINUOUS
 62
    2
 10
1118.983556979704
 20
591.3447458278406
 11
1119.9206807902713
 21
598.02222041589187
  0
LINE
  8
_0-0_計極細
  6
CONTINUOUS
 62
    2
 10
1119.9206807902713
 20
598.02222041589187
 11
1120.8850641523773
 21
604.40223203785661
  0
LINE
  8
_0-0_計極細
  6
CONTINUOUS
 62
    2
 10
1120.8850641523773
 20
604.40223203785661
 11
1121.8277646317006
 21
610.31866123749501
  0
LINE
  8
_0-0_計極細
  6
CONTINUOUS
 62
    2
 10
1121.8277646317006
 20
610.31866123749501
 11
1122.7023247635473
 21
615.61737216561028
  0
LINE
  8
_0-0_計極細
  6
CONTINUOUS
 62
    2
 10
1122.7023247635473
 20
615.61737216561028
 11
1123.4684542381337
 21
620.15957307121016
  0
LINE
  8
_0-0_計極細
  6
CONTINUOUS
 62
    2
 10
1123.4684542381337
 20
620.15957307121016
 11
1124.0940969504795
 21
623.82526388677297
  0
LINE
  8
_0-0_計極細
  6
CONTINUOUS
 62
    2
 10
1124.0940969504795
 20
623.82526388677297
 11
1124.555917582918
 21
626.51664504733026
  0
LINE
  8
_0-0_計極細
  6
CONTINUOUS
 62
    2
 10
1124.555917582918
 20
626.51664504733026
 11
1124.8386214295317
 21
628.16124534552068
  0
LINE
  8
_0-0_計極細
  6
CONTINUOUS
 62
    2
 10
1124.8386214295317
 20
628.16124534552068
 11
1124.9337498636728
 21
628.71446549157361
  0
LINE
  8
_0-1_計細線
  6
CONTINUOUS
 62
    3
 10
1164.9337498636719
 20
481.7144654915752
 11
1121.1322091889992
 21
481.7144654915752
  0
LINE
  8
_0-1_計細線
  6
CONTINUOUS
 62
    3
 10
471.43374986367286
 20
599.21446549157497
 11
471.43374986367286
 21
599.71446549157497
  0
LINE
  8
_0-1_計細線
  6
CONTINUOUS
 62
    3
 10
471.43374986367286
 20
592.71446549157508
 11
471.43374986367286
 21
586.71446549157497
  0
LINE
  8
_0-1_計細線
  6
CONTINUOUS
 62
    3
 10
471.43374986367286
 20
579.71446549157497
 11
471.43374986367286
 21
573.71446549157497
  0
LINE
  8
_0-1_計細線
  6
CONTINUOUS
 62
    3
 10
471.43374986367286
 20
566.71446549157497
 11
471.43374986367286
 21
560.71446549157497
  0
LINE
  8
_0-1_計細線
  6
CONTINUOUS
 62
    3
 10
471.43374986367286
 20
553.71446549157497
 11
471.43374986367286
 21
547.71446549157508
  0
LINE
  8
_0-1_計細線
  6
CONTINUOUS
 62
    3
 10
471.43374986367286
 20
527.71446549157508
 11
471.43374986367286
 21
521.71446549157497
  0
LINE
  8
_0-1_計細線
  6
CONTINUOUS
 62
    3
 10
471.43374986367286
 20
540.71446549157497
 11
471.43374986367286
 21
534.71446549157497
  0
ARC
  8
_0-1_計細線
  6
CONTINUOUS
 62
    3
 10
271.87124986368372
 20
459.21446549157707
 40
15.06249999999028
 50
330.13716564369918
 51
29.86283435628857
  0
ARC
  8
_0-1_計細線
  6
CONTINUOUS
 62
    3
 10
297.99624986364006
 20
474.2144654915657
 40
15.062499999975882
 50
150.13716564363051
 51
209.8628343563071
  0
LINE
  8
_0-1_計細線
  6
CONTINUOUS
 62
    3
 10
471.43374986367286
 20
488.71446549157497
 11
471.43374986367286
 21
482.71446549157503
  0
LINE
  8
_0-1_計細線
  6
CONTINUOUS
 62
    3
 10
471.43374986367286
 20
475.71446549157497
 11
471.43374986367286
 21
469.71446549157497
  0
LINE
  8
_0-1_計細線
  6
CONTINUOUS
 62
    3
 10
471.43374986367286
 20
462.71446549157503
 11
471.43374986367286
 21
456.71446549157503
  0
LINE
  8
_0-1_計細線
  6
CONTINUOUS
 62
    3
 10
471.43374986367286
 20
501.71446549157503
 11
471.43374986367286
 21
495.71446549157497
  0
LINE
  8
_0-1_計細線
  6
CONTINUOUS
 62
    3
 10
471.43374986367286
 20
514.71446549157497
 11
471.43374986367286
 21
508.71446549157497
  0
LINE
  8
_0-0_計極細
  6
CONTINUOUS
 62
    2
 10
324.9337498636728
 20
456.71446549157366
 11
325.02887829781395
 21
457.33417325288656
  0
LINE
  8
_0-0_計極細
  6
CONTINUOUS
 62
    2
 10
325.02887829781395
 20
457.33417325288656
 11
325.3115821444274
 21
459.17636226107561
  0
LINE
  8
_0-0_計極細
  6
CONTINUOUS
 62
    2
 10
325.3115821444274
 20
459.17636226107561
 11
325.77340277686636
 21
462.19052128301496
  0
LINE
  8
_0-0_計極細
  6
CONTINUOUS
 62
    2
 10
325.77340277686636
 20
462.19052128301496
 11
326.39904548921209
 21
466.29348926312048
  0
LINE
  8
_0-0_計極細
  6
CONTINUOUS
 62
    2
 10
326.39904548921209
 20
466.29348926312048
 11
327.16517496379817
 21
471.3711570057967
  0
LINE
  8
_0-0_計極細
  6
CONTINUOUS
 62
    2
 10
327.16517496379817
 20
471.3711570057967
 11
328.03973509564486
 21
477.28111963896623
  0
LINE
  8
_0-0_計極細
  6
CONTINUOUS
 62
    2
 10
328.03973509564486
 20
477.28111963896623
 11
328.98243557496806
 21
483.85642551770133
  0
LINE
  8
_0-0_計極細
  6
CONTINUOUS
 62
    2
 10
328.98243557496806
 20
483.85642551770133
 11
329.94681893707411
 21
490.91046852178323
  0
LINE
  8
_0-0_計極細
  6
CONTINUOUS
 62
    2
 10
329.94681893707411
 20
490.91046852178323
 11
330.88394274764141
 21
498.24292211722025
  0
LINE
  8
_0-0_計極細
  6
CONTINUOUS
 62
    2
 10
330.88394274764141
 20
498.24292211722025
 11
331.74727450251231
 21
505.64644778518812
  0
LINE
  8
_0-0_計極細
  6
CONTINUOUS
 62
    2
 10
331.74727450251231
 20
505.64644778518812
 11
332.4980131439375
 21
512.91376677850553
  0
LINE
  8
_0-0_計極細
  6
CONTINUOUS
 62
    2
 10
332.4980131439375
 20
512.91376677850553
 11
333.10982389289956
 21
519.84459892315533
  0
LINE
  8
_0-0_計極細
  6
CONTINUOUS
 62
    2
 10
333.10982389289956
 20
519.84459892315533
 11
333.57197102843907
 21
526.25196949357905
  0
LINE
  8
_0-0_計極細
  6
CONTINUOUS
 62
    2
 10
333.57197102843907
 20
526.25196949357905
 11
333.89007249721453
 21
531.96747076599775
  0
LINE
  8
_0-0_計極細
  6
CONTINUOUS
 62
    2
 10
333.89007249721453
 20
531.96747076599775
 11
334.08413891993143
 21
536.84522400130038
  0
LINE
  8
_0-0_計極細
  6
CONTINUOUS
 62
    2
 10
334.08413891993143
 20
536.84522400130038
 11
334.18410609975297
 21
540.76448816627646
  0
LINE
  8
_0-0_計極細
  6
CONTINUOUS
 62
    2
 10
334.18410609975297
 20
540.76448816627646
 11
334.22360381965797
 21
543.6310612241582
  0
LINE
  8
_0-0_計極細
  6
CONTINUOUS
 62
    2
 10
334.22360381965797
 20
543.6310612241582
 11
334.23310261431595
 21
545.37777534859947
  0
LINE
  8
_0-0_計極細
  6
CONTINUOUS
 62
    2
 10
334.23310261431595
 20
545.37777534859947
 11
334.23374986367259
 21
545.96446549157361
  0
LINE
  8
_0-0_計極細
  6
CONTINUOUS
 62
    2
 10
334.23374986367259
 20
545.96446549157361
 11
334.23310261431595
 21
546.55070325596535
  0
LINE
  8
_0-0_計極細
  6
CONTINUOUS
 62
    2
 10
334.23310261431595
 20
546.55070325596535
 11
334.22360381965797
 21
548.29077843790355
  0
LINE
  8
_0-0_計極細
  6
CONTINUOUS
 62
    2
 10
334.22360381965797
 20
548.29077843790355
 11
334.18410609975297
 21
551.12974556251845
  0
LINE
  8
_0-0_計極細
  6
CONTINUOUS
 62
    2
 10
334.18410609975297
 20
551.12974556251845
 11
334.08413891993143
 21
554.97914019321058
  0
LINE
  8
_0-0_計極細
  6
CONTINUOUS
 62
    2
 10
334.08413891993143
 20
554.97914019321058
 11
333.89007249721453
 21
559.72125560618406
  0
LINE
  8
_0-0_計極細
  6
CONTINUOUS
 62
    2
 10
333.89007249721453
 20
559.72125560618406
 11
333.57197102843907
 21
565.21442789505022
  0
LINE
  8
_0-0_計極細
  6
CONTINUOUS
 62
    2
 10
333.57197102843907
 20
565.21442789505022
 11
333.10982389289961
 21
571.29879240299999
  0
LINE
  8
_0-0_計極細
  6
CONTINUOUS
 62
    2
 10
333.10982389289961
 20
571.29879240299999
 11
332.4980131439375
 21
577.80201488439673
  0
LINE
  8
_0-0_計極細
  6
CONTINUOUS
 62
    2
 10
332.4980131439375
 20
577.80201488439673
 11
331.74727450251231
 21
584.54462407456765
  0
LINE
  8
_0-0_計極細
  6
CONTINUOUS
 62
    2
 10
331.74727450251231
 20
584.54462407456765
 11
330.88394274764141
 21
591.3447458278406
  0
LINE
  8
_0-0_計極細
  6
CONTINUOUS
 62
    2
 10
330.88394274764141
 20
591.3447458278406
 11
329.94681893707411
 21
598.02222041589187
  0
LINE
  8
_0-0_計極細
  6
CONTINUOUS
 62
    2
 10
329.94681893707411
 20
598.02222041589187
 11
328.98243557496806
 21
604.40223203785661
  0
LINE
  8
_0-0_計極細
  6
CONTINUOUS
 62
    2
 10
328.98243557496806
 20
604.40223203785661
 11
328.03973509564486
 21
610.31866123749501
  0
LINE
  8
_0-0_計極細
  6
CONTINUOUS
 62
    2
 10
328.03973509564486
 20
610.31866123749501
 11
327.16517496379822
 21
615.61737216561028
  0
LINE
  8
_0-0_計極細
  6
CONTINUOUS
 62
    2
 10
327.16517496379822
 20
615.61737216561028
 11
326.39904548921209
 21
620.15957307121016
  0
LINE
  8
_0-0_計極細
  6
CONTINUOUS
 62
    2
 10
326.39904548921209
 20
620.15957307121016
 11
325.77340277686636
 21
623.82526388677297
  0
LINE
  8
_0-0_計極細
  6
CONTINUOUS
 62
    2
 10
325.77340277686636
 20
623.82526388677297
 11
325.3115821444274
 21
626.51664504733026
  0
LINE
  8
_0-0_計極細
  6
CONTINUOUS
 62
    2
 10
325.3115821444274
 20
626.51664504733026
 11
325.02887829781395
 21
628.16124534552068
  0
LINE
  8
_0-0_計極細
  6
CONTINUOUS
 62
    2
 10
325.02887829781395
 20
628.16124534552068
 11
324.9337498636728
 21
628.71446549157361
  0
LINE
  8
_0-1_計細線
  6
CONTINUOUS
 62
    3
 10
284.93374986367326
 20
481.7144654915752
 11
328.73529053834596
 21
481.7144654915752
  0
LINE
  8
_0-1_計細線
  6
CONTINUOUS
 62
    3
 10
471.43374986367286
 20
800.71446549157497
 11
474.4337498636728
 21
800.71446549157497
  0
LINE
  8
_0-1_計細線
  6
CONTINUOUS
 62
    3
 10
474.4337498636728
 20
800.71446549157497
 11
474.4337498636728
 21
456.7144654915752
  0
LINE
  8
_0-1_計細線
  6
CONTINUOUS
 62
    3
 10
474.4337498636728
 20
456.7144654915752
 11
471.43374986367286
 21
456.7144654915752
  0
LINE
  8
_0-1_計細線
  6
CONTINUOUS
 62
    3
 10
471.43374986367286
 20
456.7144654915752
 11
471.43374986367286
 21
800.71446549157497
  0
LINE
  8
_0-1_計細線
  6
CONTINUOUS
 62
    3
 10
978.43374986367235
 20
800.71446549157497
 11
975.4337498636728
 21
800.71446549157497
  0
LINE
  8
_0-1_計細線
  6
CONTINUOUS
 62
    3
 10
975.4337498636728
 20
800.71446549157497
 11
975.4337498636728
 21
456.7144654915752
  0
LINE
  8
_0-1_計細線
  6
CONTINUOUS
 62
    3
 10
975.4337498636728
 20
456.7144654915752
 11
978.43374986367235
 21
456.7144654915752
  0
LINE
  8
_0-1_計細線
  6
CONTINUOUS
 62
    3
 10
978.43374986367235
 20
456.7144654915752
 11
978.43374986367235
 21
800.71446549157497
  0
LINE
  8
_0-1_計細線
  6
CONTINUOUS
 62
    3
 10
974.43374986367292
 20
800.71446549157497
 11
971.43374986367235
 21
800.71446549157497
  0
LINE
  8
_0-1_計細線
  6
CONTINUOUS
 62
    3
 10
971.43374986367235
 20
800.71446549157497
 11
971.43374986367235
 21
456.7144654915752
  0
LINE
  8
_0-1_計細線
  6
CONTINUOUS
 62
    3
 10
971.43374986367235
 20
456.7144654915752
 11
974.43374986367292
 21
456.7144654915752
  0
LINE
  8
_0-1_計細線
  6
CONTINUOUS
 62
    3
 10
974.43374986367292
 20
456.7144654915752
 11
974.43374986367292
 21
800.71446549157497
  0
LINE
  8
_0-1_計細線
  6
CONTINUOUS
 62
    3
 10
478.4337498636728
 20
800.71446549157497
 11
475.4337498636728
 21
800.71446549157497
  0
LINE
  8
_0-1_計細線
  6
CONTINUOUS
 62
    3
 10
475.4337498636728
 20
800.71446549157497
 11
475.4337498636728
 21
456.7144654915752
  0
LINE
  8
_0-1_計細線
  6
CONTINUOUS
 62
    3
 10
475.4337498636728
 20
456.7144654915752
 11
478.4337498636728
 21
456.7144654915752
  0
LINE
  8
_0-1_計細線
  6
CONTINUOUS
 62
    3
 10
478.4337498636728
 20
456.7144654915752
 11
478.4337498636728
 21
800.71446549157497
  0
LINE
  8
_0-0_計極細
  6
CENTER2
 62
    2
 10
1074.9337498636728
 20
794.71446549157508
 11
1074.9337498636728
 21
462.71446549157525
  0
LINE
  8
_0-0_計極細
  6
CENTER2
 62
    2
 10
874.93374986367246
 20
794.71446549157508
 11
874.93374986367246
 21
462.71446549157525
  0
LINE
  8
_0-0_計極細
  6
CENTER2
 62
    2
 10
774.93374986367246
 20
794.71446549157508
 11
774.93374986367246
 21
462.71446549157525
  0
LINE
  8
_0-0_計極細
  6
CENTER2
 62
    2
 10
674.9337498636728
 20
794.71446549157508
 11
674.9337498636728
 21
462.71446549157525
  0
LINE
  8
_0-0_計極細
  6
CENTER2
 62
    2
 10
574.9337498636728
 20
794.71446549157508
 11
574.9337498636728
 21
462.71446549157525
  0
LINE
  8
_0-5_寸法線
  6
CONTINUOUS
 62
    7
 10
272.93374986367053
 20
451.71446549157366
 11
227.93374986367056
 21
451.71446549157389
  0
LINE
  8
_0-5_寸法線
  6
CONTINUOUS
 62
    7
 10
232.93374986367056
 20
451.71446549157389
 11
230.34555941264534
 21
461.37372375446455
  0
LINE
  8
_0-5_寸法線
  6
CONTINUOUS
 62
    7
 10
232.93374986367056
 20
451.71446549157389
 11
235.52194031469577
 21
461.37372375446455
  0
LINE
  8
_0-5_寸法線
  6
CONTINUOUS
 62
    7
 10
272.93374986367053
 20
481.71446549157531
 11
227.93374986367056
 21
481.71446549157542
  0
LINE
  8
_0-5_寸法線
  6
CONTINUOUS
 62
    7
 10
232.93374986367056
 20
481.71446549157542
 11
235.52194031469568
 21
472.05520722868471
  0
LINE
  8
_0-5_寸法線
  6
CONTINUOUS
 62
    7
 10
232.93374986367056
 20
481.71446549157542
 11
230.34555941264529
 21
472.05520722868476
  0
LINE
  8
_0-5_寸法線
  6
CONTINUOUS
 62
    7
 10
232.93374986367056
 20
451.71446549157389
 11
232.93374986367056
 21
481.71446549157542
  0
TEXT
  8
_0-5_寸法線
 62
    7
 10
232.93374986367056
 20
459.2144654915748
 40
15
 41
1
 50
90
  1
30
  0
LINE
  8
_0-5_寸法線
  6
CONTINUOUS
 62
    7
 10
232.93374986367056
 20
481.71446549157542
 11
230.34555941264534
 21
491.37372375446608
  0
LINE
  8
_0-5_寸法線
  6
CONTINUOUS
 62
    7
 10
232.93374986367056
 20
481.71446549157542
 11
235.52194031469577
 21
491.37372375446608
  0
LINE
  8
_0-5_寸法線
  6
CONTINUOUS
 62
    7
 10
272.93374986367053
 20
775.71446549157497
 11
227.93374986367056
 21
775.71446549157531
  0
LINE
  8
_0-5_寸法線
  6
CONTINUOUS
 62
    7
 10
232.93374986367056
 20
775.71446549157531
 11
235.52194031469568
 21
766.05520722868448
  0
LINE
  8
_0-5_寸法線
  6
CONTINUOUS
 62
    7
 10
232.93374986367056
 20
775.71446549157531
 11
230.34555941264529
 21
766.05520722868448
  0
LINE
  8
_0-5_寸法線
  6
CONTINUOUS
 62
    7
 10
232.93374986367056
 20
481.71446549157542
 11
232.93374986367056
 21
775.71446549157531
  0
TEXT
  8
_0-5_寸法線
 62
    7
 10
232.93374986367056
 20
617.46446549157542
 40
15
 41
1
 50
90
  1
294
  0
LINE
  8
_0-5_寸法線
  6
CONTINUOUS
 62
    7
 10
232.93374986367056
 20
775.71446549157531
 11
230.34555941264534
 21
785.37372375446591
  0
LINE
  8
_0-5_寸法線
  6
CONTINUOUS
 62
    7
 10
232.93374986367056
 20
775.71446549157531
 11
235.52194031469577
 21
785.37372375446591
  0
LINE
  8
_0-5_寸法線
  6
CONTINUOUS
 62
    7
 10
272.93374986367053
 20
805.71446549157372
 11
227.93374986367056
 21
805.71446549157383
  0
LINE
  8
_0-5_寸法線
  6
CONTINUOUS
 62
    7
 10
232.93374986367056
 20
805.71446549157383
 11
235.52194031469568
 21
796.05520722868323
  0
LINE
  8
_0-5_寸法線
  6
CONTINUOUS
 62
    7
 10
232.93374986367056
 20
805.71446549157383
 11
230.34555941264529
 21
796.05520722868323
  0
LINE
  8
_0-5_寸法線
  6
CONTINUOUS
 62
    7
 10
232.93374986367056
 20
775.71446549157531
 11
232.93374986367056
 21
805.71446549157383
  0
TEXT
  8
_0-5_寸法線
 62
    7
 10
232.93374986367056
 20
783.21446549157463
 40
15
 41
1
 50
90
  1
30
  0
LINE
  8
_0-5_寸法線
  6
CONTINUOUS
 62
    7
 10
1176.9337498636755
 20
451.71446549157366
 11
1256.9337498636755
 21
451.71446549157366
  0
LINE
  8
_0-5_寸法線
  6
CONTINUOUS
 62
    7
 10
1251.9337498636755
 20
451.71446549157366
 11
1249.3455594126503
 21
461.37372375446432
  0
LINE
  8
_0-5_寸法線
  6
CONTINUOUS
 62
    7
 10
1251.9337498636755
 20
451.71446549157366
 11
1254.5219403147007
 21
461.37372375446432
  0
LINE
  8
_0-5_寸法線
  6
CONTINUOUS
 62
    7
 10
1176.9337498636755
 20
805.71446549157372
 11
1256.9337498636755
 21
805.71446549157372
  0
LINE
  8
_0-5_寸法線
  6
CONTINUOUS
 62
    7
 10
1251.9337498636755
 20
805.71446549157372
 11
1254.5219403147007
 21
796.05520722868289
  0
LINE
  8
_0-5_寸法線
  6
CONTINUOUS
 62
    7
 10
1251.9337498636755
 20
805.71446549157372
 11
1249.3455594126503
 21
796.05520722868289
  0
LINE
  8
_0-5_寸法線
  6
CONTINUOUS
 62
    7
 10
1251.9337498636755
 20
451.71446549157366
 11
1251.9337498636755
 21
805.71446549157372
  0
TEXT
  8
_0-5_寸法線
 62
    7
 10
1251.9337498636755
 20
617.46446549157338
 40
15
 41
1
 50
90
  1
354
  0
LINE
  8
_0-0_計極細
  6
CENTER2
 62
    2
 10
374.9337498636728
 20
794.71446549157508
 11
374.9337498636728
 21
462.71446549157525
  0
LINE
  8
_0-1_計細線
  6
CONTINUOUS
 62
    3
 10
478.4337498636728
 20
800.71446549157497
 11
478.4337498636728
 21
792.71446549157542
  0
LINE
  8
_0-1_計細線
  6
CONTINUOUS
 62
    3
 10
478.4337498636728
 20
792.71446549157542
 11
971.43374986367235
 21
792.71446549157542
  0
LINE
  8
_0-1_計細線
  6
CONTINUOUS
 62
    3
 10
971.43374986367235
 20
792.71446549157542
 11
971.43374986367235
 21
800.71446549157497
  0
LINE
  8
_0-1_計細線
  6
CONTINUOUS
 62
    3
 10
971.43374986367235
 20
800.71446549157497
 11
478.4337498636728
 21
800.71446549157497
  0
LINE
  8
_0-1_計細線
  6
CONTINUOUS
 62
    3
 10
478.4337498636728
 20
786.71446549157508
 11
478.4337498636728
 21
778.71446549157554
  0
LINE
  8
_0-1_計細線
  6
CONTINUOUS
 62
    3
 10
478.4337498636728
 20
778.71446549157554
 11
971.43374986367235
 21
778.71446549157554
  0
LINE
  8
_0-1_計細線
  6
CONTINUOUS
 62
    3
 10
971.43374986367235
 20
778.71446549157554
 11
971.43374986367235
 21
786.71446549157508
  0
LINE
  8
_0-1_計細線
  6
CONTINUOUS
 62
    3
 10
971.43374986367235
 20
786.71446549157508
 11
478.4337498636728
 21
786.71446549157508
  0
LINE
  8
_0-1_計細線
  6
CONTINUOUS
 62
    3
 10
478.4337498636728
 20
772.71446549157542
 11
478.4337498636728
 21
764.71446549157588
  0
LINE
  8
_0-1_計細線
  6
CONTINUOUS
 62
    3
 10
478.4337498636728
 20
764.71446549157588
 11
971.43374986367235
 21
764.71446549157588
  0
LINE
  8
_0-1_計細線
  6
CONTINUOUS
 62
    3
 10
971.43374986367235
 20
764.71446549157588
 11
971.43374986367235
 21
772.71446549157542
  0
LINE
  8
_0-1_計細線
  6
CONTINUOUS
 62
    3
 10
971.43374986367235
 20
772.71446549157542
 11
478.4337498636728
 21
772.71446549157542
  0
LINE
  8
_0-1_計細線
  6
CONTINUOUS
 62
    3
 10
478.4337498636728
 20
758.71446549157542
 11
478.4337498636728
 21
750.71446549157542
  0
LINE
  8
_0-1_計細線
  6
CONTINUOUS
 62
    3
 10
478.4337498636728
 20
750.71446549157542
 11
971.43374986367235
 21
750.71446549157542
  0
LINE
  8
_0-1_計細線
  6
CONTINUOUS
 62
    3
 10
971.43374986367235
 20
750.71446549157542
 11
971.43374986367235
 21
758.71446549157542
  0
LINE
  8
_0-1_計細線
  6
CONTINUOUS
 62
    3
 10
971.43374986367235
 20
758.71446549157542
 11
478.4337498636728
 21
758.71446549157542
  0
LINE
  8
_0-1_計細線
  6
CONTINUOUS
 62
    3
 10
478.4337498636728
 20
744.71446549157554
 11
478.4337498636728
 21
736.71446549157554
  0
LINE
  8
_0-1_計細線
  6
CONTINUOUS
 62
    3
 10
478.4337498636728
 20
736.71446549157554
 11
971.43374986367235
 21
736.71446549157554
  0
LINE
  8
_0-1_計細線
  6
CONTINUOUS
 62
    3
 10
971.43374986367235
 20
736.71446549157554
 11
971.43374986367235
 21
744.71446549157554
  0
LINE
  8
_0-1_計細線
  6
CONTINUOUS
 62
    3
 10
971.43374986367235
 20
744.71446549157554
 11
478.4337498636728
 21
744.71446549157554
  0
LINE
  8
_0-1_計細線
  6
CONTINUOUS
 62
    3
 10
478.4337498636728
 20
730.71446549157497
 11
478.4337498636728
 21
722.71446549157542
  0
LINE
  8
_0-1_計細線
  6
CONTINUOUS
 62
    3
 10
478.4337498636728
 20
722.71446549157542
 11
971.43374986367235
 21
722.71446549157542
  0
LINE
  8
_0-1_計細線
  6
CONTINUOUS
 62
    3
 10
971.43374986367235
 20
722.71446549157542
 11
971.43374986367235
 21
730.71446549157497
  0
LINE
  8
_0-1_計細線
  6
CONTINUOUS
 62
    3
 10
971.43374986367235
 20
730.71446549157497
 11
478.4337498636728
 21
730.71446549157497
  0
LINE
  8
_0-1_計細線
  6
CONTINUOUS
 62
    3
 10
478.4337498636728
 20
716.71446549157497
 11
478.4337498636728
 21
708.71446549157542
  0
LINE
  8
_0-1_計細線
  6
CONTINUOUS
 62
    3
 10
478.4337498636728
 20
708.71446549157542
 11
971.43374986367235
 21
708.71446549157542
  0
LINE
  8
_0-1_計細線
  6
CONTINUOUS
 62
    3
 10
971.43374986367235
 20
708.71446549157542
 11
971.43374986367235
 21
716.71446549157497
  0
LINE
  8
_0-1_計細線
  6
CONTINUOUS
 62
    3
 10
971.43374986367235
 20
716.71446549157497
 11
478.4337498636728
 21
716.71446549157497
  0
LINE
  8
_0-0_計極細
  6
CONTINUOUS
 62
    2
 10
577.4337498636728
 20
792.71446549157542
 11
577.4337498636728
 21
786.71446549157508
  0
LINE
  8
_0-0_計極細
  6
CONTINUOUS
 62
    2
 10
572.4337498636728
 20
786.71446549157508
 11
572.4337498636728
 21
792.71446549157542
  0
LINE
  8
_0-0_計極細
  6
CONTINUOUS
 62
    2
 10
577.4337498636728
 20
778.71446549157554
 11
577.4337498636728
 21
772.71446549157508
  0
LINE
  8
_0-0_計極細
  6
CONTINUOUS
 62
    2
 10
572.4337498636728
 20
772.71446549157508
 11
572.4337498636728
 21
778.71446549157554
  0
LINE
  8
_0-0_計極細
  6
CONTINUOUS
 62
    2
 10
577.4337498636728
 20
764.71446549157554
 11
577.4337498636728
 21
758.71446549157497
  0
LINE
  8
_0-0_計極細
  6
CONTINUOUS
 62
    2
 10
572.4337498636728
 20
758.71446549157497
 11
572.4337498636728
 21
764.71446549157554
  0
LINE
  8
_0-0_計極細
  6
CONTINUOUS
 62
    2
 10
577.4337498636728
 20
750.71446549157497
 11
577.4337498636728
 21
744.71446549157451
  0
LINE
  8
_0-0_計極細
  6
CONTINUOUS
 62
    2
 10
572.4337498636728
 20
744.71446549157451
 11
572.4337498636728
 21
750.71446549157497
  0
LINE
  8
_0-0_計極細
  6
CONTINUOUS
 62
    2
 10
577.4337498636728
 20
736.71446549157497
 11
577.4337498636728
 21
730.71446549157463
  0
LINE
  8
_0-0_計極細
  6
CONTINUOUS
 62
    2
 10
572.4337498636728
 20
730.71446549157463
 11
572.4337498636728
 21
736.71446549157497
  0
LINE
  8
_0-0_計極細
  6
CONTINUOUS
 62
    2
 10
577.4337498636728
 20
722.71446549157508
 11
577.4337498636728
 21
716.71446549157451
  0
LINE
  8
_0-0_計極細
  6
CONTINUOUS
 62
    2
 10
572.4337498636728
 20
716.71446549157451
 11
572.4337498636728
 21
722.71446549157508
  0
LINE
  8
_0-0_計極細
  6
CONTINUOUS
 62
    2
 10
677.4337498636728
 20
792.71446549157542
 11
677.4337498636728
 21
786.71446549157508
  0
LINE
  8
_0-0_計極細
  6
CONTINUOUS
 62
    2
 10
672.4337498636728
 20
786.71446549157508
 11
672.4337498636728
 21
792.71446549157542
  0
LINE
  8
_0-0_計極細
  6
CONTINUOUS
 62
    2
 10
677.4337498636728
 20
778.71446549157554
 11
677.4337498636728
 21
772.71446549157508
  0
LINE
  8
_0-0_計極細
  6
CONTINUOUS
 62
    2
 10
672.4337498636728
 20
772.71446549157508
 11
672.4337498636728
 21
778.71446549157554
  0
LINE
  8
_0-0_計極細
  6
CONTINUOUS
 62
    2
 10
677.4337498636728
 20
764.71446549157554
 11
677.4337498636728
 21
758.71446549157497
  0
LINE
  8
_0-0_計極細
  6
CONTINUOUS
 62
    2
 10
672.4337498636728
 20
758.71446549157497
 11
672.4337498636728
 21
764.71446549157554
  0
LINE
  8
_0-0_計極細
  6
CONTINUOUS
 62
    2
 10
677.4337498636728
 20
750.71446549157497
 11
677.4337498636728
 21
744.71446549157451
  0
LINE
  8
_0-0_計極細
  6
CONTINUOUS
 62
    2
 10
672.4337498636728
 20
744.71446549157451
 11
672.4337498636728
 21
750.71446549157497
  0
LINE
  8
_0-0_計極細
  6
CONTINUOUS
 62
    2
 10
677.4337498636728
 20
736.71446549157497
 11
677.4337498636728
 21
730.71446549157463
  0
LINE
  8
_0-0_計極細
  6
CONTINUOUS
 62
    2
 10
672.4337498636728
 20
730.71446549157463
 11
672.4337498636728
 21
736.71446549157497
  0
LINE
  8
_0-0_計極細
  6
CONTINUOUS
 62
    2
 10
677.4337498636728
 20
722.71446549157508
 11
677.4337498636728
 21
716.71446549157451
  0
LINE
  8
_0-0_計極細
  6
CONTINUOUS
 62
    2
 10
672.4337498636728
 20
716.71446549157451
 11
672.4337498636728
 21
722.71446549157508
  0
LINE
  8
_0-0_計極細
  6
CONTINUOUS
 62
    2
 10
777.43374986367246
 20
792.71446549157542
 11
777.43374986367246
 21
786.71446549157508
  0
LINE
  8
_0-0_計極細
  6
CONTINUOUS
 62
    2
 10
772.43374986367246
 20
786.71446549157508
 11
772.43374986367246
 21
792.71446549157542
  0
LINE
  8
_0-0_計極細
  6
CONTINUOUS
 62
    2
 10
777.43374986367246
 20
778.71446549157554
 11
777.43374986367246
 21
772.71446549157508
  0
LINE
  8
_0-0_計極細
  6
CONTINUOUS
 62
    2
 10
772.43374986367246
 20
772.71446549157508
 11
772.43374986367246
 21
778.71446549157554
  0
LINE
  8
_0-0_計極細
  6
CONTINUOUS
 62
    2
 10
777.43374986367246
 20
764.71446549157554
 11
777.43374986367246
 21
758.71446549157497
  0
LINE
  8
_0-0_計極細
  6
CONTINUOUS
 62
    2
 10
772.43374986367246
 20
758.71446549157497
 11
772.43374986367246
 21
764.71446549157554
  0
LINE
  8
_0-0_計極細
  6
CONTINUOUS
 62
    2
 10
777.43374986367246
 20
750.71446549157497
 11
777.43374986367246
 21
744.71446549157451
  0
LINE
  8
_0-0_計極細
  6
CONTINUOUS
 62
    2
 10
772.43374986367246
 20
744.71446549157451
 11
772.43374986367246
 21
750.71446549157497
  0
LINE
  8
_0-0_計極細
  6
CONTINUOUS
 62
    2
 10
777.43374986367246
 20
736.71446549157497
 11
777.43374986367246
 21
730.71446549157463
  0
LINE
  8
_0-0_計極細
  6
CONTINUOUS
 62
    2
 10
772.43374986367246
 20
730.71446549157463
 11
772.43374986367246
 21
736.71446549157497
  0
LINE
  8
_0-0_計極細
  6
CONTINUOUS
 62
    2
 10
777.43374986367246
 20
722.71446549157508
 11
777.43374986367246
 21
716.71446549157451
  0
LINE
  8
_0-0_計極細
  6
CONTINUOUS
 62
    2
 10
772.43374986367246
 20
716.71446549157451
 11
772.43374986367246
 21
722.71446549157508
  0
LINE
  8
_0-0_計極細
  6
CONTINUOUS
 62
    2
 10
877.43374986367246
 20
792.71446549157542
 11
877.43374986367246
 21
786.71446549157508
  0
LINE
  8
_0-0_計極細
  6
CONTINUOUS
 62
    2
 10
872.43374986367246
 20
786.71446549157508
 11
872.43374986367246
 21
792.71446549157542
  0
LINE
  8
_0-0_計極細
  6
CONTINUOUS
 62
    2
 10
877.43374986367246
 20
778.71446549157554
 11
877.43374986367246
 21
772.71446549157508
  0
LINE
  8
_0-0_計極細
  6
CONTINUOUS
 62
    2
 10
872.43374986367246
 20
772.71446549157508
 11
872.43374986367246
 21
778.71446549157554
  0
LINE
  8
_0-0_計極細
  6
CONTINUOUS
 62
    2
 10
877.43374986367246
 20
764.71446549157554
 11
877.43374986367246
 21
758.71446549157497
  0
LINE
  8
_0-0_計極細
  6
CONTINUOUS
 62
    2
 10
872.43374986367246
 20
758.71446549157497
 11
872.43374986367246
 21
764.71446549157554
  0
LINE
  8
_0-0_計極細
  6
CONTINUOUS
 62
    2
 10
877.43374986367246
 20
750.71446549157497
 11
877.43374986367246
 21
744.71446549157451
  0
LINE
  8
_0-0_計極細
  6
CONTINUOUS
 62
    2
 10
872.43374986367246
 20
744.71446549157451
 11
872.43374986367246
 21
750.71446549157497
  0
LINE
  8
_0-0_計極細
  6
CONTINUOUS
 62
    2
 10
877.43374986367246
 20
736.71446549157497
 11
877.43374986367246
 21
730.71446549157463
  0
LINE
  8
_0-0_計極細
  6
CONTINUOUS
 62
    2
 10
872.43374986367246
 20
730.71446549157463
 11
872.43374986367246
 21
736.71446549157497
  0
LINE
  8
_0-0_計極細
  6
CONTINUOUS
 62
    2
 10
877.43374986367246
 20
722.71446549157508
 11
877.43374986367246
 21
716.71446549157451
  0
LINE
  8
_0-0_計極細
  6
CONTINUOUS
 62
    2
 10
872.43374986367246
 20
716.71446549157451
 11
872.43374986367246
 21
722.71446549157508
  0
LINE
  8
_0-1_計細線
  6
CONTINUOUS
 62
    3
 10
478.4337498636728
 20
702.71446549157508
 11
478.4337498636728
 21
694.71446549157554
  0
LINE
  8
_0-1_計細線
  6
CONTINUOUS
 62
    3
 10
478.4337498636728
 20
694.71446549157554
 11
971.43374986367235
 21
694.71446549157554
  0
LINE
  8
_0-1_計細線
  6
CONTINUOUS
 62
    3
 10
971.43374986367235
 20
694.71446549157554
 11
971.43374986367235
 21
702.71446549157508
  0
LINE
  8
_0-1_計細線
  6
CONTINUOUS
 62
    3
 10
971.43374986367235
 20
702.71446549157508
 11
478.4337498636728
 21
702.71446549157508
  0
LINE
  8
_0-0_計極細
  6
CONTINUOUS
 62
    2
 10
577.4337498636728
 20
708.71446549157497
 11
577.4337498636728
 21
702.71446549157463
  0
LINE
  8
_0-0_計極細
  6
CONTINUOUS
 62
    2
 10
572.4337498636728
 20
702.71446549157463
 11
572.4337498636728
 21
708.71446549157497
  0
LINE
  8
_0-0_計極細
  6
CONTINUOUS
 62
    2
 10
677.4337498636728
 20
708.71446549157497
 11
677.4337498636728
 21
702.71446549157463
  0
LINE
  8
_0-0_計極細
  6
CONTINUOUS
 62
    2
 10
672.4337498636728
 20
702.71446549157463
 11
672.4337498636728
 21
708.71446549157497
  0
LINE
  8
_0-0_計極細
  6
CONTINUOUS
 62
    2
 10
777.43374986367246
 20
708.71446549157497
 11
777.43374986367246
 21
702.71446549157463
  0
LINE
  8
_0-0_計極細
  6
CONTINUOUS
 62
    2
 10
772.43374986367246
 20
702.71446549157463
 11
772.43374986367246
 21
708.71446549157497
  0
LINE
  8
_0-0_計極細
  6
CONTINUOUS
 62
    2
 10
877.43374986367246
 20
708.71446549157497
 11
877.43374986367246
 21
702.71446549157463
  0
LINE
  8
_0-0_計極細
  6
CONTINUOUS
 62
    2
 10
872.43374986367246
 20
702.71446549157463
 11
872.43374986367246
 21
708.71446549157497
  0
LINE
  8
_0-1_計細線
  6
CONTINUOUS
 62
    3
 10
478.4337498636728
 20
688.71446549157497
 11
478.4337498636728
 21
680.71446549157542
  0
LINE
  8
_0-1_計細線
  6
CONTINUOUS
 62
    3
 10
478.4337498636728
 20
680.71446549157542
 11
971.43374986367235
 21
680.71446549157542
  0
LINE
  8
_0-1_計細線
  6
CONTINUOUS
 62
    3
 10
971.43374986367235
 20
680.71446549157542
 11
971.43374986367235
 21
688.71446549157497
  0
LINE
  8
_0-1_計細線
  6
CONTINUOUS
 62
    3
 10
971.43374986367235
 20
688.71446549157497
 11
478.4337498636728
 21
688.71446549157497
  0
LINE
  8
_0-0_計極細
  6
CONTINUOUS
 62
    2
 10
577.4337498636728
 20
694.71446549157508
 11
577.4337498636728
 21
688.71446549157451
  0
LINE
  8
_0-0_計極細
  6
CONTINUOUS
 62
    2
 10
572.4337498636728
 20
688.71446549157451
 11
572.4337498636728
 21
694.71446549157508
  0
LINE
  8
_0-0_計極細
  6
CONTINUOUS
 62
    2
 10
677.4337498636728
 20
694.71446549157508
 11
677.4337498636728
 21
688.71446549157451
  0
LINE
  8
_0-0_計極細
  6
CONTINUOUS
 62
    2
 10
672.4337498636728
 20
688.71446549157451
 11
672.4337498636728
 21
694.71446549157508
  0
LINE
  8
_0-0_計極細
  6
CONTINUOUS
 62
    2
 10
777.43374986367246
 20
694.71446549157508
 11
777.43374986367246
 21
688.71446549157451
  0
LINE
  8
_0-0_計極細
  6
CONTINUOUS
 62
    2
 10
772.43374986367246
 20
688.71446549157451
 11
772.43374986367246
 21
694.71446549157508
  0
LINE
  8
_0-0_計極細
  6
CONTINUOUS
 62
    2
 10
877.43374986367246
 20
694.71446549157508
 11
877.43374986367246
 21
688.71446549157451
  0
LINE
  8
_0-0_計極細
  6
CONTINUOUS
 62
    2
 10
872.43374986367246
 20
688.71446549157451
 11
872.43374986367246
 21
694.71446549157508
  0
LINE
  8
_0-1_計細線
  6
CONTINUOUS
 62
    3
 10
478.4337498636728
 20
674.71446549157508
 11
478.4337498636728
 21
666.71446549157554
  0
LINE
  8
_0-1_計細線
  6
CONTINUOUS
 62
    3
 10
478.4337498636728
 20
666.71446549157554
 11
971.43374986367235
 21
666.71446549157554
  0
LINE
  8
_0-1_計細線
  6
CONTINUOUS
 62
    3
 10
971.43374986367235
 20
666.71446549157554
 11
971.43374986367235
 21
674.71446549157508
  0
LINE
  8
_0-1_計細線
  6
CONTINUOUS
 62
    3
 10
971.43374986367235
 20
674.71446549157508
 11
478.4337498636728
 21
674.71446549157508
  0
LINE
  8
_0-0_計極細
  6
CONTINUOUS
 62
    2
 10
577.4337498636728
 20
680.71446549157497
 11
577.4337498636728
 21
674.71446549157451
  0
LINE
  8
_0-0_計極細
  6
CONTINUOUS
 62
    2
 10
572.4337498636728
 20
674.71446549157451
 11
572.4337498636728
 21
680.71446549157497
  0
LINE
  8
_0-0_計極細
  6
CONTINUOUS
 62
    2
 10
677.4337498636728
 20
680.71446549157497
 11
677.4337498636728
 21
674.71446549157451
  0
LINE
  8
_0-0_計極細
  6
CONTINUOUS
 62
    2
 10
672.4337498636728
 20
674.71446549157451
 11
672.4337498636728
 21
680.71446549157497
  0
LINE
  8
_0-0_計極細
  6
CONTINUOUS
 62
    2
 10
777.43374986367246
 20
680.71446549157497
 11
777.43374986367246
 21
674.71446549157451
  0
LINE
  8
_0-0_計極細
  6
CONTINUOUS
 62
    2
 10
772.43374986367246
 20
674.71446549157451
 11
772.43374986367246
 21
680.71446549157497
  0
LINE
  8
_0-0_計極細
  6
CONTINUOUS
 62
    2
 10
877.43374986367246
 20
680.71446549157497
 11
877.43374986367246
 21
674.71446549157451
  0
LINE
  8
_0-0_計極細
  6
CONTINUOUS
 62
    2
 10
872.43374986367246
 20
674.71446549157451
 11
872.43374986367246
 21
680.71446549157497
  0
LINE
  8
_0-1_計細線
  6
CONTINUOUS
 62
    3
 10
478.4337498636728
 20
660.71446549157497
 11
478.4337498636728
 21
652.71446549157542
  0
LINE
  8
_0-1_計細線
  6
CONTINUOUS
 62
    3
 10
478.4337498636728
 20
652.71446549157542
 11
971.43374986367235
 21
652.71446549157542
  0
LINE
  8
_0-1_計細線
  6
CONTINUOUS
 62
    3
 10
971.43374986367235
 20
652.71446549157542
 11
971.43374986367235
 21
660.71446549157497
  0
LINE
  8
_0-1_計細線
  6
CONTINUOUS
 62
    3
 10
971.43374986367235
 20
660.71446549157497
 11
478.4337498636728
 21
660.71446549157497
  0
LINE
  8
_0-0_計極細
  6
CONTINUOUS
 62
    2
 10
577.4337498636728
 20
666.71446549157497
 11
577.4337498636728
 21
660.71446549157463
  0
LINE
  8
_0-0_計極細
  6
CONTINUOUS
 62
    2
 10
572.4337498636728
 20
660.71446549157463
 11
572.4337498636728
 21
666.71446549157497
  0
LINE
  8
_0-0_計極細
  6
CONTINUOUS
 62
    2
 10
677.4337498636728
 20
666.71446549157497
 11
677.4337498636728
 21
660.71446549157463
  0
LINE
  8
_0-0_計極細
  6
CONTINUOUS
 62
    2
 10
672.4337498636728
 20
660.71446549157463
 11
672.4337498636728
 21
666.71446549157497
  0
LINE
  8
_0-0_計極細
  6
CONTINUOUS
 62
    2
 10
777.43374986367246
 20
666.71446549157497
 11
777.43374986367246
 21
660.71446549157463
  0
LINE
  8
_0-0_計極細
  6
CONTINUOUS
 62
    2
 10
772.43374986367246
 20
660.71446549157463
 11
772.43374986367246
 21
666.71446549157497
  0
LINE
  8
_0-0_計極細
  6
CONTINUOUS
 62
    2
 10
877.43374986367246
 20
666.71446549157497
 11
877.43374986367246
 21
660.71446549157463
  0
LINE
  8
_0-0_計極細
  6
CONTINUOUS
 62
    2
 10
872.43374986367246
 20
660.71446549157463
 11
872.43374986367246
 21
666.71446549157497
  0
LINE
  8
_0-1_計細線
  6
CONTINUOUS
 62
    3
 10
478.4337498636728
 20
646.71446549157497
 11
478.4337498636728
 21
638.71446549157542
  0
LINE
  8
_0-1_計細線
  6
CONTINUOUS
 62
    3
 10
478.4337498636728
 20
638.71446549157542
 11
971.43374986367235
 21
638.71446549157542
  0
LINE
  8
_0-1_計細線
  6
CONTINUOUS
 62
    3
 10
971.43374986367235
 20
638.71446549157542
 11
971.43374986367235
 21
646.71446549157497
  0
LINE
  8
_0-1_計細線
  6
CONTINUOUS
 62
    3
 10
971.43374986367235
 20
646.71446549157497
 11
478.4337498636728
 21
646.71446549157497
  0
LINE
  8
_0-0_計極細
  6
CONTINUOUS
 62
    2
 10
577.4337498636728
 20
652.71446549157508
 11
577.4337498636728
 21
646.71446549157451
  0
LINE
  8
_0-0_計極細
  6
CONTINUOUS
 62
    2
 10
572.4337498636728
 20
646.71446549157451
 11
572.4337498636728
 21
652.71446549157508
  0
LINE
  8
_0-0_計極細
  6
CONTINUOUS
 62
    2
 10
677.4337498636728
 20
652.71446549157508
 11
677.4337498636728
 21
646.71446549157451
  0
LINE
  8
_0-0_計極細
  6
CONTINUOUS
 62
    2
 10
672.4337498636728
 20
646.71446549157451
 11
672.4337498636728
 21
652.71446549157508
  0
LINE
  8
_0-0_計極細
  6
CONTINUOUS
 62
    2
 10
777.43374986367246
 20
652.71446549157508
 11
777.43374986367246
 21
646.71446549157451
  0
LINE
  8
_0-0_計極細
  6
CONTINUOUS
 62
    2
 10
772.43374986367246
 20
646.71446549157451
 11
772.43374986367246
 21
652.71446549157508
  0
LINE
  8
_0-0_計極細
  6
CONTINUOUS
 62
    2
 10
877.43374986367246
 20
652.71446549157508
 11
877.43374986367246
 21
646.71446549157451
  0
LINE
  8
_0-0_計極細
  6
CONTINUOUS
 62
    2
 10
872.43374986367246
 20
646.71446549157451
 11
872.43374986367246
 21
652.71446549157508
  0
LINE
  8
_0-1_計細線
  6
CONTINUOUS
 62
    3
 10
478.4337498636728
 20
632.71446549157508
 11
478.4337498636728
 21
624.71446549157554
  0
LINE
  8
_0-1_計細線
  6
CONTINUOUS
 62
    3
 10
478.4337498636728
 20
624.71446549157554
 11
971.43374986367235
 21
624.71446549157554
  0
LINE
  8
_0-1_計細線
  6
CONTINUOUS
 62
    3
 10
971.43374986367235
 20
624.71446549157554
 11
971.43374986367235
 21
632.71446549157508
  0
LINE
  8
_0-1_計細線
  6
CONTINUOUS
 62
    3
 10
971.43374986367235
 20
632.71446549157508
 11
478.4337498636728
 21
632.71446549157508
  0
LINE
  8
_0-0_計極細
  6
CONTINUOUS
 62
    2
 10
577.4337498636728
 20
638.71446549157497
 11
577.4337498636728
 21
632.71446549157451
  0
LINE
  8
_0-0_計極細
  6
CONTINUOUS
 62
    2
 10
572.4337498636728
 20
632.71446549157451
 11
572.4337498636728
 21
638.71446549157497
  0
LINE
  8
_0-0_計極細
  6
CONTINUOUS
 62
    2
 10
677.4337498636728
 20
638.71446549157497
 11
677.4337498636728
 21
632.71446549157451
  0
LINE
  8
_0-0_計極細
  6
CONTINUOUS
 62
    2
 10
672.4337498636728
 20
632.71446549157451
 11
672.4337498636728
 21
638.71446549157497
  0
LINE
  8
_0-0_計極細
  6
CONTINUOUS
 62
    2
 10
777.43374986367246
 20
638.71446549157497
 11
777.43374986367246
 21
632.71446549157451
  0
LINE
  8
_0-0_計極細
  6
CONTINUOUS
 62
    2
 10
772.43374986367246
 20
632.71446549157451
 11
772.43374986367246
 21
638.71446549157497
  0
LINE
  8
_0-0_計極細
  6
CONTINUOUS
 62
    2
 10
877.43374986367246
 20
638.71446549157497
 11
877.43374986367246
 21
632.71446549157451
  0
LINE
  8
_0-0_計極細
  6
CONTINUOUS
 62
    2
 10
872.43374986367246
 20
632.71446549157451
 11
872.43374986367246
 21
638.71446549157497
  0
LINE
  8
_0-1_計細線
  6
CONTINUOUS
 62
    3
 10
478.4337498636728
 20
618.71446549157497
 11
478.4337498636728
 21
610.71446549157542
  0
LINE
  8
_0-1_計細線
  6
CONTINUOUS
 62
    3
 10
478.4337498636728
 20
610.71446549157542
 11
971.43374986367235
 21
610.71446549157542
  0
LINE
  8
_0-1_計細線
  6
CONTINUOUS
 62
    3
 10
971.43374986367235
 20
610.71446549157542
 11
971.43374986367235
 21
618.71446549157497
  0
LINE
  8
_0-1_計細線
  6
CONTINUOUS
 62
    3
 10
971.43374986367235
 20
618.71446549157497
 11
478.4337498636728
 21
618.71446549157497
  0
LINE
  8
_0-0_計極細
  6
CONTINUOUS
 62
    2
 10
577.4337498636728
 20
624.71446549157497
 11
577.4337498636728
 21
618.71446549157451
  0
LINE
  8
_0-0_計極細
  6
CONTINUOUS
 62
    2
 10
572.4337498636728
 20
618.71446549157451
 11
572.4337498636728
 21
624.71446549157497
  0
LINE
  8
_0-0_計極細
  6
CONTINUOUS
 62
    2
 10
677.4337498636728
 20
624.71446549157497
 11
677.4337498636728
 21
618.71446549157451
  0
LINE
  8
_0-0_計極細
  6
CONTINUOUS
 62
    2
 10
672.4337498636728
 20
618.71446549157451
 11
672.4337498636728
 21
624.71446549157497
  0
LINE
  8
_0-0_計極細
  6
CONTINUOUS
 62
    2
 10
777.43374986367246
 20
624.71446549157497
 11
777.43374986367246
 21
618.71446549157451
  0
LINE
  8
_0-0_計極細
  6
CONTINUOUS
 62
    2
 10
772.43374986367246
 20
618.71446549157451
 11
772.43374986367246
 21
624.71446549157497
  0
LINE
  8
_0-0_計極細
  6
CONTINUOUS
 62
    2
 10
877.43374986367246
 20
624.71446549157497
 11
877.43374986367246
 21
618.71446549157451
  0
LINE
  8
_0-0_計極細
  6
CONTINUOUS
 62
    2
 10
872.43374986367246
 20
618.71446549157451
 11
872.43374986367246
 21
624.71446549157497
  0
LINE
  8
_0-1_計細線
  6
CONTINUOUS
 62
    3
 10
478.4337498636728
 20
604.71446549157497
 11
478.4337498636728
 21
596.71446549157542
  0
LINE
  8
_0-1_計細線
  6
CONTINUOUS
 62
    3
 10
478.4337498636728
 20
596.71446549157542
 11
971.43374986367235
 21
596.71446549157542
  0
LINE
  8
_0-1_計細線
  6
CONTINUOUS
 62
    3
 10
971.43374986367235
 20
596.71446549157542
 11
971.43374986367235
 21
604.71446549157497
  0
LINE
  8
_0-1_計細線
  6
CONTINUOUS
 62
    3
 10
971.43374986367235
 20
604.71446549157497
 11
478.4337498636728
 21
604.71446549157497
  0
LINE
  8
_0-0_計極細
  6
CONTINUOUS
 62
    2
 10
577.4337498636728
 20
610.71446549157497
 11
577.4337498636728
 21
604.71446549157451
  0
LINE
  8
_0-0_計極細
  6
CONTINUOUS
 62
    2
 10
572.4337498636728
 20
604.71446549157451
 11
572.4337498636728
 21
610.71446549157497
  0
LINE
  8
_0-0_計極細
  6
CONTINUOUS
 62
    2
 10
677.4337498636728
 20
610.71446549157497
 11
677.4337498636728
 21
604.71446549157451
  0
LINE
  8
_0-0_計極細
  6
CONTINUOUS
 62
    2
 10
672.4337498636728
 20
604.71446549157451
 11
672.4337498636728
 21
610.71446549157497
  0
LINE
  8
_0-0_計極細
  6
CONTINUOUS
 62
    2
 10
777.43374986367246
 20
610.71446549157497
 11
777.43374986367246
 21
604.71446549157451
  0
LINE
  8
_0-0_計極細
  6
CONTINUOUS
 62
    2
 10
772.43374986367246
 20
604.71446549157451
 11
772.43374986367246
 21
610.71446549157497
  0
LINE
  8
_0-0_計極細
  6
CONTINUOUS
 62
    2
 10
877.43374986367246
 20
610.71446549157497
 11
877.43374986367246
 21
604.71446549157451
  0
LINE
  8
_0-0_計極細
  6
CONTINUOUS
 62
    2
 10
872.43374986367246
 20
604.71446549157451
 11
872.43374986367246
 21
610.71446549157497
  0
LINE
  8
_0-0_計極細
  6
CONTINUOUS
 62
    2
 10
377.43374986367235
 20
792.71446549157542
 11
377.43374986367235
 21
786.71446549157508
  0
LINE
  8
_0-0_計極細
  6
CONTINUOUS
 62
    2
 10
372.43374986367235
 20
786.71446549157508
 11
372.43374986367235
 21
792.71446549157542
  0
LINE
  8
_0-0_計極細
  6
CONTINUOUS
 62
    2
 10
377.43374986367235
 20
778.71446549157554
 11
377.43374986367235
 21
772.71446549157508
  0
LINE
  8
_0-0_計極細
  6
CONTINUOUS
 62
    2
 10
372.43374986367235
 20
772.71446549157508
 11
372.43374986367235
 21
778.71446549157554
  0
LINE
  8
_0-0_計極細
  6
CONTINUOUS
 62
    2
 10
377.43374986367235
 20
764.71446549157554
 11
377.43374986367235
 21
758.71446549157497
  0
LINE
  8
_0-0_計極細
  6
CONTINUOUS
 62
    2
 10
372.43374986367235
 20
758.71446549157497
 11
372.43374986367235
 21
764.71446549157554
  0
LINE
  8
_0-0_計極細
  6
CONTINUOUS
 62
    2
 10
377.43374986367235
 20
750.71446549157497
 11
377.43374986367235
 21
744.71446549157451
  0
LINE
  8
_0-0_計極細
  6
CONTINUOUS
 62
    2
 10
372.43374986367235
 20
744.71446549157451
 11
372.43374986367235
 21
750.71446549157497
  0
LINE
  8
_0-0_計極細
  6
CONTINUOUS
 62
    2
 10
377.43374986367235
 20
736.71446549157497
 11
377.43374986367235
 21
730.71446549157463
  0
LINE
  8
_0-0_計極細
  6
CONTINUOUS
 62
    2
 10
372.43374986367235
 20
730.71446549157463
 11
372.43374986367235
 21
736.71446549157497
  0
LINE
  8
_0-0_計極細
  6
CONTINUOUS
 62
    2
 10
377.43374986367235
 20
722.71446549157508
 11
377.43374986367235
 21
716.71446549157451
  0
LINE
  8
_0-0_計極細
  6
CONTINUOUS
 62
    2
 10
372.43374986367235
 20
716.71446549157451
 11
372.43374986367235
 21
722.71446549157508
  0
LINE
  8
_0-0_計極細
  6
CONTINUOUS
 62
    2
 10
377.43374986367235
 20
708.71446549157497
 11
377.43374986367235
 21
702.71446549157463
  0
LINE
  8
_0-0_計極細
  6
CONTINUOUS
 62
    2
 10
372.43374986367235
 20
702.71446549157463
 11
372.43374986367235
 21
708.71446549157497
  0
LINE
  8
_0-0_計極細
  6
CONTINUOUS
 62
    2
 10
377.43374986367235
 20
694.71446549157508
 11
377.43374986367235
 21
688.71446549157451
  0
LINE
  8
_0-0_計極細
  6
CONTINUOUS
 62
    2
 10
372.43374986367235
 20
688.71446549157451
 11
372.43374986367235
 21
694.71446549157508
  0
LINE
  8
_0-0_計極細
  6
CONTINUOUS
 62
    2
 10
377.43374986367235
 20
680.71446549157497
 11
377.43374986367235
 21
674.71446549157451
  0
LINE
  8
_0-0_計極細
  6
CONTINUOUS
 62
    2
 10
372.43374986367235
 20
674.71446549157451
 11
372.43374986367235
 21
680.71446549157497
  0
LINE
  8
_0-0_計極細
  6
CONTINUOUS
 62
    2
 10
377.43374986367235
 20
666.71446549157497
 11
377.43374986367235
 21
660.71446549157463
  0
LINE
  8
_0-0_計極細
  6
CONTINUOUS
 62
    2
 10
372.43374986367235
 20
660.71446549157463
 11
372.43374986367235
 21
666.71446549157497
  0
LINE
  8
_0-1_計細線
  6
CONTINUOUS
 62
    3
 10
324.93374986367235
 20
800.71446549157497
 11
471.43374986367286
 21
800.71446549157497
  0
LINE
  8
_0-0_計極細
  6
CONTINUOUS
 62
    2
 10
377.43374986367235
 20
652.71446549157508
 11
377.43374986367235
 21
646.71446549157451
  0
LINE
  8
_0-0_計極細
  6
CONTINUOUS
 62
    2
 10
372.43374986367235
 20
646.71446549157451
 11
372.43374986367235
 21
652.71446549157508
  0
LINE
  8
_0-0_計極細
  6
CONTINUOUS
 62
    2
 10
377.43374986367235
 20
638.71446549157497
 11
377.43374986367235
 21
632.71446549157451
  0
LINE
  8
_0-0_計極細
  6
CONTINUOUS
 62
    2
 10
372.43374986367235
 20
632.71446549157451
 11
372.43374986367235
 21
638.71446549157497
  0
LINE
  8
_0-0_計極細
  6
CONTINUOUS
 62
    2
 10
377.43374986367235
 20
624.71446549157497
 11
377.43374986367235
 21
618.71446549157451
  0
LINE
  8
_0-0_計極細
  6
CONTINUOUS
 62
    2
 10
372.43374986367235
 20
618.71446549157451
 11
372.43374986367235
 21
624.71446549157497
  0
LINE
  8
_0-0_計極細
  6
CONTINUOUS
 62
    2
 10
377.43374986367235
 20
610.71446549157497
 11
377.43374986367235
 21
604.71446549157451
  0
LINE
  8
_0-0_計極細
  6
CONTINUOUS
 62
    2
 10
372.43374986367235
 20
604.71446549157451
 11
372.43374986367235
 21
610.71446549157497
  0
LINE
  8
_0-0_計極細
  6
CONTINUOUS
 62
    2
 10
1077.4337498636728
 20
792.71446549157542
 11
1077.4337498636728
 21
786.71446549157554
  0
LINE
  8
_0-0_計極細
  6
CONTINUOUS
 62
    2
 10
1072.4337498636728
 20
786.71446549157508
 11
1072.4337498636728
 21
792.71446549157542
  0
LINE
  8
_0-0_計極細
  6
CONTINUOUS
 62
    2
 10
1077.4337498636728
 20
778.71446549157554
 11
1077.4337498636728
 21
772.71446549157508
  0
LINE
  8
_0-0_計極細
  6
CONTINUOUS
 62
    2
 10
1072.4337498636728
 20
772.71446549157508
 11
1072.4337498636728
 21
778.71446549157554
  0
LINE
  8
_0-0_計極細
  6
CONTINUOUS
 62
    2
 10
1077.4337498636728
 20
764.71446549157554
 11
1077.4337498636728
 21
758.71446549157497
  0
LINE
  8
_0-0_計極細
  6
CONTINUOUS
 62
    2
 10
1072.4337498636728
 20
758.71446549157497
 11
1072.4337498636728
 21
764.71446549157554
  0
LINE
  8
_0-0_計極細
  6
CONTINUOUS
 62
    2
 10
1077.4337498636728
 20
750.71446549157497
 11
1077.4337498636728
 21
744.71446549157508
  0
LINE
  8
_0-0_計極細
  6
CONTINUOUS
 62
    2
 10
1072.4337498636728
 20
744.71446549157451
 11
1072.4337498636728
 21
750.71446549157497
  0
LINE
  8
_0-0_計極細
  6
CONTINUOUS
 62
    2
 10
1077.4337498636728
 20
736.71446549157497
 11
1077.4337498636728
 21
730.71446549157497
  0
LINE
  8
_0-0_計極細
  6
CONTINUOUS
 62
    2
 10
1072.4337498636728
 20
730.71446549157463
 11
1072.4337498636728
 21
736.71446549157497
  0
LINE
  8
_0-0_計極細
  6
CONTINUOUS
 62
    2
 10
1077.4337498636728
 20
722.71446549157508
 11
1077.4337498636728
 21
716.71446549157497
  0
LINE
  8
_0-0_計極細
  6
CONTINUOUS
 62
    2
 10
1072.4337498636728
 20
716.71446549157451
 11
1072.4337498636728
 21
722.71446549157508
  0
LINE
  8
_0-0_計極細
  6
CONTINUOUS
 62
    2
 10
1077.4337498636728
 20
708.71446549157497
 11
1077.4337498636728
 21
702.71446549157508
  0
LINE
  8
_0-0_計極細
  6
CONTINUOUS
 62
    2
 10
1072.4337498636728
 20
702.71446549157463
 11
1072.4337498636728
 21
708.71446549157497
  0
LINE
  8
_0-0_計極細
  6
CONTINUOUS
 62
    2
 10
1077.4337498636728
 20
694.71446549157508
 11
1077.4337498636728
 21
688.71446549157497
  0
LINE
  8
_0-0_計極細
  6
CONTINUOUS
 62
    2
 10
1072.4337498636728
 20
688.71446549157451
 11
1072.4337498636728
 21
694.71446549157508
  0
LINE
  8
_0-0_計極細
  6
CONTINUOUS
 62
    2
 10
1077.4337498636728
 20
680.71446549157497
 11
1077.4337498636728
 21
674.71446549157508
  0
LINE
  8
_0-0_計極細
  6
CONTINUOUS
 62
    2
 10
1072.4337498636728
 20
674.71446549157451
 11
1072.4337498636728
 21
680.71446549157497
  0
LINE
  8
_0-0_計極細
  6
CONTINUOUS
 62
    2
 10
1077.4337498636728
 20
666.71446549157497
 11
1077.4337498636728
 21
660.71446549157497
  0
LINE
  8
_0-0_計極細
  6
CONTINUOUS
 62
    2
 10
1072.4337498636728
 20
660.71446549157463
 11
1072.4337498636728
 21
666.71446549157497
  0
LINE
  8
_0-1_計細線
  6
CONTINUOUS
 62
    3
 10
1124.9337498636728
 20
800.71446549157542
 11
978.43374986367235
 21
800.71446549157542
  0
LINE
  8
_0-0_計極細
  6
CONTINUOUS
 62
    2
 10
1077.4337498636728
 20
652.71446549157508
 11
1077.4337498636728
 21
646.71446549157497
  0
LINE
  8
_0-0_計極細
  6
CONTINUOUS
 62
    2
 10
1072.4337498636728
 20
646.71446549157451
 11
1072.4337498636728
 21
652.71446549157508
  0
LINE
  8
_0-0_計極細
  6
CONTINUOUS
 62
    2
 10
1077.4337498636728
 20
638.71446549157497
 11
1077.4337498636728
 21
632.71446549157508
  0
LINE
  8
_0-0_計極細
  6
CONTINUOUS
 62
    2
 10
1072.4337498636728
 20
632.71446549157451
 11
1072.4337498636728
 21
638.71446549157497
  0
LINE
  8
_0-0_計極細
  6
CONTINUOUS
 62
    2
 10
1077.4337498636728
 20
624.71446549157497
 11
1077.4337498636728
 21
618.71446549157497
  0
LINE
  8
_0-0_計極細
  6
CONTINUOUS
 62
    2
 10
1072.4337498636728
 20
618.71446549157451
 11
1072.4337498636728
 21
624.71446549157497
  0
LINE
  8
_0-0_計極細
  6
CONTINUOUS
 62
    2
 10
1077.4337498636728
 20
610.71446549157497
 11
1077.4337498636728
 21
604.71446549157497
  0
LINE
  8
_0-0_計極細
  6
CONTINUOUS
 62
    2
 10
1072.4337498636728
 20
604.71446549157451
 11
1072.4337498636728
 21
610.71446549157497
  0
LINE
  8
_0-1_計細線
  6
CONTINUOUS
 62
    3
 10
478.4337498636728
 20
590.71446549157497
 11
478.4337498636728
 21
582.71446549157542
  0
LINE
  8
_0-1_計細線
  6
CONTINUOUS
 62
    3
 10
478.4337498636728
 20
582.71446549157542
 11
971.43374986367235
 21
582.71446549157542
  0
LINE
  8
_0-1_計細線
  6
CONTINUOUS
 62
    3
 10
971.43374986367235
 20
582.71446549157542
 11
971.43374986367235
 21
590.71446549157497
  0
LINE
  8
_0-1_計細線
  6
CONTINUOUS
 62
    3
 10
971.43374986367235
 20
590.71446549157497
 11
478.4337498636728
 21
590.71446549157497
  0
LINE
  8
_0-0_計極細
  6
CONTINUOUS
 62
    2
 10
577.4337498636728
 20
596.71446549157497
 11
577.4337498636728
 21
590.71446549157463
  0
LINE
  8
_0-0_計極細
  6
CONTINUOUS
 62
    2
 10
572.4337498636728
 20
590.71446549157463
 11
572.4337498636728
 21
596.71446549157497
  0
LINE
  8
_0-0_計極細
  6
CONTINUOUS
 62
    2
 10
677.4337498636728
 20
596.71446549157497
 11
677.4337498636728
 21
590.71446549157463
  0
LINE
  8
_0-0_計極細
  6
CONTINUOUS
 62
    2
 10
672.4337498636728
 20
590.71446549157463
 11
672.4337498636728
 21
596.71446549157497
  0
LINE
  8
_0-0_計極細
  6
CONTINUOUS
 62
    2
 10
777.43374986367246
 20
596.71446549157497
 11
777.43374986367246
 21
590.71446549157463
  0
LINE
  8
_0-0_計極細
  6
CONTINUOUS
 62
    2
 10
772.43374986367246
 20
590.71446549157463
 11
772.43374986367246
 21
596.71446549157497
  0
LINE
  8
_0-0_計極細
  6
CONTINUOUS
 62
    2
 10
877.43374986367246
 20
596.71446549157497
 11
877.43374986367246
 21
590.71446549157463
  0
LINE
  8
_0-0_計極細
  6
CONTINUOUS
 62
    2
 10
872.43374986367246
 20
590.71446549157463
 11
872.43374986367246
 21
596.71446549157497
  0
LINE
  8
_0-1_計細線
  6
CONTINUOUS
 62
    3
 10
478.4337498636728
 20
576.71446549157497
 11
478.4337498636728
 21
568.71446549157542
  0
LINE
  8
_0-1_計細線
  6
CONTINUOUS
 62
    3
 10
478.4337498636728
 20
568.71446549157542
 11
971.43374986367235
 21
568.71446549157542
  0
LINE
  8
_0-1_計細線
  6
CONTINUOUS
 62
    3
 10
971.43374986367235
 20
568.71446549157542
 11
971.43374986367235
 21
576.71446549157497
  0
LINE
  8
_0-1_計細線
  6
CONTINUOUS
 62
    3
 10
971.43374986367235
 20
576.71446549157497
 11
478.4337498636728
 21
576.71446549157497
  0
LINE
  8
_0-0_計極細
  6
CONTINUOUS
 62
    2
 10
577.4337498636728
 20
582.71446549157508
 11
577.4337498636728
 21
576.71446549157451
  0
LINE
  8
_0-0_計極細
  6
CONTINUOUS
 62
    2
 10
572.4337498636728
 20
576.71446549157451
 11
572.4337498636728
 21
582.71446549157508
  0
LINE
  8
_0-0_計極細
  6
CONTINUOUS
 62
    2
 10
677.4337498636728
 20
582.71446549157508
 11
677.4337498636728
 21
576.71446549157451
  0
LINE
  8
_0-0_計極細
  6
CONTINUOUS
 62
    2
 10
672.4337498636728
 20
576.71446549157451
 11
672.4337498636728
 21
582.71446549157508
  0
LINE
  8
_0-0_計極細
  6
CONTINUOUS
 62
    2
 10
777.43374986367246
 20
582.71446549157508
 11
777.43374986367246
 21
576.71446549157451
  0
LINE
  8
_0-0_計極細
  6
CONTINUOUS
 62
    2
 10
772.43374986367246
 20
576.71446549157451
 11
772.43374986367246
 21
582.71446549157508
  0
LINE
  8
_0-0_計極細
  6
CONTINUOUS
 62
    2
 10
877.43374986367246
 20
582.71446549157508
 11
877.43374986367246
 21
576.71446549157451
  0
LINE
  8
_0-0_計極細
  6
CONTINUOUS
 62
    2
 10
872.43374986367246
 20
576.71446549157451
 11
872.43374986367246
 21
582.71446549157508
  0
LINE
  8
_0-1_計細線
  6
CONTINUOUS
 62
    3
 10
478.4337498636728
 20
562.71446549157508
 11
478.4337498636728
 21
554.71446549157554
  0
LINE
  8
_0-1_計細線
  6
CONTINUOUS
 62
    3
 10
478.4337498636728
 20
554.71446549157554
 11
971.43374986367235
 21
554.71446549157554
  0
LINE
  8
_0-1_計細線
  6
CONTINUOUS
 62
    3
 10
971.43374986367235
 20
554.71446549157554
 11
971.43374986367235
 21
562.71446549157508
  0
LINE
  8
_0-1_計細線
  6
CONTINUOUS
 62
    3
 10
971.43374986367235
 20
562.71446549157508
 11
478.4337498636728
 21
562.71446549157508
  0
LINE
  8
_0-0_計極細
  6
CONTINUOUS
 62
    2
 10
577.4337498636728
 20
568.71446549157497
 11
577.4337498636728
 21
562.71446549157451
  0
LINE
  8
_0-0_計極細
  6
CONTINUOUS
 62
    2
 10
572.4337498636728
 20
562.71446549157451
 11
572.4337498636728
 21
568.71446549157497
  0
LINE
  8
_0-0_計極細
  6
CONTINUOUS
 62
    2
 10
677.4337498636728
 20
568.71446549157497
 11
677.4337498636728
 21
562.71446549157451
  0
LINE
  8
_0-0_計極細
  6
CONTINUOUS
 62
    2
 10
672.4337498636728
 20
562.71446549157451
 11
672.4337498636728
 21
568.71446549157497
  0
LINE
  8
_0-0_計極細
  6
CONTINUOUS
 62
    2
 10
777.43374986367246
 20
568.71446549157497
 11
777.43374986367246
 21
562.71446549157451
  0
LINE
  8
_0-0_計極細
  6
CONTINUOUS
 62
    2
 10
772.43374986367246
 20
562.71446549157451
 11
772.43374986367246
 21
568.71446549157497
  0
LINE
  8
_0-0_計極細
  6
CONTINUOUS
 62
    2
 10
877.43374986367246
 20
568.71446549157497
 11
877.43374986367246
 21
562.71446549157451
  0
LINE
  8
_0-0_計極細
  6
CONTINUOUS
 62
    2
 10
872.43374986367246
 20
562.71446549157451
 11
872.43374986367246
 21
568.71446549157497
  0
LINE
  8
_0-0_計極細
  6
CONTINUOUS
 62
    2
 10
377.43374986367235
 20
596.71446549157497
 11
377.43374986367235
 21
590.71446549157463
  0
LINE
  8
_0-0_計極細
  6
CONTINUOUS
 62
    2
 10
372.43374986367235
 20
590.71446549157463
 11
372.43374986367235
 21
596.71446549157497
  0
LINE
  8
_0-0_計極細
  6
CONTINUOUS
 62
    2
 10
377.43374986367235
 20
582.71446549157508
 11
377.43374986367235
 21
576.71446549157451
  0
LINE
  8
_0-0_計極細
  6
CONTINUOUS
 62
    2
 10
372.43374986367235
 20
576.71446549157451
 11
372.43374986367235
 21
582.71446549157508
  0
LINE
  8
_0-0_計極細
  6
CONTINUOUS
 62
    2
 10
377.43374986367235
 20
568.71446549157497
 11
377.43374986367235
 21
562.71446549157451
  0
LINE
  8
_0-0_計極細
  6
CONTINUOUS
 62
    2
 10
372.43374986367235
 20
562.71446549157451
 11
372.43374986367235
 21
568.71446549157497
  0
LINE
  8
_0-0_計極細
  6
CONTINUOUS
 62
    2
 10
1077.4337498636728
 20
596.71446549157497
 11
1077.4337498636728
 21
590.71446549157497
  0
LINE
  8
_0-0_計極細
  6
CONTINUOUS
 62
    2
 10
1072.4337498636728
 20
590.71446549157463
 11
1072.4337498636728
 21
596.71446549157497
  0
LINE
  8
_0-0_計極細
  6
CONTINUOUS
 62
    2
 10
1077.4337498636728
 20
582.71446549157508
 11
1077.4337498636728
 21
576.71446549157497
  0
LINE
  8
_0-0_計極細
  6
CONTINUOUS
 62
    2
 10
1072.4337498636728
 20
576.71446549157451
 11
1072.4337498636728
 21
582.71446549157508
  0
LINE
  8
_0-0_計極細
  6
CONTINUOUS
 62
    2
 10
1077.4337498636728
 20
568.71446549157497
 11
1077.4337498636728
 21
562.71446549157508
  0
LINE
  8
_0-0_計極細
  6
CONTINUOUS
 62
    2
 10
1072.4337498636728
 20
562.71446549157451
 11
1072.4337498636728
 21
568.71446549157497
  0
LINE
  8
_0-1_計細線
  6
CONTINUOUS
 62
    3
 10
478.4337498636728
 20
548.71446549157497
 11
478.4337498636728
 21
540.71446549157542
  0
LINE
  8
_0-1_計細線
  6
CONTINUOUS
 62
    3
 10
478.4337498636728
 20
540.71446549157542
 11
971.43374986367235
 21
540.71446549157542
  0
LINE
  8
_0-1_計細線
  6
CONTINUOUS
 62
    3
 10
971.43374986367235
 20
540.71446549157542
 11
971.43374986367235
 21
548.71446549157497
  0
LINE
  8
_0-1_計細線
  6
CONTINUOUS
 62
    3
 10
971.43374986367235
 20
548.71446549157497
 11
478.4337498636728
 21
548.71446549157497
  0
LINE
  8
_0-0_計極細
  6
CONTINUOUS
 62
    2
 10
577.4337498636728
 20
554.71446549157497
 11
577.4337498636728
 21
548.71446549157451
  0
LINE
  8
_0-0_計極細
  6
CONTINUOUS
 62
    2
 10
572.4337498636728
 20
548.71446549157451
 11
572.4337498636728
 21
554.71446549157497
  0
LINE
  8
_0-0_計極細
  6
CONTINUOUS
 62
    2
 10
677.4337498636728
 20
554.71446549157497
 11
677.4337498636728
 21
548.71446549157451
  0
LINE
  8
_0-0_計極細
  6
CONTINUOUS
 62
    2
 10
672.4337498636728
 20
548.71446549157451
 11
672.4337498636728
 21
554.71446549157497
  0
LINE
  8
_0-0_計極細
  6
CONTINUOUS
 62
    2
 10
777.43374986367246
 20
554.71446549157497
 11
777.43374986367246
 21
548.71446549157451
  0
LINE
  8
_0-0_計極細
  6
CONTINUOUS
 62
    2
 10
772.43374986367246
 20
548.71446549157451
 11
772.43374986367246
 21
554.71446549157497
  0
LINE
  8
_0-0_計極細
  6
CONTINUOUS
 62
    2
 10
877.43374986367246
 20
554.71446549157497
 11
877.43374986367246
 21
548.71446549157451
  0
LINE
  8
_0-0_計極細
  6
CONTINUOUS
 62
    2
 10
872.43374986367246
 20
548.71446549157451
 11
872.43374986367246
 21
554.71446549157497
  0
LINE
  8
_0-0_計極細
  6
CONTINUOUS
 62
    2
 10
377.43374986367235
 20
554.71446549157497
 11
377.43374986367235
 21
548.71446549157451
  0
LINE
  8
_0-0_計極細
  6
CONTINUOUS
 62
    2
 10
372.43374986367235
 20
548.71446549157451
 11
372.43374986367235
 21
554.71446549157497
  0
LINE
  8
_0-0_計極細
  6
CONTINUOUS
 62
    2
 10
1077.4337498636728
 20
554.71446549157497
 11
1077.4337498636728
 21
548.71446549157497
  0
LINE
  8
_0-0_計極細
  6
CONTINUOUS
 62
    2
 10
1072.4337498636728
 20
548.71446549157451
 11
1072.4337498636728
 21
554.71446549157497
  0
LINE
  8
_0-1_計細線
  6
CONTINUOUS
 62
    3
 10
478.4337498636728
 20
534.71446549157497
 11
478.4337498636728
 21
526.71446549157542
  0
LINE
  8
_0-1_計細線
  6
CONTINUOUS
 62
    3
 10
478.4337498636728
 20
526.71446549157542
 11
971.43374986367235
 21
526.71446549157542
  0
LINE
  8
_0-1_計細線
  6
CONTINUOUS
 62
    3
 10
971.43374986367235
 20
526.71446549157542
 11
971.43374986367235
 21
534.71446549157497
  0
LINE
  8
_0-1_計細線
  6
CONTINUOUS
 62
    3
 10
971.43374986367235
 20
534.71446549157497
 11
478.4337498636728
 21
534.71446549157497
  0
LINE
  8
_0-0_計極細
  6
CONTINUOUS
 62
    2
 10
577.4337498636728
 20
540.71446549157497
 11
577.4337498636728
 21
534.71446549157451
  0
LINE
  8
_0-0_計極細
  6
CONTINUOUS
 62
    2
 10
572.4337498636728
 20
534.71446549157451
 11
572.4337498636728
 21
540.71446549157497
  0
LINE
  8
_0-0_計極細
  6
CONTINUOUS
 62
    2
 10
677.4337498636728
 20
540.71446549157497
 11
677.4337498636728
 21
534.71446549157451
  0
LINE
  8
_0-0_計極細
  6
CONTINUOUS
 62
    2
 10
672.4337498636728
 20
534.71446549157451
 11
672.4337498636728
 21
540.71446549157497
  0
LINE
  8
_0-0_計極細
  6
CONTINUOUS
 62
    2
 10
777.43374986367246
 20
540.71446549157497
 11
777.43374986367246
 21
534.71446549157451
  0
LINE
  8
_0-0_計極細
  6
CONTINUOUS
 62
    2
 10
772.43374986367246
 20
534.71446549157451
 11
772.43374986367246
 21
540.71446549157497
  0
LINE
  8
_0-0_計極細
  6
CONTINUOUS
 62
    2
 10
877.43374986367246
 20
540.71446549157497
 11
877.43374986367246
 21
534.71446549157451
  0
LINE
  8
_0-0_計極細
  6
CONTINUOUS
 62
    2
 10
872.43374986367246
 20
534.71446549157451
 11
872.43374986367246
 21
540.71446549157497
  0
LINE
  8
_0-0_計極細
  6
CONTINUOUS
 62
    2
 10
377.43374986367235
 20
540.71446549157497
 11
377.43374986367235
 21
534.71446549157451
  0
LINE
  8
_0-0_計極細
  6
CONTINUOUS
 62
    2
 10
372.43374986367235
 20
534.71446549157451
 11
372.43374986367235
 21
540.71446549157497
  0
LINE
  8
_0-0_計極細
  6
CONTINUOUS
 62
    2
 10
1077.4337498636728
 20
540.71446549157497
 11
1077.4337498636728
 21
534.71446549157497
  0
LINE
  8
_0-0_計極細
  6
CONTINUOUS
 62
    2
 10
1072.4337498636728
 20
534.71446549157451
 11
1072.4337498636728
 21
540.71446549157497
  0
LINE
  8
_0-1_計細線
  6
CONTINUOUS
 62
    3
 10
478.4337498636728
 20
520.71446549157497
 11
478.4337498636728
 21
512.71446549157542
  0
LINE
  8
_0-1_計細線
  6
CONTINUOUS
 62
    3
 10
478.4337498636728
 20
512.71446549157542
 11
971.43374986367235
 21
512.71446549157542
  0
LINE
  8
_0-1_計細線
  6
CONTINUOUS
 62
    3
 10
971.43374986367235
 20
512.71446549157542
 11
971.43374986367235
 21
520.71446549157497
  0
LINE
  8
_0-1_計細線
  6
CONTINUOUS
 62
    3
 10
971.43374986367235
 20
520.71446549157497
 11
478.4337498636728
 21
520.71446549157497
  0
LINE
  8
_0-0_計極細
  6
CONTINUOUS
 62
    2
 10
577.4337498636728
 20
526.71446549157497
 11
577.4337498636728
 21
520.71446549157463
  0
LINE
  8
_0-0_計極細
  6
CONTINUOUS
 62
    2
 10
572.4337498636728
 20
520.71446549157463
 11
572.4337498636728
 21
526.71446549157497
  0
LINE
  8
_0-0_計極細
  6
CONTINUOUS
 62
    2
 10
677.4337498636728
 20
526.71446549157497
 11
677.4337498636728
 21
520.71446549157463
  0
LINE
  8
_0-0_計極細
  6
CONTINUOUS
 62
    2
 10
672.4337498636728
 20
520.71446549157463
 11
672.4337498636728
 21
526.71446549157497
  0
LINE
  8
_0-0_計極細
  6
CONTINUOUS
 62
    2
 10
777.43374986367246
 20
526.71446549157497
 11
777.43374986367246
 21
520.71446549157463
  0
LINE
  8
_0-0_計極細
  6
CONTINUOUS
 62
    2
 10
772.43374986367246
 20
520.71446549157463
 11
772.43374986367246
 21
526.71446549157497
  0
LINE
  8
_0-0_計極細
  6
CONTINUOUS
 62
    2
 10
877.43374986367246
 20
526.71446549157497
 11
877.43374986367246
 21
520.71446549157463
  0
LINE
  8
_0-0_計極細
  6
CONTINUOUS
 62
    2
 10
872.43374986367246
 20
520.71446549157463
 11
872.43374986367246
 21
526.71446549157497
  0
LINE
  8
_0-0_計極細
  6
CONTINUOUS
 62
    2
 10
377.43374986367235
 20
526.71446549157497
 11
377.43374986367235
 21
520.71446549157463
  0
LINE
  8
_0-0_計極細
  6
CONTINUOUS
 62
    2
 10
372.43374986367235
 20
520.71446549157463
 11
372.43374986367235
 21
526.71446549157497
  0
LINE
  8
_0-0_計極細
  6
CONTINUOUS
 62
    2
 10
1077.4337498636728
 20
526.71446549157497
 11
1077.4337498636728
 21
520.71446549157497
  0
LINE
  8
_0-0_計極細
  6
CONTINUOUS
 62
    2
 10
1072.4337498636728
 20
520.71446549157463
 11
1072.4337498636728
 21
526.71446549157497
  0
LINE
  8
_0-1_計細線
  6
CONTINUOUS
 62
    3
 10
478.4337498636728
 20
506.71446549157503
 11
478.4337498636728
 21
498.71446549157548
  0
LINE
  8
_0-1_計細線
  6
CONTINUOUS
 62
    3
 10
478.4337498636728
 20
498.71446549157548
 11
971.43374986367235
 21
498.71446549157548
  0
LINE
  8
_0-1_計細線
  6
CONTINUOUS
 62
    3
 10
971.43374986367235
 20
498.71446549157548
 11
971.43374986367235
 21
506.71446549157503
  0
LINE
  8
_0-1_計細線
  6
CONTINUOUS
 62
    3
 10
971.43374986367235
 20
506.71446549157503
 11
478.4337498636728
 21
506.71446549157503
  0
LINE
  8
_0-0_計極細
  6
CONTINUOUS
 62
    2
 10
577.4337498636728
 20
512.71446549157508
 11
577.4337498636728
 21
506.71446549157451
  0
LINE
  8
_0-0_計極細
  6
CONTINUOUS
 62
    2
 10
572.4337498636728
 20
506.71446549157451
 11
572.4337498636728
 21
512.71446549157508
  0
LINE
  8
_0-0_計極細
  6
CONTINUOUS
 62
    2
 10
677.4337498636728
 20
512.71446549157508
 11
677.4337498636728
 21
506.71446549157451
  0
LINE
  8
_0-0_計極細
  6
CONTINUOUS
 62
    2
 10
672.4337498636728
 20
506.71446549157451
 11
672.4337498636728
 21
512.71446549157508
  0
LINE
  8
_0-0_計極細
  6
CONTINUOUS
 62
    2
 10
777.43374986367246
 20
512.71446549157508
 11
777.43374986367246
 21
506.71446549157451
  0
LINE
  8
_0-0_計極細
  6
CONTINUOUS
 62
    2
 10
772.43374986367246
 20
506.71446549157451
 11
772.43374986367246
 21
512.71446549157508
  0
LINE
  8
_0-0_計極細
  6
CONTINUOUS
 62
    2
 10
877.43374986367246
 20
512.71446549157508
 11
877.43374986367246
 21
506.71446549157451
  0
LINE
  8
_0-0_計極細
  6
CONTINUOUS
 62
    2
 10
872.43374986367246
 20
506.71446549157451
 11
872.43374986367246
 21
512.71446549157508
  0
LINE
  8
_0-0_計極細
  6
CONTINUOUS
 62
    2
 10
377.43374986367235
 20
512.71446549157508
 11
377.43374986367235
 21
506.71446549157451
  0
LINE
  8
_0-0_計極細
  6
CONTINUOUS
 62
    2
 10
372.43374986367235
 20
506.71446549157451
 11
372.43374986367235
 21
512.71446549157508
  0
LINE
  8
_0-0_計極細
  6
CONTINUOUS
 62
    2
 10
1077.4337498636728
 20
512.71446549157508
 11
1077.4337498636728
 21
506.71446549157503
  0
LINE
  8
_0-0_計極細
  6
CONTINUOUS
 62
    2
 10
1072.4337498636728
 20
506.71446549157451
 11
1072.4337498636728
 21
512.71446549157508
  0
LINE
  8
_0-1_計細線
  6
CONTINUOUS
 62
    3
 10
333.88752141478017
 20
562.71446549157508
 11
471.43374986367286
 21
562.71446549157508
  0
LINE
  8
_0-1_計細線
  6
CONTINUOUS
 62
    3
 10
478.4337498636728
 20
492.71446549157503
 11
478.4337498636728
 21
484.71446549157548
  0
LINE
  8
_0-1_計細線
  6
CONTINUOUS
 62
    3
 10
478.4337498636728
 20
484.71446549157548
 11
971.43374986367235
 21
484.71446549157548
  0
LINE
  8
_0-1_計細線
  6
CONTINUOUS
 62
    3
 10
971.43374986367235
 20
484.71446549157548
 11
971.43374986367235
 21
492.71446549157503
  0
LINE
  8
_0-1_計細線
  6
CONTINUOUS
 62
    3
 10
971.43374986367235
 20
492.71446549157503
 11
478.4337498636728
 21
492.71446549157503
  0
LINE
  8
_0-0_計極細
  6
CONTINUOUS
 62
    2
 10
577.4337498636728
 20
498.71446549157497
 11
577.4337498636728
 21
492.71446549157451
  0
LINE
  8
_0-0_計極細
  6
CONTINUOUS
 62
    2
 10
572.4337498636728
 20
492.71446549157451
 11
572.4337498636728
 21
498.71446549157497
  0
LINE
  8
_0-0_計極細
  6
CONTINUOUS
 62
    2
 10
677.4337498636728
 20
498.71446549157497
 11
677.4337498636728
 21
492.71446549157451
  0
LINE
  8
_0-0_計極細
  6
CONTINUOUS
 62
    2
 10
672.4337498636728
 20
492.71446549157451
 11
672.4337498636728
 21
498.71446549157497
  0
LINE
  8
_0-0_計極細
  6
CONTINUOUS
 62
    2
 10
777.43374986367246
 20
498.71446549157497
 11
777.43374986367246
 21
492.71446549157451
  0
LINE
  8
_0-0_計極細
  6
CONTINUOUS
 62
    2
 10
772.43374986367246
 20
492.71446549157451
 11
772.43374986367246
 21
498.71446549157497
  0
LINE
  8
_0-0_計極細
  6
CONTINUOUS
 62
    2
 10
877.43374986367246
 20
498.71446549157497
 11
877.43374986367246
 21
492.71446549157451
  0
LINE
  8
_0-0_計極細
  6
CONTINUOUS
 62
    2
 10
872.43374986367246
 20
492.71446549157451
 11
872.43374986367246
 21
498.71446549157497
  0
LINE
  8
_0-0_計極細
  6
CONTINUOUS
 62
    2
 10
377.43374986367235
 20
498.71446549157497
 11
377.43374986367235
 21
492.71446549157451
  0
LINE
  8
_0-0_計極細
  6
CONTINUOUS
 62
    2
 10
372.43374986367235
 20
492.71446549157451
 11
372.43374986367235
 21
498.71446549157497
  0
LINE
  8
_0-0_計極細
  6
CONTINUOUS
 62
    2
 10
1077.4337498636728
 20
498.71446549157497
 11
1077.4337498636728
 21
492.71446549157503
  0
LINE
  8
_0-0_計極細
  6
CONTINUOUS
 62
    2
 10
1072.4337498636728
 20
492.71446549157451
 11
1072.4337498636728
 21
498.71446549157497
  0
LINE
  8
_0-1_計細線
  6
CONTINUOUS
 62
    3
 10
478.4337498636728
 20
478.71446549157497
 11
478.4337498636728
 21
470.71446549157542
  0
LINE
  8
_0-1_計細線
  6
CONTINUOUS
 62
    3
 10
478.4337498636728
 20
470.71446549157542
 11
971.43374986367235
 21
470.71446549157542
  0
LINE
  8
_0-1_計細線
  6
CONTINUOUS
 62
    3
 10
971.43374986367235
 20
470.71446549157542
 11
971.43374986367235
 21
478.71446549157497
  0
LINE
  8
_0-1_計細線
  6
CONTINUOUS
 62
    3
 10
971.43374986367235
 20
478.71446549157497
 11
478.4337498636728
 21
478.71446549157497
  0
LINE
  8
_0-0_計極細
  6
CONTINUOUS
 62
    2
 10
577.4337498636728
 20
484.71446549157497
 11
577.4337498636728
 21
478.71446549157451
  0
LINE
  8
_0-0_計極細
  6
CONTINUOUS
 62
    2
 10
572.4337498636728
 20
478.71446549157451
 11
572.4337498636728
 21
484.71446549157497
  0
LINE
  8
_0-0_計極細
  6
CONTINUOUS
 62
    2
 10
677.4337498636728
 20
484.71446549157497
 11
677.4337498636728
 21
478.71446549157451
  0
LINE
  8
_0-0_計極細
  6
CONTINUOUS
 62
    2
 10
672.4337498636728
 20
478.71446549157451
 11
672.4337498636728
 21
484.71446549157497
  0
LINE
  8
_0-0_計極細
  6
CONTINUOUS
 62
    2
 10
777.43374986367246
 20
484.71446549157497
 11
777.43374986367246
 21
478.71446549157451
  0
LINE
  8
_0-0_計極細
  6
CONTINUOUS
 62
    2
 10
772.43374986367246
 20
478.71446549157451
 11
772.43374986367246
 21
484.71446549157497
  0
LINE
  8
_0-0_計極細
  6
CONTINUOUS
 62
    2
 10
877.43374986367246
 20
484.71446549157497
 11
877.43374986367246
 21
478.71446549157451
  0
LINE
  8
_0-0_計極細
  6
CONTINUOUS
 62
    2
 10
872.43374986367246
 20
478.71446549157451
 11
872.43374986367246
 21
484.71446549157497
  0
LINE
  8
_0-0_計極細
  6
CONTINUOUS
 62
    2
 10
377.43374986367235
 20
484.71446549157497
 11
377.43374986367235
 21
478.71446549157451
  0
LINE
  8
_0-0_計極細
  6
CONTINUOUS
 62
    2
 10
372.43374986367235
 20
478.71446549157451
 11
372.43374986367235
 21
484.71446549157497
  0
LINE
  8
_0-0_計極細
  6
CONTINUOUS
 62
    2
 10
1077.4337498636728
 20
484.71446549157497
 11
1077.4337498636728
 21
478.71446549157497
  0
LINE
  8
_0-0_計極細
  6
CONTINUOUS
 62
    2
 10
1072.4337498636728
 20
478.71446549157451
 11
1072.4337498636728
 21
484.71446549157497
  0
LINE
  8
_0-1_計細線
  6
CONTINUOUS
 62
    3
 10
478.4337498636728
 20
464.71446549157497
 11
478.4337498636728
 21
456.71446549157542
  0
LINE
  8
_0-1_計細線
  6
CONTINUOUS
 62
    3
 10
478.4337498636728
 20
456.71446549157542
 11
971.43374986367235
 21
456.71446549157542
  0
LINE
  8
_0-1_計細線
  6
CONTINUOUS
 62
    3
 10
971.43374986367235
 20
456.71446549157542
 11
971.43374986367235
 21
464.71446549157497
  0
LINE
  8
_0-1_計細線
  6
CONTINUOUS
 62
    3
 10
971.43374986367235
 20
464.71446549157497
 11
478.4337498636728
 21
464.71446549157497
  0
LINE
  8
_0-0_計極細
  6
CONTINUOUS
 62
    2
 10
577.4337498636728
 20
470.71446549157497
 11
577.4337498636728
 21
464.71446549157457
  0
LINE
  8
_0-0_計極細
  6
CONTINUOUS
 62
    2
 10
572.4337498636728
 20
464.71446549157457
 11
572.4337498636728
 21
470.71446549157497
  0
LINE
  8
_0-0_計極細
  6
CONTINUOUS
 62
    2
 10
677.4337498636728
 20
470.71446549157497
 11
677.4337498636728
 21
464.71446549157457
  0
LINE
  8
_0-0_計極細
  6
CONTINUOUS
 62
    2
 10
672.4337498636728
 20
464.71446549157457
 11
672.4337498636728
 21
470.71446549157497
  0
LINE
  8
_0-0_計極細
  6
CONTINUOUS
 62
    2
 10
777.43374986367246
 20
470.71446549157497
 11
777.43374986367246
 21
464.71446549157457
  0
LINE
  8
_0-0_計極細
  6
CONTINUOUS
 62
    2
 10
772.43374986367246
 20
464.71446549157457
 11
772.43374986367246
 21
470.71446549157497
  0
LINE
  8
_0-0_計極細
  6
CONTINUOUS
 62
    2
 10
877.43374986367246
 20
470.71446549157497
 11
877.43374986367246
 21
464.71446549157457
  0
LINE
  8
_0-0_計極細
  6
CONTINUOUS
 62
    2
 10
872.43374986367246
 20
464.71446549157457
 11
872.43374986367246
 21
470.71446549157497
  0
LINE
  8
_0-0_計極細
  6
CONTINUOUS
 62
    2
 10
377.43374986367235
 20
470.71446549157497
 11
377.43374986367235
 21
464.71446549157457
  0
LINE
  8
_0-0_計極細
  6
CONTINUOUS
 62
    2
 10
372.43374986367235
 20
464.71446549157457
 11
372.43374986367235
 21
470.71446549157497
  0
LINE
  8
_0-1_計細線
  6
CONTINUOUS
 62
    3
 10
471.43374986367286
 20
456.71446549157542
 11
324.89539085573733
 21
456.71446549157542
  0
LINE
  8
_0-0_計極細
  6
CONTINUOUS
 62
    2
 10
1077.4337498636728
 20
470.71446549157497
 11
1077.4337498636728
 21
464.71446549157497
  0
LINE
  8
_0-0_計極細
  6
CONTINUOUS
 62
    2
 10
1072.4337498636728
 20
464.71446549157457
 11
1072.4337498636728
 21
470.71446549157497
  0
LINE
  8
_0-1_計細線
  6
CONTINUOUS
 62
    3
 10
978.43374986367235
 20
456.71446549157542
 11
1124.9988901700044
 21
456.71446549157542
  0
LINE
  8
_0-1_計細線
  6
CONTINUOUS
 62
    3
 10
978.43374986367235
 20
792.71446549157542
 11
1126.1582674182937
 21
792.71446549157542
  0
LINE
  8
_0-1_計細線
  6
CONTINUOUS
 62
    3
 10
1127.0660919299621
 20
786.71446549157554
 11
978.43374986367235
 21
786.71446549157554
  0
LINE
  8
_0-1_計細線
  6
CONTINUOUS
 62
    3
 10
978.43374986367235
 20
778.71446549157554
 11
1128.2452336454016
 21
778.71446549157554
  0
LINE
  8
_0-1_計細線
  6
CONTINUOUS
 62
    3
 10
1129.0997412781435
 20
772.71446549157542
 11
978.43374986367235
 21
772.71446549157542
  0
LINE
  8
_0-1_計細線
  6
CONTINUOUS
 62
    3
 10
978.43374986367235
 20
764.71446549157588
 11
1130.1773786661711
 21
764.71446549157588
  0
LINE
  8
_0-1_計細線
  6
CONTINUOUS
 62
    3
 10
1130.9389298425926
 20
758.71446549157542
 11
978.43374986367235
 21
758.71446549157542
  0
LINE
  8
_0-1_計細線
  6
CONTINUOUS
 62
    3
 10
978.43374986367235
 20
750.71446549157588
 11
1131.8576043452849
 21
750.71446549157588
  0
LINE
  8
_0-1_計細線
  6
CONTINUOUS
 62
    3
 10
1132.4774246466495
 20
744.71446549157554
 11
978.43374986367235
 21
744.71446549157554
  0
LINE
  8
_0-1_計細線
  6
CONTINUOUS
 62
    3
 10
978.43374986367235
 20
736.71446549157599
 11
1133.1725651279316
 21
736.71446549157599
  0
LINE
  8
_0-1_計細線
  6
CONTINUOUS
 62
    3
 10
1133.5977116676681
 20
730.71446549157542
 11
978.43374986367235
 21
730.71446549157542
  0
LINE
  8
_0-1_計細線
  6
CONTINUOUS
 62
    3
 10
978.43374986367235
 20
722.71446549157542
 11
1133.9993645039845
 21
722.71446549157542
  0
LINE
  8
_0-1_計細線
  6
CONTINUOUS
 62
    3
 10
1134.1828301904225
 20
716.71446549157554
 11
978.43374986367235
 21
716.71446549157554
  0
LINE
  8
_0-1_計細線
  6
CONTINUOUS
 62
    3
 10
978.43374986367235
 20
708.71446549157542
 11
1134.2177091855046
 21
708.71446549157542
  0
LINE
  8
_0-1_計細線
  6
CONTINUOUS
 62
    3
 10
1134.0910124120078
 20
702.71446549157542
 11
978.43374986367235
 21
702.71446549157542
  0
LINE
  8
_0-1_計細線
  6
CONTINUOUS
 62
    3
 10
978.43374986367235
 20
694.71446549157554
 11
1133.7167401473762
 21
694.71446549157554
  0
LINE
  8
_0-1_計細線
  6
CONTINUOUS
 62
    3
 10
1133.306120363608
 20
688.71446549157542
 11
978.43374986367235
 21
688.71446549157542
  0
LINE
  8
_0-1_計細線
  6
CONTINUOUS
 62
    3
 10
978.43374986367235
 20
680.71446549157542
 11
1132.6003277134391
 21
680.71446549157542
  0
LINE
  8
_0-1_計細線
  6
CONTINUOUS
 62
    3
 10
1131.9510488470482
 20
674.71446549157554
 11
978.43374986367235
 21
674.71446549157554
  0
LINE
  8
_0-1_計細線
  6
CONTINUOUS
 62
    3
 10
978.43374986367235
 20
666.71446549157554
 11
1130.9639620544294
 21
666.71446549157554
  0
LINE
  8
_0-1_計細線
  6
CONTINUOUS
 62
    3
 10
1130.1303506393374
 20
660.71446549157542
 11
978.43374986367235
 21
660.71446549157542
  0
LINE
  8
_0-1_計細線
  6
CONTINUOUS
 62
    3
 10
978.43374986367235
 20
652.71446549157542
 11
1128.9326855286904
 21
652.71446549157542
  0
LINE
  8
_0-1_計細線
  6
CONTINUOUS
 62
    3
 10
1127.9744070139041
 20
646.71446549157554
 11
978.43374986367235
 21
646.71446549157554
  0
LINE
  8
_0-1_計細線
  6
CONTINUOUS
 62
    3
 10
978.43374986367235
 20
638.71446549157542
 11
1126.6427906545441
 21
638.71446549157542
  0
LINE
  8
_0-1_計細線
  6
CONTINUOUS
 62
    3
 10
1125.6208225130549
 20
632.71446549157542
 11
978.43374986367235
 21
632.71446549157542
  0
LINE
  8
_0-1_計細線
  6
CONTINUOUS
 62
    3
 10
978.43374986367235
 20
624.71446549157554
 11
1124.2466772142907
 21
624.71446549157554
  0
LINE
  8
_0-1_計細線
  6
CONTINUOUS
 62
    3
 10
1123.2247090728015
 20
618.71446549157542
 11
978.43374986367235
 21
618.71446549157542
  0
LINE
  8
_0-1_計細線
  6
CONTINUOUS
 62
    3
 10
978.43374986367235
 20
610.71446549157542
 11
1121.8930927134415
 21
610.71446549157542
  0
LINE
  8
_0-1_計細線
  6
CONTINUOUS
 62
    3
 10
1120.9348141986552
 20
604.71446549157554
 11
978.43374986367235
 21
604.71446549157554
  0
LINE
  8
_0-1_計細線
  6
CONTINUOUS
 62
    3
 10
978.43374986367235
 20
596.71446549157542
 11
1119.7371490880082
 21
596.71446549157542
  0
LINE
  8
_0-1_計細線
  6
CONTINUOUS
 62
    3
 10
1118.9035376729162
 20
590.71446549157542
 11
978.43374986367235
 21
590.71446549157542
  0
LINE
  8
_0-1_計細線
  6
CONTINUOUS
 62
    3
 10
978.43374986367235
 20
582.71446549157542
 11
1117.9164508802974
 21
582.71446549157542
  0
LINE
  8
_0-1_計細線
  6
CONTINUOUS
 62
    3
 10
1117.2671720139065
 20
576.71446549157542
 11
978.43374986367235
 21
576.71446549157542
  0
LINE
  8
_0-1_計細線
  6
CONTINUOUS
 62
    3
 10
978.43374986367235
 20
568.71446549157542
 11
1116.5613793637376
 21
568.71446549157542
  0
LINE
  8
_0-1_計細線
  6
CONTINUOUS
 62
    3
 10
1116.1507595799694
 20
562.71446549157542
 11
978.43374986367235
 21
562.71446549157542
  0
LINE
  8
_0-1_計細線
  6
CONTINUOUS
 62
    3
 10
978.43374986367235
 20
554.71446549157554
 11
1115.7764873153374
 21
554.71446549157554
  0
LINE
  8
_0-1_計細線
  6
CONTINUOUS
 62
    3
 10
1115.649790541841
 20
548.71446549157542
 11
978.43374986367235
 21
548.71446549157542
  0
LINE
  8
_0-1_計細線
  6
CONTINUOUS
 62
    3
 10
978.43374986367235
 20
540.71446549157542
 11
1115.6846695369231
 21
540.71446549157542
  0
LINE
  8
_0-1_計細線
  6
CONTINUOUS
 62
    3
 10
1115.8681352233607
 20
534.71446549157554
 11
978.43374986367235
 21
534.71446549157554
  0
LINE
  8
_0-1_計細線
  6
CONTINUOUS
 62
    3
 10
978.43374986367235
 20
526.71446549157542
 11
1116.2697880596775
 21
526.71446549157542
  0
LINE
  8
_0-1_計細線
  6
CONTINUOUS
 62
    3
 10
1116.6949345994135
 20
520.71446549157542
 11
978.43374986367235
 21
520.71446549157542
  0
LINE
  8
_0-1_計細線
  6
CONTINUOUS
 62
    3
 10
978.43374986367235
 20
512.71446549157542
 11
1117.3900750806956
 21
512.71446549157542
  0
LINE
  8
_0-1_計細線
  6
CONTINUOUS
 62
    3
 10
1118.0098953820602
 20
506.71446549157542
 11
978.43374986367235
 21
506.71446549157542
  0
LINE
  8
_0-1_計細線
  6
CONTINUOUS
 62
    3
 10
978.43374986367235
 20
498.71446549157548
 11
1118.9285698847525
 21
498.71446549157548
  0
LINE
  8
_0-1_計細線
  6
CONTINUOUS
 62
    3
 10
1119.6901210611736
 20
492.71446549157542
 11
978.43374986367235
 21
492.71446549157542
  0
LINE
  8
_0-1_計細線
  6
CONTINUOUS
 62
    3
 10
978.43374986367235
 20
484.71446549157548
 11
1120.7677584492017
 21
484.71446549157548
  0
LINE
  8
_0-1_計細線
  6
CONTINUOUS
 62
    3
 10
1121.6222660819435
 20
478.71446549157548
 11
978.43374986367235
 21
478.71446549157548
  0
LINE
  8
_0-1_計細線
  6
CONTINUOUS
 62
    3
 10
978.43374986367235
 20
470.71446549157542
 11
1122.801407797383
 21
470.71446549157542
  0
LINE
  8
_0-1_計細線
  6
CONTINUOUS
 62
    3
 10
1123.7092323090515
 20
464.71446549157548
 11
978.43374986367235
 21
464.71446549157548
  0
LINE
  8
_0-1_計細線
  6
CONTINUOUS
 62
    3
 10
471.43374986367286
 20
792.71446549157542
 11
323.70923230905146
 21
792.71446549157542
  0
LINE
  8
_0-1_計細線
  6
CONTINUOUS
 62
    3
 10
322.80140779738355
 20
786.71446549157508
 11
471.43374986367286
 21
786.71446549157508
  0
LINE
  8
_0-1_計細線
  6
CONTINUOUS
 62
    3
 10
471.43374986367286
 20
778.71446549157554
 11
321.62226608194351
 21
778.71446549157554
  0
LINE
  8
_0-1_計細線
  6
CONTINUOUS
 62
    3
 10
320.76775844920172
 20
772.71446549157542
 11
471.43374986367286
 21
772.71446549157542
  0
LINE
  8
_0-1_計細線
  6
CONTINUOUS
 62
    3
 10
471.43374986367286
 20
764.71446549157588
 11
319.69012106117407
 21
764.71446549157588
  0
LINE
  8
_0-1_計細線
  6
CONTINUOUS
 62
    3
 10
318.92856988475251
 20
758.71446549157542
 11
471.43374986367286
 21
758.71446549157542
  0
LINE
  8
_0-1_計細線
  6
CONTINUOUS
 62
    3
 10
471.43374986367286
 20
750.71446549157542
 11
318.00989538206068
 21
750.71446549157542
  0
LINE
  8
_0-1_計細線
  6
CONTINUOUS
 62
    3
 10
317.39007508069608
 20
744.71446549157554
 11
471.43374986367286
 21
744.71446549157554
  0
LINE
  8
_0-1_計細線
  6
CONTINUOUS
 62
    3
 10
471.43374986367286
 20
736.71446549157554
 11
316.69493459941395
 21
736.71446549157554
  0
LINE
  8
_0-1_計細線
  6
CONTINUOUS
 62
    3
 10
316.26978805967752
 20
730.71446549157497
 11
471.43374986367286
 21
730.71446549157497
  0
LINE
  8
_0-1_計細線
  6
CONTINUOUS
 62
    3
 10
471.43374986367286
 20
722.71446549157542
 11
315.8681352233607
 21
722.71446549157542
  0
LINE
  8
_0-1_計細線
  6
CONTINUOUS
 62
    3
 10
315.68466953692314
 20
716.71446549157497
 11
471.43374986367286
 21
716.71446549157497
  0
LINE
  8
_0-1_計細線
  6
CONTINUOUS
 62
    3
 10
471.43374986367286
 20
708.71446549157542
 11
315.64979054184096
 21
708.71446549157542
  0
LINE
  8
_0-1_計細線
  6
CONTINUOUS
 62
    3
 10
315.77648731533742
 20
702.71446549157508
 11
471.43374986367286
 21
702.71446549157508
  0
LINE
  8
_0-1_計細線
  6
CONTINUOUS
 62
    3
 10
471.43374986367286
 20
694.71446549157554
 11
316.15075957996896
 21
694.71446549157554
  0
LINE
  8
_0-1_計細線
  6
CONTINUOUS
 62
    3
 10
316.56137936373767
 20
688.71446549157497
 11
471.43374986367286
 21
688.71446549157497
  0
LINE
  8
_0-1_計細線
  6
CONTINUOUS
 62
    3
 10
471.43374986367286
 20
680.71446549157542
 11
317.26717201390647
 21
680.71446549157542
  0
LINE
  8
_0-1_計細線
  6
CONTINUOUS
 62
    3
 10
317.91645088029696
 20
674.71446549157508
 11
471.43374986367286
 21
674.71446549157508
  0
LINE
  8
_0-1_計細線
  6
CONTINUOUS
 62
    3
 10
471.43374986367286
 20
666.71446549157554
 11
318.90353767291617
 21
666.71446549157554
  0
LINE
  8
_0-1_計細線
  6
CONTINUOUS
 62
    3
 10
319.73714908800775
 20
660.71446549157497
 11
471.43374986367286
 21
660.71446549157497
  0
LINE
  8
_0-1_計細線
  6
CONTINUOUS
 62
    3
 10
471.43374986367286
 20
652.71446549157542
 11
320.93481419865475
 21
652.71446549157542
  0
LINE
  8
_0-1_計細線
  6
CONTINUOUS
 62
    3
 10
321.89309271344155
 20
646.71446549157497
 11
471.43374986367286
 21
646.71446549157497
  0
LINE
  8
_0-1_計細線
  6
CONTINUOUS
 62
    3
 10
471.43374986367286
 20
638.71446549157542
 11
323.22470907280103
 21
638.71446549157542
  0
LINE
  8
_0-1_計細線
  6
CONTINUOUS
 62
    3
 10
324.24667721429068
 20
632.71446549157508
 11
471.43374986367286
 21
632.71446549157508
  0
LINE
  8
_0-1_計細線
  6
CONTINUOUS
 62
    3
 10
471.43374986367286
 20
624.71446549157554
 11
325.62082251305446
 21
624.71446549157554
  0
LINE
  8
_0-1_計細線
  6
CONTINUOUS
 62
    3
 10
326.64279065454417
 20
618.71446549157497
 11
471.43374986367286
 21
618.71446549157497
  0
LINE
  8
_0-1_計細線
  6
CONTINUOUS
 62
    3
 10
471.43374986367286
 20
610.71446549157542
 11
327.97440701390366
 21
610.71446549157542
  0
LINE
  8
_0-1_計細線
  6
CONTINUOUS
 62
    3
 10
328.9326855286904
 20
604.71446549157497
 11
471.43374986367286
 21
604.71446549157497
  0
LINE
  8
_0-1_計細線
  6
CONTINUOUS
 62
    3
 10
471.43374986367286
 20
596.71446549157542
 11
330.13035063933694
 21
596.71446549157542
  0
LINE
  8
_0-1_計細線
  6
CONTINUOUS
 62
    3
 10
330.96396205442898
 20
590.71446549157497
 11
471.43374986367286
 21
590.71446549157497
  0
LINE
  8
_0-1_計細線
  6
CONTINUOUS
 62
    3
 10
471.43374986367286
 20
582.71446549157542
 11
331.95104884704824
 21
582.71446549157542
  0
LINE
  8
_0-1_計細線
  6
CONTINUOUS
 62
    3
 10
332.60032771343867
 20
576.71446549157497
 11
471.43374986367286
 21
576.71446549157497
  0
LINE
  8
_0-1_計細線
  6
CONTINUOUS
 62
    3
 10
471.43374986367286
 20
568.71446549157542
 11
333.30612036360799
 21
568.71446549157542
  0
LINE
  8
_0-1_計細線
  6
CONTINUOUS
 62
    3
 10
471.43374986367286
 20
554.71446549157554
 11
334.09101241200779
 21
554.71446549157554
  0
LINE
  8
_0-1_計細線
  6
CONTINUOUS
 62
    3
 10
334.21770918550465
 20
548.71446549157497
 11
471.43374986367286
 21
548.71446549157497
  0
LINE
  8
_0-1_計細線
  6
CONTINUOUS
 62
    3
 10
471.43374986367286
 20
540.71446549157542
 11
334.18283019042246
 21
540.71446549157542
  0
LINE
  8
_0-1_計細線
  6
CONTINUOUS
 62
    3
 10
333.99936450398451
 20
534.71446549157497
 11
471.43374986367286
 21
534.71446549157497
  0
LINE
  8
_0-1_計細線
  6
CONTINUOUS
 62
    3
 10
471.43374986367286
 20
526.71446549157542
 11
333.59771166766814
 21
526.71446549157542
  0
LINE
  8
_0-1_計細線
  6
CONTINUOUS
 62
    3
 10
333.17256512793165
 20
520.71446549157497
 11
471.43374986367286
 21
520.71446549157497
  0
LINE
  8
_0-1_計細線
  6
CONTINUOUS
 62
    3
 10
471.43374986367286
 20
512.71446549157542
 11
332.47742464664952
 21
512.71446549157542
  0
LINE
  8
_0-1_計細線
  6
CONTINUOUS
 62
    3
 10
331.85760434528498
 20
506.71446549157503
 11
471.43374986367286
 21
506.71446549157503
  0
LINE
  8
_0-1_計細線
  6
CONTINUOUS
 62
    3
 10
471.43374986367286
 20
498.71446549157548
 11
330.9389298425931
 21
498.71446549157548
  0
LINE
  8
_0-1_計細線
  6
CONTINUOUS
 62
    3
 10
330.17737866617153
 20
492.71446549157503
 11
471.43374986367286
 21
492.71446549157503
  0
LINE
  8
_0-1_計細線
  6
CONTINUOUS
 62
    3
 10
471.43374986367286
 20
484.71446549157548
 11
329.09974127814394
 21
484.71446549157548
  0
LINE
  8
_0-1_計細線
  6
CONTINUOUS
 62
    3
 10
328.2452336454021
 20
478.71446549157497
 11
471.43374986367286
 21
478.71446549157497
  0
LINE
  8
_0-1_計細線
  6
CONTINUOUS
 62
    3
 10
471.43374986367286
 20
470.71446549157542
 11
327.06609192996211
 21
470.71446549157542
  0
LINE
  8
_0-1_計細線
  6
CONTINUOUS
 62
    3
 10
326.15826741829414
 20
464.71446549157497
 11
471.43374986367286
 21
464.71446549157497
  0
TEXT
  8
_0-5_寸法線
 62
    7
 10
593.67073225861441
 20
396.19894596387093
 40
15
 41
0.8000000000000001
 50
0
  1
ＧＳＬ－１５
  0
TEXT
  8
_0-5_寸法線
 62
    7
 10
813.27081859303871
 20
396.19894596387093
 40
15
 41
0.8000000000000001
 50
0
  1
ＧＳＴ－１５Ｗ３４４
  0
LINE
  8
_0-7_枠細線
  6
CONTINUOUS
 62
    5
 10
1425
 20
907.5
 11
890
 21
907.5
  0
LINE
  8
_0-7_枠細線
  6
CONTINUOUS
 62
    5
 10
915
 20
908.94233397174708
 11
907.5
 21
923.94233397174708
  0
LINE
  8
_0-7_枠細線
  6
CONTINUOUS
 62
    5
 10
900
 20
908.94233397174708
 11
915
 21
908.94233397174708
  0
LINE
  8
_0-7_枠細線
  6
CONTINUOUS
 62
    5
 10
907.5
 20
923.94233397174708
 11
900
 21
908.94233397174708
  0
TEXT
  8
_0-7_枠細線
 62
    5
 10
902.36515126814822
 20
908.63533172636653
 40
12.5
 41
0.8
 50
0
  1
１
  0
TEXT
  8
_0-7_枠細線
 62
    5
 10
1180
 20
910
 40
12.5
 41
0.7199999999999999
 50
0
  1
２０１９．０９．０１
  0
TEXT
  8
_0-7_枠細線
 62
    5
 10
938.85037037037023
 20
910
 40
12.500000000000002
 41
1
 50
0
  1
アンカー材質･厚み変更
  0
LINE
  8
_0-7_枠細線
  6
CONTINUOUS
 62
    5
 10
925
 20
907.5
 11
925
 21
959.99999999999943
  0
LINE
  8
_0-7_枠細線
  6
CONTINUOUS
 62
    5
 10
890
 20
907.5
 11
890
 21
959.99999999999909
  0
LINE
  8
_0-7_枠細線
  6
CONTINUOUS
 62
    5
 10
1175
 20
907.5
 11
1175
 21
959.99999999999943
  0
LINE
  8
_0-7_枠細線
  6
CONTINUOUS
 62
    5
 10
1275
 20
907.5
 11
1275
 21
959.99999999999943
  0
LINE
  8
_0-5_寸法線
  6
CONTINUOUS
 62
    7
 10
1176.9337498636755
 20
451.71446549157366
 11
1221.9337498636755
 21
451.71446549157366
  0
LINE
  8
_0-5_寸法線
  6
CONTINUOUS
 62
    7
 10
1216.9337498636755
 20
451.71446549157366
 11
1219.5219403147007
 21
442.05520722868295
  0
LINE
  8
_0-5_寸法線
  6
CONTINUOUS
 62
    7
 10
1216.9337498636755
 20
451.71446549157366
 11
1214.3455594126503
 21
442.055207228683
  0
LINE
  8
_0-5_寸法線
  6
CONTINUOUS
 62
    7
 10
1176.9337498636755
 20
454.7144654915752
 11
1221.9337498636755
 21
454.71446549157497
  0
CIRCLE
  8
_0-5_寸法線
  6
CONTINUOUS
 62
    1
 10
1216.9337498636755
 20
454.71446549157497
 40
1.5000000000000002
  0
LINE
  8
_0-5_寸法線
  6
CONTINUOUS
 62
    7
 10
1216.9337498636755
 20
426.71446549157366
 11
1216.9337498636755
 21
454.71446549157497
  0
TEXT
  8
_0-5_寸法線
 62
    7
 10
1216.9337498636755
 20
430.51393444954954
 40
15
 41
1
 50
90
  1
3
  0
LINE
  8
_0-5_寸法線
  6
CONTINUOUS
 62
    7
 10
1176.9337498636755
 20
456.71446549157503
 11
1221.9337498636755
 21
456.71446549157503
  0
LINE
  8
_0-5_寸法線
  6
CONTINUOUS
 62
    7
 10
1216.9337498636755
 20
454.71446549157497
 11
1216.9337498636755
 21
456.71446549157503
  0
TEXT
  8
_0-5_寸法線
 62
    7
 10
1235.4092717370559
 20
454.7144654915752
 40
15
 41
1
 50
90
  1
2
  0
LINE
  8
_0-5_寸法線
  6
CONTINUOUS
 62
    7
 10
1216.9337498636755
 20
456.71446549157503
 11
1214.3455594126503
 21
466.37372375446569
  0
LINE
  8
_0-5_寸法線
  6
CONTINUOUS
 62
    7
 10
1216.9337498636755
 20
456.71446549157503
 11
1219.5219403147007
 21
466.37372375446569
  0
LINE
  8
_0-5_寸法線
  6
CONTINUOUS
 62
    7
 10
1176.9337498636755
 20
800.71446549157497
 11
1221.9337498636755
 21
800.71446549157497
  0
LINE
  8
_0-5_寸法線
  6
CONTINUOUS
 62
    7
 10
1216.9337498636755
 20
800.71446549157497
 11
1219.5219403147007
 21
791.05520722868437
  0
LINE
  8
_0-5_寸法線
  6
CONTINUOUS
 62
    7
 10
1216.9337498636755
 20
800.71446549157497
 11
1214.3455594126503
 21
791.05520722868437
  0
LINE
  8
_0-5_寸法線
  6
CONTINUOUS
 62
    7
 10
1216.9337498636755
 20
456.71446549157503
 11
1216.9337498636755
 21
800.71446549157497
  0
TEXT
  8
_0-5_寸法線
 62
    7
 10
1216.9337498636755
 20
617.46446549157474
 40
15
 41
1
 50
90
  1
344
  0
LINE
  8
_0-5_寸法線
  6
CONTINUOUS
 62
    7
 10
1176.9337498636755
 20
802.71446549157508
 11
1221.9337498636755
 21
802.71446549157508
  0
CIRCLE
  8
_0-5_寸法線
  6
CONTINUOUS
 62
    1
 10
1216.9337498636755
 20
802.71446549157508
 40
1.5000000000000002
  0
LINE
  8
_0-5_寸法線
  6
CONTINUOUS
 62
    7
 10
1216.9337498636755
 20
800.71446549157497
 11
1216.9337498636755
 21
802.71446549157508
  0
TEXT
  8
_0-5_寸法線
 62
    7
 10
1236.9337498636755
 20
795.21446549157508
 40
15
 41
1
 50
90
  1
2
  0
LINE
  8
_0-5_寸法線
  6
CONTINUOUS
 62
    7
 10
1176.9337498636755
 20
805.71446549157372
 11
1221.9337498636755
 21
805.71446549157372
  0
LINE
  8
_0-5_寸法線
  6
CONTINUOUS
 62
    7
 10
1216.9337498636755
 20
805.71446549157372
 11
1214.3455594126503
 21
815.37372375446444
  0
LINE
  8
_0-5_寸法線
  6
CONTINUOUS
 62
    7
 10
1216.9337498636755
 20
805.71446549157372
 11
1219.5219403147007
 21
815.37372375446444
  0
LINE
  8
_0-5_寸法線
  6
CONTINUOUS
 62
    7
 10
1216.9337498636755
 20
802.71446549157508
 11
1216.9337498636755
 21
830.71446549157372
  0
TEXT
  8
_0-5_寸法線
 62
    7
 10
1216.9337498636755
 20
820.52524184906258
 40
15
 41
1
 50
90
  1
3
  0
LINE
  8
_0-d_寸法3
  6
CONTINUOUS
 62
    7
 10
175.43065977017207
 20
348.25855223576434
 11
165.77140150728141
 21
345.67036178473921
  0
LINE
  8
_0-d_寸法3
  6
CONTINUOUS
 62
    7
 10
175.43065977017207
 20
348.25855223576434
 11
165.77140150728141
 21
350.84674268678958
  0
LINE
  8
_0-d_寸法3
  6
CONTINUOUS
 62
    7
 10
180.43065977017207
 20
277.42522057077554
 11
180.43065977017207
 21
353.25855223576434
  0
CIRCLE
  8
_0-d_寸法3
  6
CONTINUOUS
 62
    1
 10
180.43065977017207
 20
348.25855223576434
 40
1.5000000000000002
  0
LINE
  8
_0-d_寸法3
  6
CONTINUOUS
 62
    7
 10
150.43065977017207
 20
348.25855223576434
 11
180.43065977017207
 21
348.25855223576434
  0
TEXT
  8
_0-d_寸法3
 62
    7
 10
154.28599182624885
 20
348.25855223576434
 40
15
 41
1
 50
0
  1
3
  0
LINE
  8
_0-d_寸法3
  6
CONTINUOUS
 62
    7
 10
183.76399310350507
 20
278.25855390410891
 11
183.76399310350521
 21
353.25855223576434
  0
LINE
  8
_0-d_寸法3
  6
CONTINUOUS
 62
    7
 10
180.43065977017207
 20
348.25855223576434
 11
183.76399310350521
 21
348.25855223576434
  0
TEXT
  8
_0-d_寸法3
 62
    7
 10
178.34732643683856
 20
348.25855223576434
 40
15
 41
1
 50
0
  1
2
  0
LINE
  8
_0-d_寸法3
  6
CONTINUOUS
 62
    7
 10
183.76399310350521
 20
348.25855223576434
 11
193.42325136639587
 21
350.84674268678953
  0
LINE
  8
_0-d_寸法3
  6
CONTINUOUS
 62
    7
 10
183.76399310350521
 20
348.25855223576434
 11
193.42325136639587
 21
345.67036178473921
  0
LINE
  8
_0-d_寸法3
  6
CONTINUOUS
 62
    7
 10
757.0973264368331
 20
278.25855390410891
 11
757.09732643683321
 21
353.25855223576434
  0
LINE
  8
_0-d_寸法3
  6
CONTINUOUS
 62
    7
 10
757.09732643683321
 20
348.25855223576434
 11
747.43806817394261
 21
345.67036178473921
  0
LINE
  8
_0-d_寸法3
  6
CONTINUOUS
 62
    7
 10
757.09732643683321
 20
348.25855223576434
 11
747.43806817394261
 21
350.84674268678958
  0
LINE
  8
_0-d_寸法3
  6
CONTINUOUS
 62
    7
 10
183.76399310350521
 20
348.25855223576434
 11
757.09732643683321
 21
348.25855223576434
  0
TEXT
  8
_0-d_寸法3
 62
    7
 10
459.18065977017204
 20
348.25855223576434
 40
15
 41
1
 50
0
  1
344
  0
LINE
  8
_0-d_寸法3
  6
CONTINUOUS
 62
    7
 10
760.43065977017159
 20
277.42522057077554
 11
760.43065977017204
 21
353.25855223576434
  0
CIRCLE
  8
_0-d_寸法3
  6
CONTINUOUS
 62
    1
 10
760.43065977017204
 20
348.25855223576434
 40
1.5000000000000002
  0
LINE
  8
_0-d_寸法3
  6
CONTINUOUS
 62
    7
 10
757.09732643683321
 20
348.25855223576434
 11
760.43065977017204
 21
348.25855223576434
  0
TEXT
  8
_0-d_寸法3
 62
    7
 10
755.01399310350507
 20
348.25855223576434
 40
15
 41
1
 50
0
  1
2
  0
LINE
  8
_0-d_寸法3
  6
CONTINUOUS
 62
    7
 10
765.43065977017204
 20
348.25855223576434
 11
775.08991803306287
 21
350.84674268678947
  0
LINE
  8
_0-d_寸法3
  6
CONTINUOUS
 62
    7
 10
765.43065977017204
 20
348.25855223576434
 11
775.08991803306287
 21
345.67036178473916
  0
LINE
  8
_0-d_寸法3
  6
CONTINUOUS
 62
    7
 10
760.43065977017204
 20
348.25855223576434
 11
790.43065977017204
 21
348.25855223576434
  0
TEXT
  8
_0-d_寸法3
 62
    7
 10
781.95265849291275
 20
348.25855223576434
 40
15
 41
1
 50
0
  1
3
  0
ENDSEC
  0
EOF
