  0
SECTION
  2
HEADER
  9
$ACADVER
  1
AC1009
  9
$INSBASE
 10
0
 20
0
 30
0
  9
$EXTMIN
 10
0
 20
0
  9
$EXTMAX
 10
1485
 20
1050
  9
$LIMMIN
 10
0
 20
0
  9
$LIMMAX
 10
1485
 20
1050
  9
$LTSCALE
 40
5
  0
ENDSEC
  0
SECTION
  2
TABLES
  0
TABLE
  2
LTYPE
 70
     9
  0
LTYPE
  2
CONTINUOUS
 70
    64
  3
実線
 72
    65
 73
     0
 40
0.0
  0
LTYPE
  2
DASHED1
 70
    64
  3
--  --  --  --  --  --  --  --  
 72
    65
 73
     2
 40
2.5
 49
1.25
 49
-1.25
  0
LTYPE
  2
DASHED2
 70
    64
  3
----    ----    ----    ----    
 72
    65
 73
     2
 40
5.0
 49
2.5
 49
-2.5
  0
LTYPE
  2
DASHED3
 70
    64
  3
------  ------  ------  ------  
 72
    65
 73
     2
 40
5.0
 49
3.75
 49
-1.25
  0
LTYPE
  2
CENTER1
 70
    64
  3
----- - ----- - ----- - ----- - 
 72
    65
 73
     4
 40
10.0
 49
6.25
 49
-1.25
 49
1.25
 49
-1.25
  0
LTYPE
  2
CENTER2
 70
    64
  3
----------  --  ----------  --  
 72
    65
 73
     4
 40
20.0
 49
12.5
 49
-2.5
 49
2.5
 49
-2.5
  0
LTYPE
  2
PHANTOM1
 70
    64
  3
--- - - --- - - --- - - --- - - 
 72
    65
 73
     6
 40
10.0
 49
3.25
 49
-1.25
 49
1.25
 49
-1.25
 49
1.25
 49
-1.25
  0
LTYPE
  2
PHANTOM2
 70
    64
  3
--------  -  -  --------  -  -  
 72
    65
 73
     6
 40
20.0
 49
10.0
 49
-2.5
 49
1.25
 49
-2.5
 49
1.25
 49
-2.5
  0
LTYPE
  2
DOT
 70
    64
  3
-   -   -   -   -   -   -   -   
 72
    65
 73
     2
 40
2.5
 49
0.625
 49
-1.875
  0
LTYPE
  2
DUMMY
 70
    64
  3
ダミー
 72
    65
 73
     0
 40
0.0
  0
LTYPE
  2
RAND1
 70
    64
  3
ランダム線1
 72
    65
 73
     4
 40
10.0
 49
1.0
 49
-2.0
 49
3.0
 49
-4.0
  0
LTYPE
  2
RAND2
 70
    64
  3
ランダム線2
 72
    65
 73
     4
 40
14.0
 49
2.0
 49
-3.0
 49
4.0
 49
-5.0
  0
LTYPE
  2
RAND3
 70
    64
  3
ランダム線3
 72
    65
 73
     4
 40
18.0
 49
3.0
 49
-4.0
 49
5.0
 49
-6.0
  0
LTYPE
  2
RAND4
 70
    64
  3
ランダム線4
 72
    65
 73
     4
 40
22.0
 49
4.0
 49
-5.0
 49
6.0
 49
-7.0
  0
LTYPE
  2
RAND5
 70
    64
  3
ランダム線5
 72
    65
 73
     4
 40
26.0
 49
5.0
 49
-6.0
 49
7.0
 49
-8.0
  0
LTYPE
  2
LONG1
 70
    64
  3
----------  --  ----------  --  
 72
    65
 73
     4
 40
40.0
 49
32.5
 49
-2.5
 49
2.5
 49
-2.5
  0
LTYPE
  2
LONG2
 70
    64
  3
--------  -  -  --------  -  -  
 72
    65
 73
     6
 40
40.0
 49
30.0
 49
-2.5
 49
1.25
 49
-2.5
 49
1.25
 49
-2.5
  0
LTYPE
  2
LONG3
 70
    64
  3
+++++++++++++++..+++++++++++++++
 72
    65
 73
     2
 40
40.0
 49
37.5
 49
-2.5
  0
LTYPE
  2
LONG4
 70
    64
  3
+++++++++++++++..+++++++++++++++
 72
    65
 73
     2
 40
80.0
 49
75.0
 49
-5.0
  0
LTYPE
  2
LONG5
 70
    64
  3
----------  --  ----------  --  
 72
    65
 73
     4
 40
60.0
 49
37.5
 49
-7.5
 49
7.5
 49
-7.5
  0
LTYPE
  2
dashed
 70
   64
  3
-------   -------------   ------
 72
   65
 73
    2
 40
7.5
 49
6
 49
-1.5
  0
LTYPE
  2
dashed_spaced
 70
   64
  3
----        --------        ----
 72
   65
 73
    2
 40
12
 49
6
 49
-6
  0
LTYPE
  2
long_dashed_dotted
 70
   64
  3
------------- --- --------------
 72
   65
 73
    4
 40
15.25
 49
12
 49
-1.5
 49
0.25
 49
-1.5
  0
LTYPE
  2
long_dashed_double-dotted
 70
   64
  3
----------- --- --- ------------
 72
   65
 73
    6
 40
17
 49
12
 49
-1.5
 49
0.25
 49
-1.5
 49
0.25
 49
-1.5
  0
LTYPE
  2
long_dashed_triplicate-dotted
 70
   64
  3
--------- --- --- --- ----------
 72
   65
 73
    8
 40
18.75
 49
12
 49
-1.5
 49
0.25
 49
-1.5
 49
0.25
 49
-1.5
 49
0.25
 49
-1.5
  0
LTYPE
  2
dotted
 70
   64
  3
   -       -       -       -    
 72
   65
 73
    2
 40
1.75
 49
0.25
 49
-1.5
  0
LTYPE
  2
chain
 70
   64
  3
-------------- -- --------------
 72
   65
 73
    4
 40
18.5
 49
12
 49
-1.5
 49
3.5
 49
-1.5
  0
LTYPE
  2
chain_double_dash
 70
   64
  3
------------ -- -- -------------
 72
   65
 73
    6
 40
23.5
 49
12
 49
-1.5
 49
3.5
 49
-1.5
 49
3.5
 49
-1.5
  0
LTYPE
  2
dashed_dotted
 70
   64
  3
-----------     -     ----------
 72
   65
 73
    4
 40
9.25
 49
6
 49
-1.5
 49
0.25
 49
-1.5
  0
LTYPE
  2
double-dashed_dotted
 70
   64
  3
------   -----------   -   -----
 72
   65
 73
    6
 40
16.75
 49
6
 49
-1.5
 49
6
 49
-1.5
 49
0.25
 49
-1.5
  0
LTYPE
  2
dashed_double-dotted
 70
   64
  3
---------    -    -    ---------
 72
   65
 73
    6
 40
11
 49
6
 49
-1.5
 49
0.25
 49
-1.5
 49
0.25
 49
-1.5
  0
LTYPE
  2
double-dashed_double-dotted
 70
   64
  3
-----   ---------   -   -   ----
 72
   65
 73
    8
 40
18.5
 49
6
 49
-1.5
 49
6
 49
-1.5
 49
0.25
 49
-1.5
 49
0.25
 49
-1.5
  0
LTYPE
  2
dashed_triplicate-dotted
 70
   64
  3
-------    -    -    -    ------
 72
   65
 73
    8
 40
12.75
 49
6
 49
-1.5
 49
0.25
 49
-1.5
 49
0.25
 49
-1.5
 49
0.25
 49
-1.5
  0
LTYPE
  2
double-dashed_triplicate-dotted
 70
   64
  3
-----  ---------  -  -  -  -----
 72
   65
 73
   10
 40
20.25
 49
6
 49
-1.5
 49
6
 49
-1.5
 49
0.25
 49
-1.5
 49
0.25
 49
-1.5
 49
0.25
 49
-1.5
  0
LTYPE
  2
undefined
 70
   64
  3
--------------------------------
 72
   65
 73
    0
 40
0
  0
ENDTAB
  0
TABLE
  2
STYLE
  5
3
100
AcDbSymbolTable
 70
     1
  0
STYLE
  5
10
100
AcDbSymbolTableRecord
100
AcDbTextStyleTableRecord
  2
STANDARD
 70
     0
 40
0.0
 41
1.0
 50
0.0
 71
     0
 42
0.2
  3
txt
  4
bigfont.shx
  0
STYLE
  5
26
100
AcDbSymbolTableRecord
100
AcDbTextStyleTableRecord
  2
TATEGAKI
 70
    68
 40
0.0
 41
1.0
 50
0.0
 71
     0
 42
1.0
  3
txt
  4
bigfont.shx
  0
ENDTAB
  0
TABLE
  2
LAYER
 70
   10
  0
LAYER
  2
_0-0_計極細
 70
   64
 62
    7
  6
CONTINUOUS
  0
LAYER
  2
_0-1_計細線
 70
   64
 62
    7
  6
CONTINUOUS
  0
LAYER
  2
_0-5_寸法線
 70
   64
 62
    7
  6
CONTINUOUS
  0
LAYER
  2
_0-7_枠細線
 70
   64
 62
    7
  6
CONTINUOUS
  0
LAYER
  2
_0-8_枠中線
 70
   64
 62
    7
  6
CONTINUOUS
  0
LAYER
  2
_0-9_枠極太
 70
   64
 62
    7
  6
CONTINUOUS
  0
LAYER
  2
_0-a_極細3
 70
   64
 62
    7
  6
CONTINUOUS
  0
LAYER
  2
_0-b_細線3
 70
   64
 62
    7
  6
CONTINUOUS
  0
LAYER
  2
_0-d_寸法3
 70
   64
 62
    7
  6
CONTINUOUS
  0
LAYER
  2
ADD_LINE
 70
   64
 62
    7
  6
CONTINUOUS
  0
ENDTAB
  0
ENDSEC
  0
SECTION
  2
BLOCKS
  0
ENDSEC
  0
SECTION
  2
ENTITIES
  0
LINE
  8
_0-7_枠細線
  6
CONTINUOUS
 62
    5
 10
1425
 20
942.5
 11
890
 21
942.5
  0
TEXT
  8
_0-7_枠細線
 62
    5
 10
895
 20
945
 40
12.5
 41
1
 50
0
  1
記号
  0
TEXT
  8
_0-7_枠細線
 62
    5
 10
996.875
 20
945
 40
12.5
 41
1
 50
0
  1
訂　 正　 記　 事
  0
TEXT
  8
_0-7_枠細線
 62
    5
 10
1181.25
 20
945
 40
12.5
 41
1
 50
0
  1
訂 正 年 月 日
  0
TEXT
  8
_0-7_枠細線
 62
    5
 10
1306.25
 20
945
 40
12.5
 41
1
 50
0
  1
備　　　　　考
  0
LINE
  8
_0-7_枠細線
  6
CONTINUOUS
 62
    5
 10
1185
 20
180
 11
1185
 21
100
  0
TEXT
  8
_0-7_枠細線
 62
    5
 10
937.5
 20
97.5
 40
17.5
 41
1
 50
0
  1
備考
  7
TATEGAKI
  0
TEXT
  8
_0-7_枠細線
 62
    5
 10
937.5
 20
137.5
 40
17.5
 41
1
 50
0
  1
品番
  7
TATEGAKI
  0
TEXT
  8
_0-7_枠細線
 62
    5
 10
937.5
 20
177.5
 40
17.5
 41
1
 50
0
  1
品名
  7
TATEGAKI
  0
LINE
  8
_0-7_枠細線
  6
CONTINUOUS
 62
    5
 10
1185
 20
140
 11
925
 21
140
  0
LINE
  8
_0-7_枠細線
  6
CONTINUOUS
 62
    5
 10
950
 20
180
 11
950
 21
60
  0
LINE
  8
_0-8_枠中線
  6
CONTINUOUS
 62
    5
 10
1425
 20
180
 11
925
 21
180
  0
LINE
  8
_0-8_枠中線
  6
CONTINUOUS
 62
    5
 10
925
 20
180
 11
925
 21
60
  0
LINE
  8
_0-7_枠細線
  6
CONTINUOUS
 62
    5
 10
1245
 20
180
 11
1245
 21
60
  0
TEXT
  8
_0-7_枠細線
 62
    5
 10
1192.5
 20
160
 40
15
 41
1
 50
0
  1
縮　尺
  0
LINE
  8
_0-7_枠細線
  6
CONTINUOUS
 62
    5
 10
1185
 20
155
 11
1245
 21
155
  0
LINE
  8
_0-7_枠細線
  6
CONTINUOUS
 62
    5
 10
1245
 20
100
 11
925
 21
100
  0
LINE
  8
_0-7_枠細線
  6
CONTINUOUS
 62
    5
 10
1425
 20
90
 11
1245
 21
90
  0
LINE
  8
_0-7_枠細線
  6
CONTINUOUS
 62
    5
 10
1245
 20
120
 11
1425
 21
120
  0
LINE
  8
_0-7_枠細線
  6
CONTINUOUS
 62
    5
 10
1425
 20
140
 11
1245
 21
140
  0
TEXT
  8
_0-7_枠細線
 62
    5
 10
1255
 20
147.5
 40
25
 41
0.8
 50
0
  1
株式会社シマブン
  0
TEXT
  8
_0-7_枠細線
 62
    5
 10
1252.5
 20
60
 40
15
 41
1
 50
0
  1
年月日
  0
TEXT
  8
_0-7_枠細線
 62
    5
 10
1252.5
 20
75
 40
15
 41
1
 50
0
  1
作　成
  0
TEXT
  8
_0-7_枠細線
 62
    5
 10
1256.25
 20
122.5
 40
15
 41
1
 50
0
  1
承 認
  0
LINE
  8
_0-7_枠細線
  6
CONTINUOUS
 62
    5
 10
1305
 20
140
 11
1305
 21
60
  0
TEXT
  8
_0-7_枠細線
 62
    5
 10
1316.25
 20
122.5
 40
15
 41
1
 50
0
  1
検 図
  0
LINE
  8
_0-7_枠細線
  6
CONTINUOUS
 62
    5
 10
1365
 20
140
 11
1365
 21
90
  0
TEXT
  8
_0-7_枠細線
 62
    5
 10
1375
 20
95
 40
20
 41
1
 50
0
  1
藤戸
  0
TEXT
  8
_0-7_枠細線
 62
    5
 10
1376.25
 20
122.5
 40
15
 41
1
 50
0
  1
設 計
  0
TEXT
  8
_0-7_枠細線
 62
    5
 10
1255
 20
95
 40
20
 41
1
 50
0
  1
隠塚
  0
TEXT
  8
_0-7_枠細線
 62
    5
 10
1315
 20
95
 40
20
 41
1
 50
0
  1
渋田
  0
TEXT
  8
_0-7_枠細線
 62
    5
 10
1193.9999999999998
 20
117.5
 40
20
 41
0.7000000000000001
 50
0
  1
１：５
  0
LINE
  8
_0-5_寸法線
  6
CONTINUOUS
 62
    7
 10
640.15757972193001
 20
541.22639485122977
 11
647.22864753379554
 21
548.29746266309519
  0
LINE
  8
_0-5_寸法線
  6
CONTINUOUS
 62
    7
 10
640.15757972193001
 20
541.22639485122977
 11
649.81683798482084
 21
543.81458530225495
  0
LINE
  8
_0-5_寸法線
  6
CONTINUOUS
 62
    7
 10
640.15757972193001
 20
541.22639485122977
 11
681.5575797219301
 21
565.12869599568035
  0
LINE
  8
_0-5_寸法線
  6
CONTINUOUS
 62
    7
 10
681.5575797219301
 20
565.12869599568035
 11
789.5575797219301
 21
565.12869599568035
  0
TEXT
  8
_0-5_寸法線
 62
    7
 10
681.5575797219301
 20
565.12869599568035
 40
15
 41
0.8000000000000001
 50
0
  1
ＳＵＳアングル受枠
  0
LINE
  8
_0-5_寸法線
  6
CONTINUOUS
 62
    7
 10
616.62221621026993
 20
656.77997509814281
 11
623.69328402213546
 21
663.85104291000812
  0
LINE
  8
_0-5_寸法線
  6
CONTINUOUS
 62
    7
 10
616.62221621026993
 20
656.77997509814281
 11
626.28147447316064
 21
659.36816554916788
  0
LINE
  8
_0-5_寸法線
  6
CONTINUOUS
 62
    7
 10
616.62221621026993
 20
656.77997509814281
 11
681.5575797219301
 21
694.27042470152583
  0
LINE
  8
_0-5_寸法線
  6
CONTINUOUS
 62
    7
 10
681.5575797219301
 20
694.27042470152583
 11
813.55757972193021
 21
694.27042470152583
  0
TEXT
  8
_0-5_寸法線
 62
    7
 10
681.5575797219301
 20
694.27042470152583
 40
15
 41
0.8000000000000001
 50
0
  1
ステンレスグレーチング
  0
LINE
  8
_0-5_寸法線
  6
CONTINUOUS
 62
    7
 10
231.91999999999652
 20
798.49999999999886
 11
231.91999999999666
 21
913.49999999999886
  0
LINE
  8
_0-5_寸法線
  6
CONTINUOUS
 62
    7
 10
231.91999999999666
 20
908.49999999999886
 11
241.57925826288732
 21
911.08819045102393
  0
LINE
  8
_0-5_寸法線
  6
CONTINUOUS
 62
    7
 10
231.91999999999666
 20
908.49999999999886
 11
241.57925826288732
 21
905.91180954897368
  0
LINE
  8
_0-5_寸法線
  6
CONTINUOUS
 62
    7
 10
641.91999999999564
 20
798.49999999999886
 11
641.91999999999598
 21
913.49999999999886
  0
LINE
  8
_0-5_寸法線
  6
CONTINUOUS
 62
    7
 10
641.91999999999598
 20
908.49999999999886
 11
632.26074173710515
 21
905.91180954897368
  0
LINE
  8
_0-5_寸法線
  6
CONTINUOUS
 62
    7
 10
641.91999999999598
 20
908.49999999999886
 11
632.26074173710515
 21
911.08819045102393
  0
LINE
  8
_0-5_寸法線
  6
CONTINUOUS
 62
    7
 10
231.91999999999666
 20
908.49999999999886
 11
641.91999999999598
 21
908.49999999999886
  0
TEXT
  8
_0-5_寸法線
 62
    7
 10
429.41999999999621
 20
908.49999999999886
 40
15
 41
1
 50
0
  1
Ｗ
  0
LINE
  8
_0-5_寸法線
  6
CONTINUOUS
 62
    7
 10
236.91999999999965
 20
798.49999999999886
 11
236.91999999999979
 21
843.49999999999886
  0
LINE
  8
_0-5_寸法線
  6
CONTINUOUS
 62
    7
 10
236.91999999999979
 20
838.49999999999886
 11
246.57925826289045
 21
841.08819045102393
  0
LINE
  8
_0-5_寸法線
  6
CONTINUOUS
 62
    7
 10
236.91999999999979
 20
838.49999999999886
 11
246.57925826289045
 21
835.91180954897368
  0
LINE
  8
_0-5_寸法線
  6
CONTINUOUS
 62
    7
 10
636.9199999999995
 20
798.49999999999886
 11
636.91999999999962
 21
843.49999999999886
  0
LINE
  8
_0-5_寸法線
  6
CONTINUOUS
 62
    7
 10
636.91999999999962
 20
838.49999999999886
 11
627.2607417371089
 21
835.91180954897368
  0
LINE
  8
_0-5_寸法線
  6
CONTINUOUS
 62
    7
 10
636.91999999999962
 20
838.49999999999886
 11
627.2607417371089
 21
841.08819045102393
  0
LINE
  8
_0-5_寸法線
  6
CONTINUOUS
 62
    7
 10
236.91999999999979
 20
838.49999999999886
 11
636.91999999999962
 21
838.49999999999886
  0
TEXT
  8
_0-5_寸法線
 62
    7
 10
429.41999999999962
 20
838.49999999999886
 40
15
 41
1
 50
0
  1
Ｌ
  0
LINE
  8
_0-5_寸法線
  6
CONTINUOUS
 62
    7
 10
221.91999999999643
 20
378.49999999999932
 11
106.91999999999645
 21
378.4999999999996
  0
LINE
  8
_0-5_寸法線
  6
CONTINUOUS
 62
    7
 10
111.91999999999645
 20
378.4999999999996
 11
109.33180954897125
 21
388.15925826289032
  0
LINE
  8
_0-5_寸法線
  6
CONTINUOUS
 62
    7
 10
111.91999999999645
 20
378.4999999999996
 11
114.50819045102165
 21
388.15925826289032
  0
LINE
  8
_0-5_寸法線
  6
CONTINUOUS
 62
    7
 10
221.91999999999643
 20
788.49999999999886
 11
106.91999999999645
 21
788.49999999999909
  0
LINE
  8
_0-5_寸法線
  6
CONTINUOUS
 62
    7
 10
111.91999999999645
 20
788.49999999999909
 11
114.50819045102165
 21
778.84074173710837
  0
LINE
  8
_0-5_寸法線
  6
CONTINUOUS
 62
    7
 10
111.91999999999645
 20
788.49999999999909
 11
109.33180954897125
 21
778.84074173710837
  0
LINE
  8
_0-5_寸法線
  6
CONTINUOUS
 62
    7
 10
111.91999999999645
 20
378.4999999999996
 11
111.91999999999645
 21
788.49999999999909
  0
TEXT
  8
_0-5_寸法線
 62
    7
 10
111.91999999999645
 20
575.99999999999932
 40
15
 41
1
 50
90
  1
Ｗ
  0
LINE
  8
_0-5_寸法線
  6
CONTINUOUS
 62
    7
 10
221.91999999999643
 20
383.49999999999972
 11
176.91999999999643
 21
383.49999999999989
  0
LINE
  8
_0-5_寸法線
  6
CONTINUOUS
 62
    7
 10
181.91999999999643
 20
383.49999999999989
 11
179.33180954897125
 21
393.15925826289055
  0
LINE
  8
_0-5_寸法線
  6
CONTINUOUS
 62
    7
 10
181.91999999999643
 20
383.49999999999989
 11
184.50819045102165
 21
393.15925826289055
  0
LINE
  8
_0-5_寸法線
  6
CONTINUOUS
 62
    7
 10
221.91999999999643
 20
783.49999999999886
 11
176.91999999999643
 21
783.49999999999898
  0
LINE
  8
_0-5_寸法線
  6
CONTINUOUS
 62
    7
 10
181.91999999999643
 20
783.49999999999898
 11
184.50819045102165
 21
773.84074173710815
  0
LINE
  8
_0-5_寸法線
  6
CONTINUOUS
 62
    7
 10
181.91999999999643
 20
783.49999999999898
 11
179.33180954897125
 21
773.84074173710815
  0
LINE
  8
_0-5_寸法線
  6
CONTINUOUS
 62
    7
 10
181.91999999999643
 20
383.49999999999989
 11
181.91999999999643
 21
783.49999999999898
  0
TEXT
  8
_0-5_寸法線
 62
    7
 10
181.91999999999643
 20
575.99999999999932
 40
15
 41
1
 50
90
  1
Ａ
  0
TEXT
  8
_0-7_枠細線
 62
    5
 10
960.5
 20
158.74999999999994
 40
20.000000000000007
 41
0.5249999999999998
 50
0
  1
Ｔバー ステンレスグレーチングＨ２０タイプ
  0
TEXT
  8
_0-7_枠細線
 62
    5
 10
1005.9999999999991
 20
422.76107767489867
 40
15
 41
0.8000000000000001
 50
0
  1
品　　番
  0
TEXT
  8
_0-7_枠細線
 62
    5
 10
943.99999999999966
 20
422.76107767489867
 40
15
 41
0.8000000000000001
 50
0
  1
Ｂ
  0
TEXT
  8
_0-7_枠細線
 62
    5
 10
931.9601466049329
 20
447.76107767489867
 40
17.5
 41
1
 50
0
  1
品番寸法表
  0
TEXT
  8
_0-7_枠細線
 62
    5
 10
1153.9999999999982
 20
422.76107767489867
 40
15
 41
0.8000000000000001
 50
0
  1
Ｌ
  0
TEXT
  8
_0-7_枠細線
 62
    5
 10
1103.9999999999989
 20
422.76107767489867
 40
15
 41
0.8000000000000001
 50
0
  1
Ａ
  0
TEXT
  8
_0-7_枠細線
 62
    5
 10
938.74999999999977
 20
372.76107767489907
 40
15
 41
1
 50
0
  1
300
  0
TEXT
  8
_0-7_枠細線
 62
    5
 10
938.74999999999977
 20
347.7610776748989
 40
15
 41
1
 50
0
  1
350
  0
TEXT
  8
_0-7_枠細線
 62
    5
 10
938.74999999999977
 20
322.76107767489884
 40
15
 41
1
 50
0
  1
400
  0
TEXT
  8
_0-7_枠細線
 62
    5
 10
1098.7499999999991
 20
397.7610776748989
 40
15
 41
1
 50
0
  1
300
  0
TEXT
  8
_0-7_枠細線
 62
    5
 10
1098.7499999999991
 20
372.76107767489907
 40
15
 41
1
 50
0
  1
350
  0
TEXT
  8
_0-7_枠細線
 62
    5
 10
1098.7499999999991
 20
347.7610776748989
 40
15
 41
1
 50
0
  1
400
  0
TEXT
  8
_0-7_枠細線
 62
    5
 10
1098.7499999999991
 20
322.76107767489884
 40
15
 41
1
 50
0
  1
450
  0
TEXT
  8
_0-7_枠細線
 62
    5
 10
1148.7499999999982
 20
397.7610776748989
 40
15
 41
1
 50
0
  1
300
  0
TEXT
  8
_0-7_枠細線
 62
    5
 10
1148.7499999999982
 20
372.76107767489907
 40
15
 41
1
 50
0
  1
350
  0
TEXT
  8
_0-7_枠細線
 62
    5
 10
1148.7499999999982
 20
347.7610776748989
 40
15
 41
1
 50
0
  1
400
  0
TEXT
  8
_0-7_枠細線
 62
    5
 10
1148.7499999999982
 20
322.76107767489884
 40
15
 41
1
 50
0
  1
450
  0
TEXT
  8
_0-7_枠細線
 62
    5
 10
938.74999999999977
 20
397.7610776748989
 40
15
 41
1
 50
0
  1
250
  0
TEXT
  8
_0-7_枠細線
 62
    5
 10
938.74999999999977
 20
297.7610776748989
 40
15
 41
1
 50
0
  1
450
  0
TEXT
  8
_0-7_枠細線
 62
    5
 10
1098.7499999999991
 20
297.7610776748989
 40
15
 41
1
 50
0
  1
500
  0
TEXT
  8
_0-7_枠細線
 62
    5
 10
1148.7499999999982
 20
297.7610776748989
 40
15
 41
1
 50
0
  1
500
  0
TEXT
  8
_0-7_枠細線
 62
    5
 10
1302.999999999995
 20
417.76107767489867
 40
12.5
 41
0.9600000000000001
 50
0
  1
重量
  0
TEXT
  8
_0-7_枠細線
 62
    5
 10
1253.9999999999964
 20
422.76107767489867
 40
15
 41
0.8000000000000001
 50
0
  1
Ｗ
  0
TEXT
  8
_0-7_枠細線
 62
    5
 10
1290.9999999999955
 20
430.26107767489867
 40
12.5
 41
0.9600000000000001
 50
0
  1
ｸﾞﾚｰﾁﾝｸﾞ
  0
TEXT
  8
_0-7_枠細線
 62
    5
 10
1248.7499999999964
 20
397.7610776748989
 40
15
 41
1
 50
0
  1
310
  0
TEXT
  8
_0-7_枠細線
 62
    5
 10
1248.7499999999964
 20
372.76107767489907
 40
15
 41
1
 50
0
  1
360
  0
TEXT
  8
_0-7_枠細線
 62
    5
 10
1248.7499999999964
 20
347.7610776748989
 40
15
 41
1
 50
0
  1
410
  0
TEXT
  8
_0-7_枠細線
 62
    5
 10
1248.7499999999964
 20
322.76107767489884
 40
15
 41
1
 50
0
  1
460
  0
TEXT
  8
_0-7_枠細線
 62
    5
 10
1248.7499999999964
 20
297.7610776748989
 40
15
 41
1
 50
0
  1
510
  0
LINE
  8
_0-7_枠細線
  6
CONTINUOUS
 62
    5
 10
925
 20
442.76107767489867
 11
1404.9999999999941
 21
442.76107767489867
  0
LINE
  8
_0-7_枠細線
  6
CONTINUOUS
 62
    5
 10
925
 20
417.76107767489867
 11
1404.9999999999941
 21
417.76107767489867
  0
TEXT
  8
_0-7_枠細線
 62
    5
 10
1203.999999999997
 20
422.76107767489867
 40
15
 41
0.8000000000000001
 50
0
  1
Ｐ
  0
TEXT
  8
_0-7_枠細線
 62
    5
 10
1352.6814814814761
 20
422.76107767489867
 40
15
 41
0.8000000000000001
 50
0
  1
適用荷重
  0
TEXT
  8
_0-7_枠細線
 62
    5
 10
1187.4999999999973
 20
397.7610776748989
 40
15
 41
1
 50
0
  1
125×2
  0
TEXT
  8
_0-7_枠細線
 62
    5
 10
1187.4999999999973
 20
372.76107767489907
 40
15
 41
1
 50
0
  1
150×2
  0
TEXT
  8
_0-7_枠細線
 62
    5
 10
1200.9999999999975
 20
317.32906121399361
 40
12.000000000000002
 41
1
 50
0
  1
150
  0
LINE
  8
_0-7_枠細線
  6
CONTINUOUS
 62
    5
 10
925
 20
317.76107767489867
 11
1344.9999999999952
 21
317.76107767489867
  0
LINE
  8
_0-7_枠細線
  6
CONTINUOUS
 62
    5
 10
925
 20
392.76107767489884
 11
1344.9999999999952
 21
392.76107767489884
  0
LINE
  8
_0-7_枠細線
  6
CONTINUOUS
 62
    5
 10
925
 20
367.7610776748989
 11
1344.9999999999952
 21
367.7610776748989
  0
LINE
  8
_0-7_枠細線
  6
CONTINUOUS
 62
    5
 10
925
 20
342.76107767489884
 11
1344.9999999999952
 21
342.76107767489884
  0
LINE
  8
_0-7_枠細線
  6
CONTINUOUS
 62
    5
 10
925
 20
242.76107767489879
 11
1404.9999999999941
 21
242.76107767489879
  0
LINE
  8
_0-7_枠細線
  6
CONTINUOUS
 62
    5
 10
925
 20
267.76107767489867
 11
1344.9999999999952
 21
267.76107767489867
  0
LINE
  8
_0-7_枠細線
  6
CONTINUOUS
 62
    5
 10
1404.9999999999941
 20
442.76107767489867
 11
1404.9999999999941
 21
242.76107767489879
  0
LINE
  8
_0-7_枠細線
  6
CONTINUOUS
 62
    5
 10
1234.9999999999968
 20
442.76107767489867
 11
1234.9999999999968
 21
242.76107767489879
  0
LINE
  8
_0-7_枠細線
  6
CONTINUOUS
 62
    5
 10
1284.9999999999959
 20
442.76107767489867
 11
1284.9999999999959
 21
242.76107767489879
  0
LINE
  8
_0-7_枠細線
  6
CONTINUOUS
 62
    5
 10
1344.9999999999952
 20
442.76107767489867
 11
1344.9999999999952
 21
242.76107767489879
  0
LINE
  8
_0-7_枠細線
  6
CONTINUOUS
 62
    5
 10
1184.9999999999977
 20
442.76107767489867
 11
1184.9999999999977
 21
242.76107767489879
  0
LINE
  8
_0-7_枠細線
  6
CONTINUOUS
 62
    5
 10
1134.9999999999986
 20
442.76107767489867
 11
1134.9999999999986
 21
242.76107767489879
  0
LINE
  8
_0-7_枠細線
  6
CONTINUOUS
 62
    5
 10
1084.9999999999995
 20
442.76107767489867
 11
1084.9999999999995
 21
242.76107767489879
  0
LINE
  8
_0-7_枠細線
  6
CONTINUOUS
 62
    5
 10
974.99999999999932
 20
442.76107767489867
 11
974.99999999999932
 21
242.76107767489879
  0
LINE
  8
_0-7_枠細線
  6
CONTINUOUS
 62
    5
 10
925
 20
442.76107767489867
 11
925
 21
242.76107767489879
  0
LINE
  8
_0-7_枠細線
  6
CONTINUOUS
 62
    5
 10
925
 20
292.76107767489879
 11
1344.9999999999952
 21
292.76107767489879
  0
TEXT
  8
_0-7_枠細線
 62
    5
 10
1352.877777777778
 20
335.77134752778107
 40
15
 41
1
 50
0
  1
歩道用
  0
TEXT
  8
_0-7_枠細線
 62
    5
 10
1340.8777777777775
 20
315.77134752778102
 40
15
 41
0.7666666666666667
 50
0
  1
（5.0kN/㎡）
  0
TEXT
  8
_0-7_枠細線
 62
    5
 10
938.74999999999977
 20
272.76107767489879
 40
15
 41
1
 50
0
  1
500
  0
TEXT
  8
_0-7_枠細線
 62
    5
 10
938.74999999999977
 20
247.7610776748989
 40
15
 41
1
 50
0
  1
550
  0
TEXT
  8
_0-7_枠細線
 62
    5
 10
1098.7499999999991
 20
247.7610776748989
 40
15
 41
1
 50
0
  1
600
  0
TEXT
  8
_0-7_枠細線
 62
    5
 10
1098.7499999999991
 20
272.76107767489879
 40
15
 41
1
 50
0
  1
550
  0
TEXT
  8
_0-7_枠細線
 62
    5
 10
1148.7499999999982
 20
272.76107767489879
 40
15
 41
1
 50
0
  1
550
  0
TEXT
  8
_0-7_枠細線
 62
    5
 10
1148.7499999999982
 20
247.7610776748989
 40
15
 41
1
 50
0
  1
600
  0
TEXT
  8
_0-7_枠細線
 62
    5
 10
1248.7499999999964
 20
272.76107767489879
 40
15
 41
1
 50
0
  1
560
  0
TEXT
  8
_0-7_枠細線
 62
    5
 10
1248.7499999999964
 20
247.7610776748989
 40
15
 41
1
 50
0
  1
610
  0
TEXT
  8
_0-7_枠細線
 62
    5
 10
1187.4999999999973
 20
297.7610776748989
 40
15
 41
1
 50
0
  1
150×3
  0
TEXT
  8
_0-7_枠細線
 62
    5
 10
1185.9999999999975
 20
254.96401320301968
 40
12.000000000000002
 41
1
 50
0
  1
端125×2
  0
TEXT
  8
_0-7_枠細線
 62
    5
 10
1187.4999999999973
 20
272.76107767489907
 40
15
 41
1
 50
0
  1
125×4
  0
TEXT
  8
_0-7_枠細線
 62
    5
 10
1191.9999999999977
 20
242.32906121399353
 40
12.000000000000002
 41
1
 50
0
  1
150×2
  0
LINE
  8
_0-1_計細線
  6
CONTINUOUS
 62
    3
 10
638.91999999999643
 20
785.49999999999898
 11
638.91999999999643
 21
381.49999999999864
  0
LINE
  8
_0-1_計細線
  6
CONTINUOUS
 62
    3
 10
234.91999999999649
 20
785.49999999999898
 11
638.91999999999643
 21
785.49999999999898
  0
LINE
  8
_0-1_計細線
  6
CONTINUOUS
 62
    3
 10
234.91999999999649
 20
381.49999999999864
 11
234.91999999999649
 21
785.49999999999898
  0
LINE
  8
_0-1_計細線
  6
CONTINUOUS
 62
    3
 10
638.91999999999643
 20
381.49999999999864
 11
234.91999999999649
 21
381.49999999999864
  0
LINE
  8
_0-1_計細線
  6
CONTINUOUS
 62
    3
 10
641.91999999999655
 20
788.49999999999898
 11
641.91999999999655
 21
378.49999999999864
  0
LINE
  8
_0-1_計細線
  6
CONTINUOUS
 62
    3
 10
231.91999999999643
 20
788.49999999999898
 11
641.91999999999655
 21
788.49999999999898
  0
LINE
  8
_0-1_計細線
  6
CONTINUOUS
 62
    3
 10
231.91999999999643
 20
378.49999999999864
 11
231.91999999999643
 21
788.49999999999898
  0
LINE
  8
_0-1_計細線
  6
CONTINUOUS
 62
    3
 10
641.91999999999655
 20
378.49999999999864
 11
231.91999999999643
 21
378.49999999999864
  0
LINE
  8
_0-1_計細線
  6
CONTINUOUS
 62
    3
 10
552.91999999999643
 20
580.99999999999864
 11
558.91999999999643
 21
580.99999999999864
  0
LINE
  8
_0-1_計細線
  6
CONTINUOUS
 62
    3
 10
552.91999999999643
 20
585.99999999999864
 11
558.91999999999643
 21
585.99999999999864
  0
LINE
  8
_0-1_計細線
  6
CONTINUOUS
 62
    3
 10
538.91999999999643
 20
580.99999999999864
 11
544.91999999999643
 21
580.99999999999864
  0
LINE
  8
_0-1_計細線
  6
CONTINUOUS
 62
    3
 10
538.91999999999643
 20
585.99999999999864
 11
544.91999999999643
 21
585.99999999999864
  0
LINE
  8
_0-1_計細線
  6
CONTINUOUS
 62
    3
 10
552.91999999999643
 20
410.99999999999864
 11
558.91999999999643
 21
410.99999999999864
  0
LINE
  8
_0-1_計細線
  6
CONTINUOUS
 62
    3
 10
552.91999999999643
 20
405.99999999999864
 11
558.91999999999643
 21
405.99999999999864
  0
LINE
  8
_0-1_計細線
  6
CONTINUOUS
 62
    3
 10
538.91999999999643
 20
410.99999999999864
 11
544.91999999999643
 21
410.99999999999864
  0
LINE
  8
_0-1_計細線
  6
CONTINUOUS
 62
    3
 10
538.91999999999643
 20
405.99999999999864
 11
544.91999999999643
 21
405.99999999999864
  0
LINE
  8
_0-1_計細線
  6
CONTINUOUS
 62
    3
 10
552.91999999999643
 20
755.99999999999898
 11
558.91999999999643
 21
755.99999999999898
  0
LINE
  8
_0-1_計細線
  6
CONTINUOUS
 62
    3
 10
552.91999999999643
 20
760.99999999999898
 11
558.91999999999643
 21
760.99999999999898
  0
LINE
  8
_0-1_計細線
  6
CONTINUOUS
 62
    3
 10
538.91999999999643
 20
755.99999999999898
 11
544.91999999999643
 21
755.99999999999898
  0
LINE
  8
_0-1_計細線
  6
CONTINUOUS
 62
    3
 10
538.91999999999643
 20
760.99999999999898
 11
544.91999999999643
 21
760.99999999999898
  0
LINE
  8
_0-1_計細線
  6
CONTINUOUS
 62
    3
 10
544.91999999999643
 20
386.49999999999864
 11
544.91999999999643
 21
780.49999999999898
  0
LINE
  8
_0-1_計細線
  6
CONTINUOUS
 62
    3
 10
552.91999999999643
 20
386.49999999999864
 11
544.91999999999643
 21
386.49999999999864
  0
LINE
  8
_0-1_計細線
  6
CONTINUOUS
 62
    3
 10
552.91999999999643
 20
780.49999999999898
 11
552.91999999999643
 21
386.49999999999864
  0
LINE
  8
_0-1_計細線
  6
CONTINUOUS
 62
    3
 10
544.91999999999643
 20
780.49999999999898
 11
552.91999999999643
 21
780.49999999999898
  0
LINE
  8
_0-1_計細線
  6
CONTINUOUS
 62
    3
 10
524.91999999999643
 20
580.99999999999864
 11
530.91999999999643
 21
580.99999999999864
  0
LINE
  8
_0-1_計細線
  6
CONTINUOUS
 62
    3
 10
524.91999999999643
 20
585.99999999999864
 11
530.91999999999643
 21
585.99999999999864
  0
LINE
  8
_0-1_計細線
  6
CONTINUOUS
 62
    3
 10
510.91999999999643
 20
580.99999999999864
 11
516.91999999999643
 21
580.99999999999864
  0
LINE
  8
_0-1_計細線
  6
CONTINUOUS
 62
    3
 10
510.91999999999643
 20
585.99999999999864
 11
516.91999999999643
 21
585.99999999999864
  0
LINE
  8
_0-1_計細線
  6
CONTINUOUS
 62
    3
 10
496.91999999999643
 20
580.99999999999864
 11
502.91999999999643
 21
580.99999999999864
  0
LINE
  8
_0-1_計細線
  6
CONTINUOUS
 62
    3
 10
496.91999999999643
 20
585.99999999999864
 11
502.91999999999643
 21
585.99999999999864
  0
LINE
  8
_0-1_計細線
  6
CONTINUOUS
 62
    3
 10
482.91999999999643
 20
580.99999999999864
 11
488.91999999999649
 21
580.99999999999864
  0
LINE
  8
_0-1_計細線
  6
CONTINUOUS
 62
    3
 10
482.91999999999643
 20
585.99999999999864
 11
488.91999999999649
 21
585.99999999999864
  0
LINE
  8
_0-1_計細線
  6
CONTINUOUS
 62
    3
 10
524.91999999999643
 20
410.99999999999864
 11
530.91999999999643
 21
410.99999999999864
  0
LINE
  8
_0-1_計細線
  6
CONTINUOUS
 62
    3
 10
524.91999999999643
 20
405.99999999999864
 11
530.91999999999643
 21
405.99999999999864
  0
LINE
  8
_0-1_計細線
  6
CONTINUOUS
 62
    3
 10
510.91999999999643
 20
410.99999999999864
 11
516.91999999999643
 21
410.99999999999864
  0
LINE
  8
_0-1_計細線
  6
CONTINUOUS
 62
    3
 10
510.91999999999643
 20
405.99999999999864
 11
516.91999999999643
 21
405.99999999999864
  0
LINE
  8
_0-1_計細線
  6
CONTINUOUS
 62
    3
 10
496.91999999999643
 20
410.99999999999864
 11
502.91999999999643
 21
410.99999999999864
  0
LINE
  8
_0-1_計細線
  6
CONTINUOUS
 62
    3
 10
496.91999999999643
 20
405.99999999999864
 11
502.91999999999643
 21
405.99999999999864
  0
LINE
  8
_0-1_計細線
  6
CONTINUOUS
 62
    3
 10
482.91999999999643
 20
410.99999999999864
 11
488.91999999999649
 21
410.99999999999864
  0
LINE
  8
_0-1_計細線
  6
CONTINUOUS
 62
    3
 10
482.91999999999643
 20
405.99999999999864
 11
488.91999999999649
 21
405.99999999999864
  0
LINE
  8
_0-1_計細線
  6
CONTINUOUS
 62
    3
 10
524.91999999999643
 20
755.99999999999898
 11
530.91999999999643
 21
755.99999999999898
  0
LINE
  8
_0-1_計細線
  6
CONTINUOUS
 62
    3
 10
524.91999999999643
 20
760.99999999999898
 11
530.91999999999643
 21
760.99999999999898
  0
LINE
  8
_0-1_計細線
  6
CONTINUOUS
 62
    3
 10
510.91999999999643
 20
755.99999999999898
 11
516.91999999999643
 21
755.99999999999898
  0
LINE
  8
_0-1_計細線
  6
CONTINUOUS
 62
    3
 10
510.91999999999643
 20
760.99999999999898
 11
516.91999999999643
 21
760.99999999999898
  0
LINE
  8
_0-1_計細線
  6
CONTINUOUS
 62
    3
 10
530.91999999999643
 20
386.49999999999864
 11
530.91999999999643
 21
780.49999999999898
  0
LINE
  8
_0-1_計細線
  6
CONTINUOUS
 62
    3
 10
538.91999999999643
 20
386.49999999999864
 11
530.91999999999643
 21
386.49999999999864
  0
LINE
  8
_0-1_計細線
  6
CONTINUOUS
 62
    3
 10
538.91999999999643
 20
780.49999999999898
 11
538.91999999999643
 21
386.49999999999864
  0
LINE
  8
_0-1_計細線
  6
CONTINUOUS
 62
    3
 10
530.91999999999643
 20
780.49999999999898
 11
538.91999999999643
 21
780.49999999999898
  0
LINE
  8
_0-1_計細線
  6
CONTINUOUS
 62
    3
 10
516.91999999999643
 20
386.49999999999864
 11
516.91999999999643
 21
780.49999999999898
  0
LINE
  8
_0-1_計細線
  6
CONTINUOUS
 62
    3
 10
524.91999999999643
 20
386.49999999999864
 11
516.91999999999643
 21
386.49999999999864
  0
LINE
  8
_0-1_計細線
  6
CONTINUOUS
 62
    3
 10
524.91999999999643
 20
780.49999999999898
 11
524.91999999999643
 21
386.49999999999864
  0
LINE
  8
_0-1_計細線
  6
CONTINUOUS
 62
    3
 10
516.91999999999643
 20
780.49999999999898
 11
524.91999999999643
 21
780.49999999999898
  0
LINE
  8
_0-1_計細線
  6
CONTINUOUS
 62
    3
 10
496.91999999999643
 20
755.99999999999898
 11
502.91999999999643
 21
755.99999999999898
  0
LINE
  8
_0-1_計細線
  6
CONTINUOUS
 62
    3
 10
496.91999999999643
 20
760.99999999999898
 11
502.91999999999643
 21
760.99999999999898
  0
LINE
  8
_0-1_計細線
  6
CONTINUOUS
 62
    3
 10
482.91999999999643
 20
755.99999999999898
 11
488.91999999999649
 21
755.99999999999898
  0
LINE
  8
_0-1_計細線
  6
CONTINUOUS
 62
    3
 10
482.91999999999643
 20
760.99999999999898
 11
488.91999999999649
 21
760.99999999999898
  0
LINE
  8
_0-1_計細線
  6
CONTINUOUS
 62
    3
 10
502.91999999999643
 20
386.49999999999864
 11
502.91999999999643
 21
780.49999999999898
  0
LINE
  8
_0-1_計細線
  6
CONTINUOUS
 62
    3
 10
510.91999999999643
 20
386.49999999999864
 11
502.91999999999643
 21
386.49999999999864
  0
LINE
  8
_0-1_計細線
  6
CONTINUOUS
 62
    3
 10
510.91999999999643
 20
780.49999999999898
 11
510.91999999999643
 21
386.49999999999864
  0
LINE
  8
_0-1_計細線
  6
CONTINUOUS
 62
    3
 10
502.91999999999643
 20
780.49999999999898
 11
510.91999999999643
 21
780.49999999999898
  0
LINE
  8
_0-1_計細線
  6
CONTINUOUS
 62
    3
 10
488.91999999999649
 20
386.49999999999864
 11
488.91999999999649
 21
780.49999999999898
  0
LINE
  8
_0-1_計細線
  6
CONTINUOUS
 62
    3
 10
496.91999999999643
 20
386.49999999999864
 11
488.91999999999649
 21
386.49999999999864
  0
LINE
  8
_0-1_計細線
  6
CONTINUOUS
 62
    3
 10
496.91999999999643
 20
780.49999999999898
 11
496.91999999999643
 21
386.49999999999864
  0
LINE
  8
_0-1_計細線
  6
CONTINUOUS
 62
    3
 10
488.91999999999649
 20
780.49999999999898
 11
496.91999999999643
 21
780.49999999999898
  0
LINE
  8
_0-1_計細線
  6
CONTINUOUS
 62
    3
 10
468.91999999999649
 20
580.99999999999864
 11
474.91999999999649
 21
580.99999999999864
  0
LINE
  8
_0-1_計細線
  6
CONTINUOUS
 62
    3
 10
468.91999999999649
 20
585.99999999999864
 11
474.91999999999649
 21
585.99999999999864
  0
LINE
  8
_0-1_計細線
  6
CONTINUOUS
 62
    3
 10
454.91999999999649
 20
580.99999999999864
 11
460.91999999999643
 21
580.99999999999864
  0
LINE
  8
_0-1_計細線
  6
CONTINUOUS
 62
    3
 10
454.91999999999649
 20
585.99999999999864
 11
460.91999999999643
 21
585.99999999999864
  0
LINE
  8
_0-1_計細線
  6
CONTINUOUS
 62
    3
 10
440.91999999999643
 20
580.99999999999864
 11
446.91999999999643
 21
580.99999999999864
  0
LINE
  8
_0-1_計細線
  6
CONTINUOUS
 62
    3
 10
440.91999999999643
 20
585.99999999999864
 11
446.91999999999643
 21
585.99999999999864
  0
LINE
  8
_0-1_計細線
  6
CONTINUOUS
 62
    3
 10
426.91999999999643
 20
580.99999999999864
 11
432.91999999999643
 21
580.99999999999864
  0
LINE
  8
_0-1_計細線
  6
CONTINUOUS
 62
    3
 10
426.91999999999643
 20
585.99999999999864
 11
432.91999999999643
 21
585.99999999999864
  0
LINE
  8
_0-1_計細線
  6
CONTINUOUS
 62
    3
 10
468.91999999999649
 20
410.99999999999864
 11
474.91999999999649
 21
410.99999999999864
  0
LINE
  8
_0-1_計細線
  6
CONTINUOUS
 62
    3
 10
468.91999999999649
 20
405.99999999999864
 11
474.91999999999649
 21
405.99999999999864
  0
LINE
  8
_0-1_計細線
  6
CONTINUOUS
 62
    3
 10
454.91999999999649
 20
410.99999999999864
 11
460.91999999999643
 21
410.99999999999864
  0
LINE
  8
_0-1_計細線
  6
CONTINUOUS
 62
    3
 10
454.91999999999649
 20
405.99999999999864
 11
460.91999999999643
 21
405.99999999999864
  0
LINE
  8
_0-1_計細線
  6
CONTINUOUS
 62
    3
 10
440.91999999999643
 20
410.99999999999864
 11
446.91999999999643
 21
410.99999999999864
  0
LINE
  8
_0-1_計細線
  6
CONTINUOUS
 62
    3
 10
440.91999999999643
 20
405.99999999999864
 11
446.91999999999643
 21
405.99999999999864
  0
LINE
  8
_0-1_計細線
  6
CONTINUOUS
 62
    3
 10
426.91999999999643
 20
410.99999999999864
 11
432.91999999999643
 21
410.99999999999864
  0
LINE
  8
_0-1_計細線
  6
CONTINUOUS
 62
    3
 10
426.91999999999643
 20
405.99999999999864
 11
432.91999999999643
 21
405.99999999999864
  0
LINE
  8
_0-1_計細線
  6
CONTINUOUS
 62
    3
 10
468.91999999999649
 20
755.99999999999898
 11
474.91999999999649
 21
755.99999999999898
  0
LINE
  8
_0-1_計細線
  6
CONTINUOUS
 62
    3
 10
468.91999999999649
 20
760.99999999999898
 11
474.91999999999649
 21
760.99999999999898
  0
LINE
  8
_0-1_計細線
  6
CONTINUOUS
 62
    3
 10
454.91999999999649
 20
755.99999999999898
 11
460.91999999999643
 21
755.99999999999898
  0
LINE
  8
_0-1_計細線
  6
CONTINUOUS
 62
    3
 10
454.91999999999649
 20
760.99999999999898
 11
460.91999999999643
 21
760.99999999999898
  0
LINE
  8
_0-1_計細線
  6
CONTINUOUS
 62
    3
 10
474.91999999999649
 20
386.49999999999864
 11
474.91999999999649
 21
780.49999999999898
  0
LINE
  8
_0-1_計細線
  6
CONTINUOUS
 62
    3
 10
482.91999999999643
 20
386.49999999999864
 11
474.91999999999649
 21
386.49999999999864
  0
LINE
  8
_0-1_計細線
  6
CONTINUOUS
 62
    3
 10
482.91999999999643
 20
780.49999999999898
 11
482.91999999999643
 21
386.49999999999864
  0
LINE
  8
_0-1_計細線
  6
CONTINUOUS
 62
    3
 10
474.91999999999649
 20
780.49999999999898
 11
482.91999999999643
 21
780.49999999999898
  0
LINE
  8
_0-1_計細線
  6
CONTINUOUS
 62
    3
 10
460.91999999999643
 20
386.49999999999864
 11
460.91999999999643
 21
780.49999999999898
  0
LINE
  8
_0-1_計細線
  6
CONTINUOUS
 62
    3
 10
468.91999999999649
 20
386.49999999999864
 11
460.91999999999643
 21
386.49999999999864
  0
LINE
  8
_0-1_計細線
  6
CONTINUOUS
 62
    3
 10
468.91999999999649
 20
780.49999999999898
 11
468.91999999999649
 21
386.49999999999864
  0
LINE
  8
_0-1_計細線
  6
CONTINUOUS
 62
    3
 10
460.91999999999643
 20
780.49999999999898
 11
468.91999999999649
 21
780.49999999999898
  0
LINE
  8
_0-1_計細線
  6
CONTINUOUS
 62
    3
 10
440.91999999999643
 20
755.99999999999898
 11
446.91999999999643
 21
755.99999999999898
  0
LINE
  8
_0-1_計細線
  6
CONTINUOUS
 62
    3
 10
440.91999999999643
 20
760.99999999999898
 11
446.91999999999643
 21
760.99999999999898
  0
LINE
  8
_0-1_計細線
  6
CONTINUOUS
 62
    3
 10
426.91999999999643
 20
755.99999999999898
 11
432.91999999999643
 21
755.99999999999898
  0
LINE
  8
_0-1_計細線
  6
CONTINUOUS
 62
    3
 10
426.91999999999643
 20
760.99999999999898
 11
432.91999999999643
 21
760.99999999999898
  0
LINE
  8
_0-1_計細線
  6
CONTINUOUS
 62
    3
 10
446.91999999999643
 20
386.49999999999864
 11
446.91999999999643
 21
780.49999999999898
  0
LINE
  8
_0-1_計細線
  6
CONTINUOUS
 62
    3
 10
454.91999999999649
 20
386.49999999999864
 11
446.91999999999643
 21
386.49999999999864
  0
LINE
  8
_0-1_計細線
  6
CONTINUOUS
 62
    3
 10
454.91999999999649
 20
780.49999999999898
 11
454.91999999999649
 21
386.49999999999864
  0
LINE
  8
_0-1_計細線
  6
CONTINUOUS
 62
    3
 10
446.91999999999643
 20
780.49999999999898
 11
454.91999999999649
 21
780.49999999999898
  0
LINE
  8
_0-1_計細線
  6
CONTINUOUS
 62
    3
 10
432.91999999999643
 20
386.49999999999864
 11
432.91999999999643
 21
780.49999999999898
  0
LINE
  8
_0-1_計細線
  6
CONTINUOUS
 62
    3
 10
440.91999999999643
 20
386.49999999999864
 11
432.91999999999643
 21
386.49999999999864
  0
LINE
  8
_0-1_計細線
  6
CONTINUOUS
 62
    3
 10
440.91999999999643
 20
780.49999999999898
 11
440.91999999999643
 21
386.49999999999864
  0
LINE
  8
_0-1_計細線
  6
CONTINUOUS
 62
    3
 10
432.91999999999643
 20
780.49999999999898
 11
440.91999999999643
 21
780.49999999999898
  0
LINE
  8
_0-1_計細線
  6
CONTINUOUS
 62
    3
 10
412.91999999999643
 20
580.99999999999864
 11
418.91999999999649
 21
580.99999999999864
  0
LINE
  8
_0-1_計細線
  6
CONTINUOUS
 62
    3
 10
412.91999999999643
 20
585.99999999999864
 11
418.91999999999649
 21
585.99999999999864
  0
LINE
  8
_0-1_計細線
  6
CONTINUOUS
 62
    3
 10
398.91999999999649
 20
580.99999999999864
 11
404.91999999999649
 21
580.99999999999864
  0
LINE
  8
_0-1_計細線
  6
CONTINUOUS
 62
    3
 10
398.91999999999649
 20
585.99999999999864
 11
404.91999999999649
 21
585.99999999999864
  0
LINE
  8
_0-1_計細線
  6
CONTINUOUS
 62
    3
 10
384.91999999999649
 20
580.99999999999864
 11
390.91999999999643
 21
580.99999999999864
  0
LINE
  8
_0-1_計細線
  6
CONTINUOUS
 62
    3
 10
384.91999999999649
 20
585.99999999999864
 11
390.91999999999643
 21
585.99999999999864
  0
LINE
  8
_0-1_計細線
  6
CONTINUOUS
 62
    3
 10
370.91999999999643
 20
580.99999999999864
 11
376.91999999999643
 21
580.99999999999864
  0
LINE
  8
_0-1_計細線
  6
CONTINUOUS
 62
    3
 10
370.91999999999643
 20
585.99999999999864
 11
376.91999999999643
 21
585.99999999999864
  0
LINE
  8
_0-1_計細線
  6
CONTINUOUS
 62
    3
 10
412.91999999999643
 20
410.99999999999864
 11
418.91999999999649
 21
410.99999999999864
  0
LINE
  8
_0-1_計細線
  6
CONTINUOUS
 62
    3
 10
412.91999999999643
 20
405.99999999999864
 11
418.91999999999649
 21
405.99999999999864
  0
LINE
  8
_0-1_計細線
  6
CONTINUOUS
 62
    3
 10
398.91999999999649
 20
410.99999999999864
 11
404.91999999999649
 21
410.99999999999864
  0
LINE
  8
_0-1_計細線
  6
CONTINUOUS
 62
    3
 10
398.91999999999649
 20
405.99999999999864
 11
404.91999999999649
 21
405.99999999999864
  0
LINE
  8
_0-1_計細線
  6
CONTINUOUS
 62
    3
 10
384.91999999999649
 20
410.99999999999864
 11
390.91999999999643
 21
410.99999999999864
  0
LINE
  8
_0-1_計細線
  6
CONTINUOUS
 62
    3
 10
384.91999999999649
 20
405.99999999999864
 11
390.91999999999643
 21
405.99999999999864
  0
LINE
  8
_0-1_計細線
  6
CONTINUOUS
 62
    3
 10
370.91999999999643
 20
410.99999999999864
 11
376.91999999999643
 21
410.99999999999864
  0
LINE
  8
_0-1_計細線
  6
CONTINUOUS
 62
    3
 10
370.91999999999643
 20
405.99999999999864
 11
376.91999999999643
 21
405.99999999999864
  0
LINE
  8
_0-1_計細線
  6
CONTINUOUS
 62
    3
 10
412.91999999999643
 20
755.99999999999898
 11
418.91999999999649
 21
755.99999999999898
  0
LINE
  8
_0-1_計細線
  6
CONTINUOUS
 62
    3
 10
412.91999999999643
 20
760.99999999999898
 11
418.91999999999649
 21
760.99999999999898
  0
LINE
  8
_0-1_計細線
  6
CONTINUOUS
 62
    3
 10
398.91999999999649
 20
755.99999999999898
 11
404.91999999999649
 21
755.99999999999898
  0
LINE
  8
_0-1_計細線
  6
CONTINUOUS
 62
    3
 10
398.91999999999649
 20
760.99999999999898
 11
404.91999999999649
 21
760.99999999999898
  0
LINE
  8
_0-1_計細線
  6
CONTINUOUS
 62
    3
 10
418.91999999999649
 20
386.49999999999864
 11
418.91999999999649
 21
780.49999999999898
  0
LINE
  8
_0-1_計細線
  6
CONTINUOUS
 62
    3
 10
426.91999999999643
 20
386.49999999999864
 11
418.91999999999649
 21
386.49999999999864
  0
LINE
  8
_0-1_計細線
  6
CONTINUOUS
 62
    3
 10
426.91999999999643
 20
780.49999999999898
 11
426.91999999999643
 21
386.49999999999864
  0
LINE
  8
_0-1_計細線
  6
CONTINUOUS
 62
    3
 10
418.91999999999649
 20
780.49999999999898
 11
426.91999999999643
 21
780.49999999999898
  0
LINE
  8
_0-1_計細線
  6
CONTINUOUS
 62
    3
 10
404.91999999999649
 20
386.49999999999864
 11
404.91999999999649
 21
780.49999999999898
  0
LINE
  8
_0-1_計細線
  6
CONTINUOUS
 62
    3
 10
412.91999999999643
 20
386.49999999999864
 11
404.91999999999649
 21
386.49999999999864
  0
LINE
  8
_0-1_計細線
  6
CONTINUOUS
 62
    3
 10
412.91999999999643
 20
780.49999999999898
 11
412.91999999999643
 21
386.49999999999864
  0
LINE
  8
_0-1_計細線
  6
CONTINUOUS
 62
    3
 10
404.91999999999649
 20
780.49999999999898
 11
412.91999999999643
 21
780.49999999999898
  0
LINE
  8
_0-1_計細線
  6
CONTINUOUS
 62
    3
 10
384.91999999999649
 20
755.99999999999898
 11
390.91999999999643
 21
755.99999999999898
  0
LINE
  8
_0-1_計細線
  6
CONTINUOUS
 62
    3
 10
384.91999999999649
 20
760.99999999999898
 11
390.91999999999643
 21
760.99999999999898
  0
LINE
  8
_0-1_計細線
  6
CONTINUOUS
 62
    3
 10
370.91999999999643
 20
755.99999999999898
 11
376.91999999999643
 21
755.99999999999898
  0
LINE
  8
_0-1_計細線
  6
CONTINUOUS
 62
    3
 10
370.91999999999643
 20
760.99999999999898
 11
376.91999999999643
 21
760.99999999999898
  0
LINE
  8
_0-1_計細線
  6
CONTINUOUS
 62
    3
 10
390.91999999999643
 20
386.49999999999864
 11
390.91999999999643
 21
780.49999999999898
  0
LINE
  8
_0-1_計細線
  6
CONTINUOUS
 62
    3
 10
398.91999999999649
 20
386.49999999999864
 11
390.91999999999643
 21
386.49999999999864
  0
LINE
  8
_0-1_計細線
  6
CONTINUOUS
 62
    3
 10
398.91999999999649
 20
780.49999999999898
 11
398.91999999999649
 21
386.49999999999864
  0
LINE
  8
_0-1_計細線
  6
CONTINUOUS
 62
    3
 10
390.91999999999643
 20
780.49999999999898
 11
398.91999999999649
 21
780.49999999999898
  0
LINE
  8
_0-1_計細線
  6
CONTINUOUS
 62
    3
 10
376.91999999999643
 20
386.49999999999864
 11
376.91999999999643
 21
780.49999999999898
  0
LINE
  8
_0-1_計細線
  6
CONTINUOUS
 62
    3
 10
384.91999999999649
 20
386.49999999999864
 11
376.91999999999643
 21
386.49999999999864
  0
LINE
  8
_0-1_計細線
  6
CONTINUOUS
 62
    3
 10
384.91999999999649
 20
780.49999999999898
 11
384.91999999999649
 21
386.49999999999864
  0
LINE
  8
_0-1_計細線
  6
CONTINUOUS
 62
    3
 10
376.91999999999643
 20
780.49999999999898
 11
384.91999999999649
 21
780.49999999999898
  0
LINE
  8
_0-1_計細線
  6
CONTINUOUS
 62
    3
 10
356.91999999999643
 20
580.99999999999864
 11
362.91999999999643
 21
580.99999999999864
  0
LINE
  8
_0-1_計細線
  6
CONTINUOUS
 62
    3
 10
356.91999999999643
 20
585.99999999999864
 11
362.91999999999643
 21
585.99999999999864
  0
LINE
  8
_0-1_計細線
  6
CONTINUOUS
 62
    3
 10
342.91999999999643
 20
580.99999999999864
 11
348.91999999999649
 21
580.99999999999864
  0
LINE
  8
_0-1_計細線
  6
CONTINUOUS
 62
    3
 10
342.91999999999643
 20
585.99999999999864
 11
348.91999999999649
 21
585.99999999999864
  0
LINE
  8
_0-1_計細線
  6
CONTINUOUS
 62
    3
 10
328.91999999999649
 20
580.99999999999864
 11
334.91999999999643
 21
580.99999999999864
  0
LINE
  8
_0-1_計細線
  6
CONTINUOUS
 62
    3
 10
328.91999999999649
 20
585.99999999999864
 11
334.91999999999643
 21
585.99999999999864
  0
LINE
  8
_0-1_計細線
  6
CONTINUOUS
 62
    3
 10
314.91999999999649
 20
580.99999999999864
 11
320.91999999999643
 21
580.99999999999864
  0
LINE
  8
_0-1_計細線
  6
CONTINUOUS
 62
    3
 10
314.91999999999649
 20
585.99999999999864
 11
320.91999999999643
 21
585.99999999999864
  0
LINE
  8
_0-1_計細線
  6
CONTINUOUS
 62
    3
 10
356.91999999999643
 20
410.99999999999864
 11
362.91999999999643
 21
410.99999999999864
  0
LINE
  8
_0-1_計細線
  6
CONTINUOUS
 62
    3
 10
356.91999999999643
 20
405.99999999999864
 11
362.91999999999643
 21
405.99999999999864
  0
LINE
  8
_0-1_計細線
  6
CONTINUOUS
 62
    3
 10
342.91999999999643
 20
410.99999999999864
 11
348.91999999999649
 21
410.99999999999864
  0
LINE
  8
_0-1_計細線
  6
CONTINUOUS
 62
    3
 10
342.91999999999643
 20
405.99999999999864
 11
348.91999999999649
 21
405.99999999999864
  0
LINE
  8
_0-1_計細線
  6
CONTINUOUS
 62
    3
 10
328.91999999999649
 20
410.99999999999864
 11
334.91999999999643
 21
410.99999999999864
  0
LINE
  8
_0-1_計細線
  6
CONTINUOUS
 62
    3
 10
328.91999999999649
 20
405.99999999999864
 11
334.91999999999643
 21
405.99999999999864
  0
LINE
  8
_0-1_計細線
  6
CONTINUOUS
 62
    3
 10
314.91999999999649
 20
410.99999999999864
 11
320.91999999999643
 21
410.99999999999864
  0
LINE
  8
_0-1_計細線
  6
CONTINUOUS
 62
    3
 10
314.91999999999649
 20
405.99999999999864
 11
320.91999999999643
 21
405.99999999999864
  0
LINE
  8
_0-1_計細線
  6
CONTINUOUS
 62
    3
 10
356.91999999999643
 20
755.99999999999898
 11
362.91999999999643
 21
755.99999999999898
  0
LINE
  8
_0-1_計細線
  6
CONTINUOUS
 62
    3
 10
356.91999999999643
 20
760.99999999999898
 11
362.91999999999643
 21
760.99999999999898
  0
LINE
  8
_0-1_計細線
  6
CONTINUOUS
 62
    3
 10
342.91999999999643
 20
755.99999999999898
 11
348.91999999999649
 21
755.99999999999898
  0
LINE
  8
_0-1_計細線
  6
CONTINUOUS
 62
    3
 10
342.91999999999643
 20
760.99999999999898
 11
348.91999999999649
 21
760.99999999999898
  0
LINE
  8
_0-1_計細線
  6
CONTINUOUS
 62
    3
 10
362.91999999999643
 20
386.49999999999864
 11
362.91999999999643
 21
780.49999999999898
  0
LINE
  8
_0-1_計細線
  6
CONTINUOUS
 62
    3
 10
370.91999999999643
 20
386.49999999999864
 11
362.91999999999643
 21
386.49999999999864
  0
LINE
  8
_0-1_計細線
  6
CONTINUOUS
 62
    3
 10
370.91999999999643
 20
780.49999999999898
 11
370.91999999999643
 21
386.49999999999864
  0
LINE
  8
_0-1_計細線
  6
CONTINUOUS
 62
    3
 10
362.91999999999643
 20
780.49999999999898
 11
370.91999999999643
 21
780.49999999999898
  0
LINE
  8
_0-1_計細線
  6
CONTINUOUS
 62
    3
 10
348.91999999999649
 20
386.49999999999864
 11
348.91999999999649
 21
780.49999999999898
  0
LINE
  8
_0-1_計細線
  6
CONTINUOUS
 62
    3
 10
356.91999999999643
 20
386.49999999999864
 11
348.91999999999649
 21
386.49999999999864
  0
LINE
  8
_0-1_計細線
  6
CONTINUOUS
 62
    3
 10
356.91999999999643
 20
780.49999999999898
 11
356.91999999999643
 21
386.49999999999864
  0
LINE
  8
_0-1_計細線
  6
CONTINUOUS
 62
    3
 10
348.91999999999649
 20
780.49999999999898
 11
356.91999999999643
 21
780.49999999999898
  0
LINE
  8
_0-1_計細線
  6
CONTINUOUS
 62
    3
 10
328.91999999999649
 20
755.99999999999898
 11
334.91999999999643
 21
755.99999999999898
  0
LINE
  8
_0-1_計細線
  6
CONTINUOUS
 62
    3
 10
328.91999999999649
 20
760.99999999999898
 11
334.91999999999643
 21
760.99999999999898
  0
LINE
  8
_0-1_計細線
  6
CONTINUOUS
 62
    3
 10
314.91999999999649
 20
755.99999999999898
 11
320.91999999999643
 21
755.99999999999898
  0
LINE
  8
_0-1_計細線
  6
CONTINUOUS
 62
    3
 10
314.91999999999649
 20
760.99999999999898
 11
320.91999999999643
 21
760.99999999999898
  0
LINE
  8
_0-1_計細線
  6
CONTINUOUS
 62
    3
 10
334.91999999999643
 20
386.49999999999864
 11
334.91999999999643
 21
780.49999999999898
  0
LINE
  8
_0-1_計細線
  6
CONTINUOUS
 62
    3
 10
342.91999999999643
 20
386.49999999999864
 11
334.91999999999643
 21
386.49999999999864
  0
LINE
  8
_0-1_計細線
  6
CONTINUOUS
 62
    3
 10
342.91999999999643
 20
780.49999999999898
 11
342.91999999999643
 21
386.49999999999864
  0
LINE
  8
_0-1_計細線
  6
CONTINUOUS
 62
    3
 10
334.91999999999643
 20
780.49999999999898
 11
342.91999999999643
 21
780.49999999999898
  0
LINE
  8
_0-1_計細線
  6
CONTINUOUS
 62
    3
 10
320.91999999999643
 20
386.49999999999864
 11
320.91999999999643
 21
780.49999999999898
  0
LINE
  8
_0-1_計細線
  6
CONTINUOUS
 62
    3
 10
328.91999999999649
 20
386.49999999999864
 11
320.91999999999643
 21
386.49999999999864
  0
LINE
  8
_0-1_計細線
  6
CONTINUOUS
 62
    3
 10
328.91999999999649
 20
780.49999999999898
 11
328.91999999999649
 21
386.49999999999864
  0
LINE
  8
_0-1_計細線
  6
CONTINUOUS
 62
    3
 10
320.91999999999643
 20
780.49999999999898
 11
328.91999999999649
 21
780.49999999999898
  0
LINE
  8
_0-1_計細線
  6
CONTINUOUS
 62
    3
 10
572.91999999999643
 20
580.99999999999864
 11
566.91999999999643
 21
580.99999999999864
  0
LINE
  8
_0-1_計細線
  6
CONTINUOUS
 62
    3
 10
572.91999999999643
 20
585.99999999999864
 11
566.91999999999643
 21
585.99999999999864
  0
LINE
  8
_0-1_計細線
  6
CONTINUOUS
 62
    3
 10
586.91999999999643
 20
580.99999999999864
 11
580.91999999999643
 21
580.99999999999864
  0
LINE
  8
_0-1_計細線
  6
CONTINUOUS
 62
    3
 10
586.91999999999643
 20
585.99999999999864
 11
580.91999999999643
 21
585.99999999999864
  0
LINE
  8
_0-1_計細線
  6
CONTINUOUS
 62
    3
 10
600.91999999999643
 20
580.99999999999864
 11
594.91999999999643
 21
580.99999999999864
  0
LINE
  8
_0-1_計細線
  6
CONTINUOUS
 62
    3
 10
600.91999999999643
 20
585.99999999999864
 11
594.91999999999643
 21
585.99999999999864
  0
LINE
  8
_0-1_計細線
  6
CONTINUOUS
 62
    3
 10
614.91999999999643
 20
580.99999999999864
 11
608.91999999999643
 21
580.99999999999864
  0
LINE
  8
_0-1_計細線
  6
CONTINUOUS
 62
    3
 10
614.91999999999643
 20
585.99999999999864
 11
608.91999999999643
 21
585.99999999999864
  0
LINE
  8
_0-1_計細線
  6
CONTINUOUS
 62
    3
 10
628.91999999999643
 20
580.99999999999864
 11
622.91999999999643
 21
580.99999999999864
  0
LINE
  8
_0-1_計細線
  6
CONTINUOUS
 62
    3
 10
628.91999999999643
 20
585.99999999999864
 11
622.91999999999643
 21
585.99999999999864
  0
LINE
  8
_0-1_計細線
  6
CONTINUOUS
 62
    3
 10
572.91999999999643
 20
410.99999999999864
 11
566.91999999999643
 21
410.99999999999864
  0
LINE
  8
_0-1_計細線
  6
CONTINUOUS
 62
    3
 10
572.91999999999643
 20
405.99999999999864
 11
566.91999999999643
 21
405.99999999999864
  0
LINE
  8
_0-1_計細線
  6
CONTINUOUS
 62
    3
 10
586.91999999999643
 20
410.99999999999864
 11
580.91999999999643
 21
410.99999999999864
  0
LINE
  8
_0-1_計細線
  6
CONTINUOUS
 62
    3
 10
586.91999999999643
 20
405.99999999999864
 11
580.91999999999643
 21
405.99999999999864
  0
LINE
  8
_0-1_計細線
  6
CONTINUOUS
 62
    3
 10
600.91999999999643
 20
410.99999999999864
 11
594.91999999999643
 21
410.99999999999864
  0
LINE
  8
_0-1_計細線
  6
CONTINUOUS
 62
    3
 10
600.91999999999643
 20
405.99999999999864
 11
594.91999999999643
 21
405.99999999999864
  0
LINE
  8
_0-1_計細線
  6
CONTINUOUS
 62
    3
 10
614.91999999999643
 20
410.99999999999864
 11
608.91999999999643
 21
410.99999999999864
  0
LINE
  8
_0-1_計細線
  6
CONTINUOUS
 62
    3
 10
614.91999999999643
 20
405.99999999999864
 11
608.91999999999643
 21
405.99999999999864
  0
LINE
  8
_0-1_計細線
  6
CONTINUOUS
 62
    3
 10
628.91999999999643
 20
410.99999999999864
 11
622.91999999999643
 21
410.99999999999864
  0
LINE
  8
_0-1_計細線
  6
CONTINUOUS
 62
    3
 10
628.91999999999643
 20
405.99999999999864
 11
622.91999999999643
 21
405.99999999999864
  0
LINE
  8
_0-1_計細線
  6
CONTINUOUS
 62
    3
 10
572.91999999999643
 20
755.99999999999898
 11
566.91999999999643
 21
755.99999999999898
  0
LINE
  8
_0-1_計細線
  6
CONTINUOUS
 62
    3
 10
572.91999999999643
 20
760.99999999999898
 11
566.91999999999643
 21
760.99999999999898
  0
LINE
  8
_0-1_計細線
  6
CONTINUOUS
 62
    3
 10
586.91999999999643
 20
755.99999999999898
 11
580.91999999999643
 21
755.99999999999898
  0
LINE
  8
_0-1_計細線
  6
CONTINUOUS
 62
    3
 10
586.91999999999643
 20
760.99999999999898
 11
580.91999999999643
 21
760.99999999999898
  0
LINE
  8
_0-1_計細線
  6
CONTINUOUS
 62
    3
 10
566.91999999999643
 20
386.49999999999864
 11
566.91999999999643
 21
780.49999999999898
  0
LINE
  8
_0-1_計細線
  6
CONTINUOUS
 62
    3
 10
558.91999999999643
 20
386.49999999999864
 11
566.91999999999643
 21
386.49999999999864
  0
LINE
  8
_0-1_計細線
  6
CONTINUOUS
 62
    3
 10
558.91999999999643
 20
780.49999999999898
 11
558.91999999999643
 21
386.49999999999864
  0
LINE
  8
_0-1_計細線
  6
CONTINUOUS
 62
    3
 10
566.91999999999643
 20
780.49999999999898
 11
558.91999999999643
 21
780.49999999999898
  0
LINE
  8
_0-1_計細線
  6
CONTINUOUS
 62
    3
 10
580.91999999999643
 20
386.49999999999864
 11
580.91999999999643
 21
780.49999999999898
  0
LINE
  8
_0-1_計細線
  6
CONTINUOUS
 62
    3
 10
572.91999999999643
 20
386.49999999999864
 11
580.91999999999643
 21
386.49999999999864
  0
LINE
  8
_0-1_計細線
  6
CONTINUOUS
 62
    3
 10
572.91999999999643
 20
780.49999999999898
 11
572.91999999999643
 21
386.49999999999864
  0
LINE
  8
_0-1_計細線
  6
CONTINUOUS
 62
    3
 10
580.91999999999643
 20
780.49999999999898
 11
572.91999999999643
 21
780.49999999999898
  0
LINE
  8
_0-1_計細線
  6
CONTINUOUS
 62
    3
 10
600.91999999999643
 20
755.99999999999898
 11
594.91999999999643
 21
755.99999999999898
  0
LINE
  8
_0-1_計細線
  6
CONTINUOUS
 62
    3
 10
600.91999999999643
 20
760.99999999999898
 11
594.91999999999643
 21
760.99999999999898
  0
LINE
  8
_0-1_計細線
  6
CONTINUOUS
 62
    3
 10
614.91999999999643
 20
755.99999999999898
 11
608.91999999999643
 21
755.99999999999898
  0
LINE
  8
_0-1_計細線
  6
CONTINUOUS
 62
    3
 10
614.91999999999643
 20
760.99999999999898
 11
608.91999999999643
 21
760.99999999999898
  0
LINE
  8
_0-1_計細線
  6
CONTINUOUS
 62
    3
 10
628.91999999999643
 20
755.99999999999898
 11
622.91999999999643
 21
755.99999999999898
  0
LINE
  8
_0-1_計細線
  6
CONTINUOUS
 62
    3
 10
628.91999999999643
 20
760.99999999999898
 11
622.91999999999643
 21
760.99999999999898
  0
LINE
  8
_0-1_計細線
  6
CONTINUOUS
 62
    3
 10
594.91999999999643
 20
386.49999999999864
 11
594.91999999999643
 21
780.49999999999898
  0
LINE
  8
_0-1_計細線
  6
CONTINUOUS
 62
    3
 10
586.91999999999643
 20
386.49999999999864
 11
594.91999999999643
 21
386.49999999999864
  0
LINE
  8
_0-1_計細線
  6
CONTINUOUS
 62
    3
 10
586.91999999999643
 20
780.49999999999898
 11
586.91999999999643
 21
386.49999999999864
  0
LINE
  8
_0-1_計細線
  6
CONTINUOUS
 62
    3
 10
594.91999999999643
 20
780.49999999999898
 11
586.91999999999643
 21
780.49999999999898
  0
LINE
  8
_0-1_計細線
  6
CONTINUOUS
 62
    3
 10
608.91999999999643
 20
386.49999999999864
 11
608.91999999999643
 21
780.49999999999898
  0
LINE
  8
_0-1_計細線
  6
CONTINUOUS
 62
    3
 10
600.91999999999643
 20
386.49999999999864
 11
608.91999999999643
 21
386.49999999999864
  0
LINE
  8
_0-1_計細線
  6
CONTINUOUS
 62
    3
 10
600.91999999999643
 20
780.49999999999898
 11
600.91999999999643
 21
386.49999999999864
  0
LINE
  8
_0-1_計細線
  6
CONTINUOUS
 62
    3
 10
608.91999999999643
 20
780.49999999999898
 11
600.91999999999643
 21
780.49999999999898
  0
LINE
  8
_0-1_計細線
  6
CONTINUOUS
 62
    3
 10
622.91999999999643
 20
386.49999999999864
 11
622.91999999999643
 21
780.49999999999898
  0
LINE
  8
_0-1_計細線
  6
CONTINUOUS
 62
    3
 10
614.91999999999643
 20
386.49999999999864
 11
622.91999999999643
 21
386.49999999999864
  0
LINE
  8
_0-1_計細線
  6
CONTINUOUS
 62
    3
 10
614.91999999999643
 20
780.49999999999898
 11
614.91999999999643
 21
386.49999999999864
  0
LINE
  8
_0-1_計細線
  6
CONTINUOUS
 62
    3
 10
622.91999999999643
 20
780.49999999999898
 11
614.91999999999643
 21
780.49999999999898
  0
LINE
  8
_0-1_計細線
  6
CONTINUOUS
 62
    3
 10
636.91999999999643
 20
386.49999999999864
 11
636.91999999999643
 21
780.49999999999898
  0
LINE
  8
_0-1_計細線
  6
CONTINUOUS
 62
    3
 10
628.91999999999643
 20
386.49999999999864
 11
636.91999999999643
 21
386.49999999999864
  0
LINE
  8
_0-1_計細線
  6
CONTINUOUS
 62
    3
 10
628.91999999999643
 20
780.49999999999898
 11
628.91999999999643
 21
386.49999999999864
  0
LINE
  8
_0-1_計細線
  6
CONTINUOUS
 62
    3
 10
636.91999999999643
 20
780.49999999999898
 11
628.91999999999643
 21
780.49999999999898
  0
LINE
  8
_0-1_計細線
  6
CONTINUOUS
 62
    3
 10
300.91999999999643
 20
580.99999999999864
 11
306.91999999999643
 21
580.99999999999864
  0
LINE
  8
_0-1_計細線
  6
CONTINUOUS
 62
    3
 10
300.91999999999643
 20
585.99999999999864
 11
306.91999999999643
 21
585.99999999999864
  0
LINE
  8
_0-1_計細線
  6
CONTINUOUS
 62
    3
 10
286.91999999999643
 20
580.99999999999864
 11
292.91999999999643
 21
580.99999999999864
  0
LINE
  8
_0-1_計細線
  6
CONTINUOUS
 62
    3
 10
286.91999999999643
 20
585.99999999999864
 11
292.91999999999643
 21
585.99999999999864
  0
LINE
  8
_0-1_計細線
  6
CONTINUOUS
 62
    3
 10
272.91999999999643
 20
580.99999999999864
 11
278.91999999999643
 21
580.99999999999864
  0
LINE
  8
_0-1_計細線
  6
CONTINUOUS
 62
    3
 10
272.91999999999643
 20
585.99999999999864
 11
278.91999999999643
 21
585.99999999999864
  0
LINE
  8
_0-1_計細線
  6
CONTINUOUS
 62
    3
 10
258.91999999999643
 20
580.99999999999864
 11
264.91999999999649
 21
580.99999999999864
  0
LINE
  8
_0-1_計細線
  6
CONTINUOUS
 62
    3
 10
258.91999999999643
 20
585.99999999999864
 11
264.91999999999649
 21
585.99999999999864
  0
LINE
  8
_0-1_計細線
  6
CONTINUOUS
 62
    3
 10
244.91999999999649
 20
580.99999999999864
 11
250.91999999999643
 21
580.99999999999864
  0
LINE
  8
_0-1_計細線
  6
CONTINUOUS
 62
    3
 10
244.91999999999649
 20
585.99999999999864
 11
250.91999999999643
 21
585.99999999999864
  0
LINE
  8
_0-1_計細線
  6
CONTINUOUS
 62
    3
 10
300.91999999999643
 20
410.99999999999864
 11
306.91999999999643
 21
410.99999999999864
  0
LINE
  8
_0-1_計細線
  6
CONTINUOUS
 62
    3
 10
300.91999999999643
 20
405.99999999999864
 11
306.91999999999643
 21
405.99999999999864
  0
LINE
  8
_0-1_計細線
  6
CONTINUOUS
 62
    3
 10
286.91999999999643
 20
410.99999999999864
 11
292.91999999999643
 21
410.99999999999864
  0
LINE
  8
_0-1_計細線
  6
CONTINUOUS
 62
    3
 10
286.91999999999643
 20
405.99999999999864
 11
292.91999999999643
 21
405.99999999999864
  0
LINE
  8
_0-1_計細線
  6
CONTINUOUS
 62
    3
 10
272.91999999999643
 20
410.99999999999864
 11
278.91999999999643
 21
410.99999999999864
  0
LINE
  8
_0-1_計細線
  6
CONTINUOUS
 62
    3
 10
272.91999999999643
 20
405.99999999999864
 11
278.91999999999643
 21
405.99999999999864
  0
LINE
  8
_0-1_計細線
  6
CONTINUOUS
 62
    3
 10
258.91999999999643
 20
410.99999999999864
 11
264.91999999999649
 21
410.99999999999864
  0
LINE
  8
_0-1_計細線
  6
CONTINUOUS
 62
    3
 10
258.91999999999643
 20
405.99999999999864
 11
264.91999999999649
 21
405.99999999999864
  0
LINE
  8
_0-1_計細線
  6
CONTINUOUS
 62
    3
 10
244.91999999999649
 20
410.99999999999864
 11
250.91999999999643
 21
410.99999999999864
  0
LINE
  8
_0-1_計細線
  6
CONTINUOUS
 62
    3
 10
244.91999999999649
 20
405.99999999999864
 11
250.91999999999643
 21
405.99999999999864
  0
LINE
  8
_0-1_計細線
  6
CONTINUOUS
 62
    3
 10
300.91999999999643
 20
755.99999999999898
 11
306.91999999999643
 21
755.99999999999898
  0
LINE
  8
_0-1_計細線
  6
CONTINUOUS
 62
    3
 10
300.91999999999643
 20
760.99999999999898
 11
306.91999999999643
 21
760.99999999999898
  0
LINE
  8
_0-1_計細線
  6
CONTINUOUS
 62
    3
 10
286.91999999999643
 20
755.99999999999898
 11
292.91999999999643
 21
755.99999999999898
  0
LINE
  8
_0-1_計細線
  6
CONTINUOUS
 62
    3
 10
286.91999999999643
 20
760.99999999999898
 11
292.91999999999643
 21
760.99999999999898
  0
LINE
  8
_0-1_計細線
  6
CONTINUOUS
 62
    3
 10
306.91999999999643
 20
386.49999999999864
 11
306.91999999999643
 21
780.49999999999898
  0
LINE
  8
_0-1_計細線
  6
CONTINUOUS
 62
    3
 10
314.91999999999649
 20
386.49999999999864
 11
306.91999999999643
 21
386.49999999999864
  0
LINE
  8
_0-1_計細線
  6
CONTINUOUS
 62
    3
 10
314.91999999999649
 20
780.49999999999898
 11
314.91999999999649
 21
386.49999999999864
  0
LINE
  8
_0-1_計細線
  6
CONTINUOUS
 62
    3
 10
306.91999999999643
 20
780.49999999999898
 11
314.91999999999649
 21
780.49999999999898
  0
LINE
  8
_0-1_計細線
  6
CONTINUOUS
 62
    3
 10
292.91999999999643
 20
386.49999999999864
 11
292.91999999999643
 21
780.49999999999898
  0
LINE
  8
_0-1_計細線
  6
CONTINUOUS
 62
    3
 10
300.91999999999643
 20
386.49999999999864
 11
292.91999999999643
 21
386.49999999999864
  0
LINE
  8
_0-1_計細線
  6
CONTINUOUS
 62
    3
 10
300.91999999999643
 20
780.49999999999898
 11
300.91999999999643
 21
386.49999999999864
  0
LINE
  8
_0-1_計細線
  6
CONTINUOUS
 62
    3
 10
292.91999999999643
 20
780.49999999999898
 11
300.91999999999643
 21
780.49999999999898
  0
LINE
  8
_0-1_計細線
  6
CONTINUOUS
 62
    3
 10
272.91999999999643
 20
755.99999999999898
 11
278.91999999999643
 21
755.99999999999898
  0
LINE
  8
_0-1_計細線
  6
CONTINUOUS
 62
    3
 10
272.91999999999643
 20
760.99999999999898
 11
278.91999999999643
 21
760.99999999999898
  0
LINE
  8
_0-1_計細線
  6
CONTINUOUS
 62
    3
 10
258.91999999999643
 20
755.99999999999898
 11
264.91999999999649
 21
755.99999999999898
  0
LINE
  8
_0-1_計細線
  6
CONTINUOUS
 62
    3
 10
258.91999999999643
 20
760.99999999999898
 11
264.91999999999649
 21
760.99999999999898
  0
LINE
  8
_0-1_計細線
  6
CONTINUOUS
 62
    3
 10
244.91999999999649
 20
755.99999999999898
 11
250.91999999999643
 21
755.99999999999898
  0
LINE
  8
_0-1_計細線
  6
CONTINUOUS
 62
    3
 10
244.91999999999649
 20
760.99999999999898
 11
250.91999999999643
 21
760.99999999999898
  0
LINE
  8
_0-1_計細線
  6
CONTINUOUS
 62
    3
 10
278.91999999999643
 20
386.49999999999864
 11
278.91999999999643
 21
780.49999999999898
  0
LINE
  8
_0-1_計細線
  6
CONTINUOUS
 62
    3
 10
286.91999999999643
 20
386.49999999999864
 11
278.91999999999643
 21
386.49999999999864
  0
LINE
  8
_0-1_計細線
  6
CONTINUOUS
 62
    3
 10
286.91999999999643
 20
780.49999999999898
 11
286.91999999999643
 21
386.49999999999864
  0
LINE
  8
_0-1_計細線
  6
CONTINUOUS
 62
    3
 10
278.91999999999643
 20
780.49999999999898
 11
286.91999999999643
 21
780.49999999999898
  0
LINE
  8
_0-1_計細線
  6
CONTINUOUS
 62
    3
 10
264.91999999999649
 20
386.49999999999864
 11
264.91999999999649
 21
780.49999999999898
  0
LINE
  8
_0-1_計細線
  6
CONTINUOUS
 62
    3
 10
272.91999999999643
 20
386.49999999999864
 11
264.91999999999649
 21
386.49999999999864
  0
LINE
  8
_0-1_計細線
  6
CONTINUOUS
 62
    3
 10
272.91999999999643
 20
780.49999999999898
 11
272.91999999999643
 21
386.49999999999864
  0
LINE
  8
_0-1_計細線
  6
CONTINUOUS
 62
    3
 10
264.91999999999649
 20
780.49999999999898
 11
272.91999999999643
 21
780.49999999999898
  0
LINE
  8
_0-1_計細線
  6
CONTINUOUS
 62
    3
 10
250.91999999999643
 20
386.49999999999864
 11
250.91999999999643
 21
780.49999999999898
  0
LINE
  8
_0-1_計細線
  6
CONTINUOUS
 62
    3
 10
258.91999999999643
 20
386.49999999999864
 11
250.91999999999643
 21
386.49999999999864
  0
LINE
  8
_0-1_計細線
  6
CONTINUOUS
 62
    3
 10
258.91999999999643
 20
780.49999999999898
 11
258.91999999999643
 21
386.49999999999864
  0
LINE
  8
_0-1_計細線
  6
CONTINUOUS
 62
    3
 10
250.91999999999643
 20
780.49999999999898
 11
258.91999999999643
 21
780.49999999999898
  0
LINE
  8
_0-1_計細線
  6
CONTINUOUS
 62
    3
 10
236.91999999999643
 20
386.49999999999864
 11
236.91999999999643
 21
780.49999999999898
  0
LINE
  8
_0-1_計細線
  6
CONTINUOUS
 62
    3
 10
244.91999999999649
 20
386.49999999999864
 11
236.91999999999643
 21
386.49999999999864
  0
LINE
  8
_0-1_計細線
  6
CONTINUOUS
 62
    3
 10
244.91999999999649
 20
780.49999999999898
 11
244.91999999999649
 21
386.49999999999864
  0
LINE
  8
_0-1_計細線
  6
CONTINUOUS
 62
    3
 10
236.91999999999643
 20
780.49999999999898
 11
244.91999999999649
 21
780.49999999999898
  0
LINE
  8
_0-1_計細線
  6
CONTINUOUS
 62
    3
 10
236.91999999999643
 20
383.49999999999864
 11
236.91999999999643
 21
386.49999999999864
  0
LINE
  8
_0-1_計細線
  6
CONTINUOUS
 62
    3
 10
636.91999999999643
 20
383.49999999999864
 11
236.91999999999643
 21
383.49999999999864
  0
LINE
  8
_0-1_計細線
  6
CONTINUOUS
 62
    3
 10
636.91999999999643
 20
386.49999999999864
 11
636.91999999999643
 21
383.49999999999864
  0
LINE
  8
_0-1_計細線
  6
CONTINUOUS
 62
    3
 10
236.91999999999643
 20
386.49999999999864
 11
636.91999999999643
 21
386.49999999999864
  0
LINE
  8
_0-1_計細線
  6
CONTINUOUS
 62
    3
 10
236.91999999999643
 20
780.49999999999898
 11
236.91999999999643
 21
783.49999999999898
  0
LINE
  8
_0-1_計細線
  6
CONTINUOUS
 62
    3
 10
636.91999999999643
 20
780.49999999999898
 11
236.91999999999643
 21
780.49999999999898
  0
LINE
  8
_0-1_計細線
  6
CONTINUOUS
 62
    3
 10
636.91999999999643
 20
783.49999999999898
 11
636.91999999999643
 21
780.49999999999898
  0
LINE
  8
_0-1_計細線
  6
CONTINUOUS
 62
    3
 10
236.91999999999643
 20
783.49999999999898
 11
636.91999999999643
 21
783.49999999999898
  0
LINE
  8
_0-0_計極細
  6
CENTER2
 62
    2
 10
244.91999999999649
 20
408.49999999999864
 11
628.91999999999643
 21
408.49999999999864
  0
LINE
  8
_0-0_計極細
  6
CENTER2
 62
    2
 10
244.91999999999649
 20
758.49999999999898
 11
628.91999999999643
 21
758.49999999999898
  0
TEXT
  8
_0-7_枠細線
 62
    5
 10
366.62546759064583
 20
115.70578772854788
 40
20.000000000000004
 41
0.5999999999999999
 50
0
  1
Ｓ＝１：３
  0
TEXT
  8
_0-7_枠細線
 62
    5
 10
261.67649784147761
 20
115.70578772854788
 40
25.000000000000007
 41
0.8
 50
0
  1
側面詳細
  0
LINE
  8
_0-b_細線3
  6
CONTINUOUS
 62
    7
 10
264.81512832218596
 20
231.41805534673264
 11
251.4817949888527
 21
231.41805534673264
  0
LINE
  8
_0-b_細線3
  6
CONTINUOUS
 62
    7
 10
288.14846165551933
 20
231.41805534673264
 11
274.81512832218596
 21
231.41805534673264
  0
LINE
  8
_0-b_細線3
  6
CONTINUOUS
 62
    7
 10
311.48179498885241
 20
231.41805534673264
 11
298.14846165551899
 21
231.41805534673264
  0
LINE
  8
_0-b_細線3
  6
CONTINUOUS
 62
    7
 10
334.81512832218596
 20
231.41805534673264
 11
321.4817949888527
 21
231.41805534673264
  0
LINE
  8
_0-d_寸法3
  6
CONTINUOUS
 62
    7
 10
251.48179498885276
 20
241.41805534673264
 11
251.48179498885284
 21
286.41805534673261
  0
LINE
  8
_0-d_寸法3
  6
CONTINUOUS
 62
    7
 10
251.48179498885284
 20
281.41805534673261
 11
241.82253672596218
 21
278.82986489570743
  0
LINE
  8
_0-d_寸法3
  6
CONTINUOUS
 62
    7
 10
251.48179498885284
 20
281.41805534673261
 11
241.82253672596218
 21
284.00624579775786
  0
LINE
  8
_0-d_寸法3
  6
CONTINUOUS
 62
    7
 10
264.81512832218613
 20
241.41805534673264
 11
264.81512832218613
 21
286.41805534673261
  0
CIRCLE
  8
_0-d_寸法3
  6
CONTINUOUS
 62
    1
 10
264.81512832218613
 20
281.41805534673261
 40
1.5000000000000002
  0
LINE
  8
_0-d_寸法3
  6
CONTINUOUS
 62
    7
 10
226.48179498885284
 20
281.41805534673261
 11
264.81512832218613
 21
281.41805534673261
  0
TEXT
  8
_0-d_寸法3
 62
    7
 10
233.9763609392719
 20
281.41805534673261
 40
15
 41
1
 50
0
  1
8
  0
LINE
  8
_0-d_寸法3
  6
CONTINUOUS
 62
    7
 10
274.81512832218613
 20
241.41805534673264
 11
274.81512832218613
 21
286.41805534673261
  0
LINE
  8
_0-d_寸法3
  6
CONTINUOUS
 62
    7
 10
274.81512832218613
 20
281.41805534673261
 11
284.47438658507684
 21
284.00624579775774
  0
LINE
  8
_0-d_寸法3
  6
CONTINUOUS
 62
    7
 10
274.81512832218613
 20
281.41805534673261
 11
284.47438658507679
 21
278.82986489570737
  0
LINE
  8
_0-d_寸法3
  6
CONTINUOUS
 62
    7
 10
264.81512832218613
 20
281.41805534673261
 11
299.81512832218613
 21
281.41805534673261
  0
TEXT
  8
_0-d_寸法3
 62
    7
 10
284.53586711211165
 20
281.41805534673261
 40
15
 41
1
 50
0
  1
6
  0
LINE
  8
_0-b_細線3
  6
CONTINUOUS
 62
    7
 10
358.14846165551899
 20
231.41805534673264
 11
344.81512832218579
 21
231.41805534673264
  0
LINE
  8
_0-b_細線3
  6
CONTINUOUS
 62
    7
 10
381.48179498885207
 20
231.41805534673264
 11
368.14846165551876
 21
231.41805534673264
  0
LINE
  8
_0-d_寸法3
  6
CONTINUOUS
 62
    7
 10
328.14846165551921
 20
241.4180553467327
 11
328.14846165551933
 21
286.41805534673261
  0
LINE
  8
_0-d_寸法3
  6
CONTINUOUS
 62
    7
 10
328.14846165551933
 20
281.41805534673261
 11
337.80771991840999
 21
284.0062457977578
  0
LINE
  8
_0-d_寸法3
  6
CONTINUOUS
 62
    7
 10
328.14846165551933
 20
281.41805534673261
 11
337.80771991840999
 21
278.82986489570743
  0
LINE
  8
_0-d_寸法3
  6
CONTINUOUS
 62
    7
 10
351.48179498885264
 20
241.41805534673264
 11
351.48179498885264
 21
286.41805534673261
  0
LINE
  8
_0-d_寸法3
  6
CONTINUOUS
 62
    7
 10
351.48179498885264
 20
281.41805534673261
 11
341.82253672596198
 21
278.82986489570743
  0
LINE
  8
_0-d_寸法3
  6
CONTINUOUS
 62
    7
 10
351.48179498885264
 20
281.41805534673261
 11
341.82253672596198
 21
284.00624579775786
  0
LINE
  8
_0-d_寸法3
  6
CONTINUOUS
 62
    7
 10
328.14846165551933
 20
281.41805534673261
 11
351.48179498885264
 21
281.41805534673261
  0
TEXT
  8
_0-d_寸法3
 62
    7
 10
332.31512832218596
 20
281.41805534673261
 40
15
 41
1
 50
0
  1
14
  0
LINE
  8
_0-d_寸法3
  6
CONTINUOUS
 62
    7
 10
351.48179498885264
 20
281.41805534673261
 11
361.14105325174336
 21
284.00624579775774
  0
LINE
  8
_0-d_寸法3
  6
CONTINUOUS
 62
    7
 10
351.48179498885264
 20
281.41805534673261
 11
361.1410532517433
 21
278.82986489570737
  0
LINE
  8
_0-d_寸法3
  6
CONTINUOUS
 62
    7
 10
374.81512832218584
 20
241.41805534673264
 11
374.81512832218596
 21
286.41805534673261
  0
LINE
  8
_0-d_寸法3
  6
CONTINUOUS
 62
    7
 10
374.81512832218596
 20
281.41805534673261
 11
365.15587005929524
 21
278.82986489570743
  0
LINE
  8
_0-d_寸法3
  6
CONTINUOUS
 62
    7
 10
374.81512832218596
 20
281.41805534673261
 11
365.15587005929535
 21
284.00624579775786
  0
LINE
  8
_0-d_寸法3
  6
CONTINUOUS
 62
    7
 10
351.48179498885264
 20
281.41805534673261
 11
374.81512832218596
 21
281.41805534673261
  0
TEXT
  8
_0-d_寸法3
 62
    7
 10
355.64846165551933
 20
281.41805534673261
 40
15
 41
1
 50
0
  1
14
  0
LINE
  8
_0-d_寸法3
  6
CONTINUOUS
 62
    7
 10
233.92615326537708
 20
231.41805534673267
 11
205.59281993204371
 21
231.41805534673279
  0
LINE
  8
_0-d_寸法3
  6
CONTINUOUS
 62
    7
 10
210.59281993204371
 20
231.41805534673273
 11
213.18101038306892
 21
221.75879708384204
  0
LINE
  8
_0-d_寸法3
  6
CONTINUOUS
 62
    7
 10
210.59281993204371
 20
231.41805534673273
 11
208.00462948101853
 21
221.75879708384204
  0
LINE
  8
_0-d_寸法3
  6
CONTINUOUS
 62
    7
 10
233.92615326537708
 20
198.08472201339939
 11
205.59281993204371
 21
198.08472201339939
  0
LINE
  8
_0-d_寸法3
  6
CONTINUOUS
 62
    7
 10
210.59281993204371
 20
198.08472201339939
 11
208.00462948101853
 21
207.74398027629007
  0
LINE
  8
_0-d_寸法3
  6
CONTINUOUS
 62
    7
 10
210.59281993204371
 20
198.08472201339939
 11
213.18101038306892
 21
207.74398027629007
  0
LINE
  8
_0-d_寸法3
  6
CONTINUOUS
 62
    7
 10
210.59281993204371
 20
231.41805534673273
 11
210.59281993204371
 21
198.08472201339939
  0
TEXT
  8
_0-d_寸法3
 62
    7
 10
210.59281993204371
 20
207.25138868006607
 40
15
 41
1
 50
90
  1
20
  0
LINE
  8
_0-b_細線3
  6
CONTINUOUS
 62
    7
 10
257.14846165551933
 20
198.08472201339924
 11
259.14846165551933
 21
198.08472201339924
  0
LINE
  8
_0-b_細線3
  6
CONTINUOUS
 62
    7
 10
280.48179498885276
 20
198.08472201339924
 11
282.4817949888527
 21
198.08472201339924
  0
LINE
  8
_0-b_細線3
  6
CONTINUOUS
 62
    7
 10
303.81512832218596
 20
198.08472201339924
 11
305.81512832218596
 21
198.08472201339924
  0
LINE
  8
_0-b_細線3
  6
CONTINUOUS
 62
    7
 10
327.14846165551933
 20
198.08472201339924
 11
329.14846165551899
 21
198.08472201339924
  0
LINE
  8
_0-b_細線3
  6
CONTINUOUS
 62
    7
 10
350.48179498885241
 20
198.08472201339924
 11
352.48179498885202
 21
198.08472201339924
  0
LINE
  8
_0-b_細線3
  6
CONTINUOUS
 62
    7
 10
373.81512832218539
 20
198.08472201339924
 11
375.81512832218505
 21
198.08472201339924
  0
ARC
  8
_0-a_極細3
  6
CONTINUOUS
 62
    7
 10
263.24813652160316
 20
223.73549420764388
 40
21.070607518177617
 50
150.03871396148162
 51
205.23810402387889
  0
ARC
  8
_0-a_極細3
  6
CONTINUOUS
 62
    7
 10
225.12956629372539
 20
205.76728315248701
 40
21.070607518177617
 50
330.03871396148202
 51
25.238104023878375
  0
LINE
  8
_0-b_細線3
  6
CONTINUOUS
 62
    7
 10
243.62802552473951
 20
231.41805534673264
 11
387.05505730051016
 21
231.41805534673264
  0
ARC
  8
_0-a_極細3
  6
CONTINUOUS
 62
    7
 10
406.63881427615536
 20
223.73549420764388
 40
21.070607518177617
 50
150.03871396148162
 51
205.23810402387889
  0
ARC
  8
_0-a_極細3
  6
CONTINUOUS
 62
    7
 10
368.52024404827768
 20
205.76728315248701
 40
21.070607518177617
 50
330.03871396148202
 51
25.238104023878375
  0
LINE
  8
_0-a_極細3
  6
CENTER1
 62
    7
 10
225.7915461700739
 20
214.75138868006559
 11
399.29676738809644
 21
214.75138868006559
  0
LINE
  8
_0-b_細線3
  6
CONTINUOUS
 62
    7
 10
244.74967729058909
 20
198.08472201339853
 11
388.14035504514123
 21
198.08472201339845
  0
ARC
  8
_0-b_細線3
  6
CONTINUOUS
 62
    7
 10
269.81512832218613
 20
252.55416645784356
 40
46.136111111111042
 50
256.63227178393174
 51
283.36772821606712
  0
ARC
  8
_0-b_細線3
  6
CONTINUOUS
 62
    7
 10
269.81512832218613
 20
176.94861090228841
 40
46.136111111111042
 50
76.632271783932524
 51
103.36772821606779
  0
ARC
  8
_0-b_細線3
  6
CONTINUOUS
 62
    7
 10
293.1484616555191
 20
252.55416645784356
 40
46.136111111111042
 50
256.63227178393174
 51
283.36772821606712
  0
ARC
  8
_0-b_細線3
  6
CONTINUOUS
 62
    7
 10
293.1484616555191
 20
176.94861090228841
 40
46.136111111111042
 50
76.632271783932524
 51
103.36772821606765
  0
ARC
  8
_0-b_細線3
  6
CONTINUOUS
 62
    7
 10
316.48179498885276
 20
252.55416645784356
 40
46.136111111111042
 50
256.63227178393186
 51
283.36772821606712
  0
ARC
  8
_0-b_細線3
  6
CONTINUOUS
 62
    7
 10
316.48179498885276
 20
176.94861090228841
 40
46.136111111111042
 50
76.632271783932524
 51
103.36772821606765
  0
LINE
  8
_0-b_細線3
  6
CONTINUOUS
 62
    7
 10
264.81512832218613
 20
229.41805534673264
 11
264.81512832218613
 21
231.41805534673264
  0
LINE
  8
_0-b_細線3
  6
CONTINUOUS
 62
    7
 10
259.14846165551933
 20
229.41805534673264
 11
264.81512832218613
 21
229.41805534673264
  0
LINE
  8
_0-b_細線3
  6
CONTINUOUS
 62
    7
 10
259.14846165551933
 20
198.0847220133993
 11
259.14846165551933
 21
229.41805534673264
  0
LINE
  8
_0-b_細線3
  6
CONTINUOUS
 62
    7
 10
257.14846165551938
 20
198.0847220133993
 11
259.14846165551933
 21
198.0847220133993
  0
LINE
  8
_0-b_細線3
  6
CONTINUOUS
 62
    7
 10
257.14846165551938
 20
229.41805534673264
 11
257.14846165551938
 21
198.0847220133993
  0
LINE
  8
_0-b_細線3
  6
CONTINUOUS
 62
    7
 10
251.48179498885276
 20
229.41805534673264
 11
257.14846165551938
 21
229.41805534673264
  0
LINE
  8
_0-b_細線3
  6
CONTINUOUS
 62
    7
 10
251.48179498885276
 20
231.41805534673264
 11
251.48179498885276
 21
229.41805534673264
  0
LINE
  8
_0-b_細線3
  6
CONTINUOUS
 62
    7
 10
264.81512832218613
 20
231.41805534673264
 11
251.48179498885276
 21
231.41805534673264
  0
LINE
  8
_0-b_細線3
  6
CONTINUOUS
 62
    7
 10
288.14846165551955
 20
229.41805534673264
 11
288.14846165551955
 21
231.41805534673264
  0
LINE
  8
_0-b_細線3
  6
CONTINUOUS
 62
    7
 10
282.48179498885281
 20
229.41805534673264
 11
288.14846165551955
 21
229.41805534673264
  0
LINE
  8
_0-b_細線3
  6
CONTINUOUS
 62
    7
 10
282.48179498885281
 20
198.0847220133993
 11
282.48179498885281
 21
229.41805534673264
  0
LINE
  8
_0-b_細線3
  6
CONTINUOUS
 62
    7
 10
280.48179498885276
 20
198.0847220133993
 11
282.48179498885281
 21
198.0847220133993
  0
LINE
  8
_0-b_細線3
  6
CONTINUOUS
 62
    7
 10
280.48179498885276
 20
229.41805534673264
 11
280.48179498885276
 21
198.0847220133993
  0
LINE
  8
_0-b_細線3
  6
CONTINUOUS
 62
    7
 10
274.81512832218613
 20
229.41805534673264
 11
280.48179498885276
 21
229.41805534673264
  0
LINE
  8
_0-b_細線3
  6
CONTINUOUS
 62
    7
 10
274.81512832218613
 20
231.41805534673264
 11
274.81512832218613
 21
229.41805534673264
  0
LINE
  8
_0-b_細線3
  6
CONTINUOUS
 62
    7
 10
288.14846165551955
 20
231.41805534673264
 11
274.81512832218613
 21
231.41805534673264
  0
LINE
  8
_0-b_細線3
  6
CONTINUOUS
 62
    7
 10
311.48179498885258
 20
229.41805534673264
 11
311.48179498885258
 21
231.41805534673264
  0
LINE
  8
_0-b_細線3
  6
CONTINUOUS
 62
    7
 10
305.81512832218613
 20
229.41805534673264
 11
311.48179498885258
 21
229.41805534673264
  0
LINE
  8
_0-b_細線3
  6
CONTINUOUS
 62
    7
 10
305.81512832218613
 20
198.0847220133993
 11
305.81512832218613
 21
229.41805534673264
  0
LINE
  8
_0-b_細線3
  6
CONTINUOUS
 62
    7
 10
303.81512832218618
 20
198.0847220133993
 11
305.81512832218613
 21
198.0847220133993
  0
LINE
  8
_0-b_細線3
  6
CONTINUOUS
 62
    7
 10
303.81512832218618
 20
229.41805534673264
 11
303.81512832218618
 21
198.0847220133993
  0
LINE
  8
_0-b_細線3
  6
CONTINUOUS
 62
    7
 10
298.1484616555191
 20
229.41805534673264
 11
303.81512832218618
 21
229.41805534673264
  0
LINE
  8
_0-b_細線3
  6
CONTINUOUS
 62
    7
 10
298.1484616555191
 20
231.41805534673264
 11
298.1484616555191
 21
229.41805534673264
  0
LINE
  8
_0-b_細線3
  6
CONTINUOUS
 62
    7
 10
311.48179498885258
 20
231.41805534673264
 11
298.1484616555191
 21
231.41805534673264
  0
LINE
  8
_0-b_細線3
  6
CONTINUOUS
 62
    7
 10
334.81512832218613
 20
229.41805534673264
 11
334.81512832218613
 21
231.41805534673264
  0
LINE
  8
_0-b_細線3
  6
CONTINUOUS
 62
    7
 10
329.14846165551916
 20
229.41805534673264
 11
334.81512832218613
 21
229.41805534673264
  0
LINE
  8
_0-b_細線3
  6
CONTINUOUS
 62
    7
 10
329.14846165551916
 20
198.0847220133993
 11
329.14846165551916
 21
229.41805534673264
  0
LINE
  8
_0-b_細線3
  6
CONTINUOUS
 62
    7
 10
327.14846165551955
 20
198.0847220133993
 11
329.14846165551916
 21
198.0847220133993
  0
LINE
  8
_0-b_細線3
  6
CONTINUOUS
 62
    7
 10
327.14846165551955
 20
229.41805534673264
 11
327.14846165551955
 21
198.0847220133993
  0
LINE
  8
_0-b_細線3
  6
CONTINUOUS
 62
    7
 10
321.48179498885276
 20
229.41805534673264
 11
327.14846165551955
 21
229.41805534673264
  0
LINE
  8
_0-b_細線3
  6
CONTINUOUS
 62
    7
 10
321.48179498885276
 20
231.41805534673264
 11
321.48179498885276
 21
229.41805534673264
  0
LINE
  8
_0-b_細線3
  6
CONTINUOUS
 62
    7
 10
334.81512832218613
 20
231.41805534673264
 11
321.48179498885276
 21
231.41805534673264
  0
ARC
  8
_0-b_細線3
  6
CONTINUOUS
 62
    7
 10
339.81512832218635
 20
252.55416645784356
 40
46.136111111111042
 50
256.63227178393186
 51
283.36772821606712
  0
ARC
  8
_0-b_細線3
  6
CONTINUOUS
 62
    7
 10
339.81512832218635
 20
176.94861090228841
 40
46.136111111111042
 50
76.632271783932524
 51
103.36772821606765
  0
LINE
  8
_0-b_細線3
  6
CONTINUOUS
 62
    7
 10
358.14846165551978
 20
229.41805534673264
 11
358.14846165551978
 21
231.41805534673264
  0
LINE
  8
_0-b_細線3
  6
CONTINUOUS
 62
    7
 10
352.48179498885281
 20
229.41805534673264
 11
358.14846165551978
 21
229.41805534673264
  0
LINE
  8
_0-b_細線3
  6
CONTINUOUS
 62
    7
 10
352.48179498885281
 20
198.0847220133993
 11
352.48179498885281
 21
229.41805534673264
  0
LINE
  8
_0-b_細線3
  6
CONTINUOUS
 62
    7
 10
350.4817949888531
 20
229.41805534673264
 11
350.4817949888531
 21
198.0847220133993
  0
LINE
  8
_0-b_細線3
  6
CONTINUOUS
 62
    7
 10
344.81512832218635
 20
229.41805534673264
 11
350.4817949888531
 21
229.41805534673264
  0
LINE
  8
_0-b_細線3
  6
CONTINUOUS
 62
    7
 10
344.81512832218635
 20
231.41805534673264
 11
344.81512832218635
 21
229.41805534673264
  0
ARC
  8
_0-b_細線3
  6
CONTINUOUS
 62
    7
 10
363.14846165552001
 20
252.55416645784356
 40
46.136111111111042
 50
256.63227178393186
 51
283.36772821606712
  0
ARC
  8
_0-b_細線3
  6
CONTINUOUS
 62
    7
 10
363.14846165552001
 20
176.94861090228841
 40
46.136111111111042
 50
76.632271783932524
 51
103.36772821606765
  0
LINE
  8
_0-b_細線3
  6
CONTINUOUS
 62
    7
 10
381.48179498885332
 20
229.41805534673264
 11
381.48179498885332
 21
231.41805534673264
  0
LINE
  8
_0-b_細線3
  6
CONTINUOUS
 62
    7
 10
375.81512832218635
 20
229.41805534673264
 11
381.48179498885332
 21
229.41805534673264
  0
LINE
  8
_0-b_細線3
  6
CONTINUOUS
 62
    7
 10
375.81512832218635
 20
198.0847220133993
 11
375.81512832218635
 21
229.41805534673264
  0
LINE
  8
_0-b_細線3
  6
CONTINUOUS
 62
    7
 10
373.81512832218669
 20
229.41805534673264
 11
373.81512832218669
 21
198.0847220133993
  0
LINE
  8
_0-b_細線3
  6
CONTINUOUS
 62
    7
 10
368.14846165552001
 20
229.41805534673264
 11
373.81512832218669
 21
229.41805534673264
  0
LINE
  8
_0-b_細線3
  6
CONTINUOUS
 62
    7
 10
368.14846165552001
 20
231.41805534673264
 11
368.14846165552001
 21
229.41805534673264
  0
ARC
  8
_0-b_細線3
  6
CONTINUOUS
 62
    7
 10
246.4817949888527
 20
176.94861090228841
 40
46.136111111111042
 50
76.632271783932524
 51
95.331778543219215
  0
ARC
  8
_0-b_細線3
  6
CONTINUOUS
 62
    7
 10
246.4817949888527
 20
252.55416645784356
 40
46.136111111111042
 50
269.63773734898552
 51
283.36772821606672
  0
ARC
  8
_0-b_細線3
  6
CONTINUOUS
 62
    7
 10
386.48179498885355
 20
252.55416645784356
 40
46.136111111111042
 50
256.63227178393151
 51
273.84719120855112
  0
ARC
  8
_0-b_細線3
  6
CONTINUOUS
 62
    7
 10
386.48179498885355
 20
176.94861090228841
 40
46.136111111111042
 50
91.121818745999789
 51
103.36772821606765
  0
TEXT
  8
_0-7_枠細線
 62
    5
 10
1296.2499999999955
 20
397.7610776748989
 40
15
 41
1
 50
0
  1
2.1kg
  0
TEXT
  8
_0-7_枠細線
 62
    5
 10
1296.2499999999955
 20
372.76107767489907
 40
15
 41
1
 50
0
  1
3.1kg
  0
TEXT
  8
_0-7_枠細線
 62
    5
 10
1296.2499999999955
 20
347.7610776748989
 40
15
 41
1
 50
0
  1
3.5kg
  0
TEXT
  8
_0-7_枠細線
 62
    5
 10
1296.2499999999955
 20
322.76107767489884
 40
15
 41
1
 50
0
  1
4.5kg
  0
TEXT
  8
_0-7_枠細線
 62
    5
 10
1296.2499999999955
 20
297.7610776748989
 40
15
 41
1
 50
0
  1
5.9kg
  0
TEXT
  8
_0-7_枠細線
 62
    5
 10
1296.2499999999955
 20
272.76107767489879
 40
15
 41
1
 50
0
  1
6.5kg
  0
TEXT
  8
_0-7_枠細線
 62
    5
 10
1296.2499999999955
 20
247.7610776748989
 40
15
 41
1
 50
0
  1
8.2kg
  0
TEXT
  8
_0-7_枠細線
 62
    5
 10
1200.9999999999975
 20
342.32906121399373
 40
12.000000000000002
 41
1
 50
0
  1
150
  0
TEXT
  8
_0-7_枠細線
 62
    5
 10
1310
 20
67.5
 40
15
 41
0.6666666666666666
 50
0
  1
２０１２年０２月２９日
  0
TEXT
  8
_0-5_寸法線
 62
    7
 10
681.5575797219301
 20
550.12869599568035
 40
15
 41
0.8000000000000001
 50
0
  1
ＧＳＬ－２０
  0
TEXT
  8
_0-7_枠細線
 62
    5
 10
992.49999999999909
 20
397.76107767489867
 40
15
 41
1
 50
0
  1
GST-20K300
  0
TEXT
  8
_0-7_枠細線
 62
    5
 10
992.49999999999909
 20
372.76107767489884
 40
15
 41
1
 50
0
  1
GST-20K350
  0
TEXT
  8
_0-7_枠細線
 62
    5
 10
992.49999999999909
 20
347.7610776748989
 40
15
 41
1
 50
0
  1
GST-20K400
  0
TEXT
  8
_0-7_枠細線
 62
    5
 10
992.49999999999909
 20
322.76107767489884
 40
15
 41
1
 50
0
  1
GST-20K450
  0
TEXT
  8
_0-7_枠細線
 62
    5
 10
992.49999999999909
 20
297.76107767489867
 40
15
 41
1
 50
0
  1
GST-20K500
  0
TEXT
  8
_0-7_枠細線
 62
    5
 10
992.49999999999909
 20
272.76107767489879
 40
15
 41
1
 50
0
  1
GST-20K550
  0
TEXT
  8
_0-7_枠細線
 62
    5
 10
992.49999999999909
 20
247.76107767489867
 40
15
 41
1
 50
0
  1
GST-20K600
  0
LINE
  8
_0-7_枠細線
  6
CONTINUOUS
 62
    5
 10
1425
 20
925
 11
890
 21
925
  0
TEXT
  8
_0-7_枠細線
 62
    5
 10
938.85037037037023
 20
927.5
 40
12.500000000000002
 41
1
 50
0
  1
品番変更
  0
TEXT
  8
_0-7_枠細線
 62
    5
 10
960.5
 20
109.99999999999993
 40
20.000000000000007
 41
0.5999999999999998
 50
0
  1
ＧＳＴ－２０Ｋ３００～６００
  0
TEXT
  8
_0-7_枠細線
 62
    5
 10
1180
 20
927.5
 40
12.5
 41
0.7199999999999999
 50
0
  1
２０１５．０４．０１
  0
TEXT
  8
_0-7_枠細線
 62
    5
 10
965.49999999999966
 20
70
 40
20.000000000000004
 41
0.5999999999999997
 50
0
  1
表面形状については記号表参照のこと
  0
LINE
  8
_0-7_枠細線
  6
CONTINUOUS
 62
    5
 10
875
 20
179.99999999999986
 11
875
 21
75.000000000000355
  0
TEXT
  8
_0-7_枠細線
 62
    5
 10
784.00000000000091
 20
159.99999999999986
 40
15.000000000000002
 41
0.8
 50
0
  1
ノンスリップ
  0
TEXT
  8
_0-7_枠細線
 62
    5
 10
796.00000000000023
 20
135
 40
15.000000000000002
 41
0.8
 50
0
  1
品番－Ｄ
  0
LINE
  8
_0-7_枠細線
  6
CONTINUOUS
 62
    5
 10
764.99999999999955
 20
179.99999999999986
 11
764.99999999999955
 21
75.000000000000355
  0
TEXT
  8
_0-7_枠細線
 62
    5
 10
685.99999999999955
 20
160
 40
15.000000000000002
 41
0.8
 50
0
  1
プレーン
  0
TEXT
  8
_0-7_枠細線
 62
    5
 10
686.00000000000023
 20
135
 40
15.000000000000002
 41
0.8
 50
0
  1
品番－Ｆ
  0
TEXT
  8
_0-7_枠細線
 62
    5
 10
605.99999999999977
 20
159.99999999999986
 40
15.000000000000002
 41
0.8
 50
0
  1
タ イ プ
  0
LINE
  8
_0-7_枠細線
  6
CONTINUOUS
 62
    5
 10
604.99999999999909
 20
130
 11
875
 21
130
  0
LINE
  8
_0-7_枠細線
  6
CONTINUOUS
 62
    5
 10
604.99999999999909
 20
154.99999999999986
 11
875
 21
154.99999999999986
  0
LINE
  8
_0-7_枠細線
  6
CONTINUOUS
 62
    5
 10
604.99999999999909
 20
179.99999999999986
 11
875
 21
179.99999999999986
  0
LINE
  8
_0-7_枠細線
  6
CONTINUOUS
 62
    5
 10
604.99999999999909
 20
75.000000000000355
 11
875
 21
75.000000000000355
  0
LINE
  8
_0-7_枠細線
  6
CONTINUOUS
 62
    5
 10
655
 20
179.99999999999986
 11
655
 21
75.000000000000355
  0
LINE
  8
_0-7_枠細線
  6
CONTINUOUS
 62
    5
 10
604.99999999999909
 20
179.99999999999986
 11
604.99999999999909
 21
75.000000000000355
  0
TEXT
  8
_0-7_枠細線
 62
    5
 10
605.99999999999977
 20
95.000000000000142
 40
15.000000000000002
 41
0.8
 50
0
  1
表面形状
  0
TEXT
  8
_0-7_枠細線
 62
    5
 10
612.77421134081033
 20
182.5
 40
17.500000000000004
 41
0.7999999999999996
 50
0
  1
記号表
  0
TEXT
  8
_0-7_枠細線
 62
    5
 10
605.99999999999977
 20
135.00000000000014
 40
15.000000000000002
 41
0.8
 50
0
  1
記　　号
  0
ARC
  8
_0-7_枠細線
  6
CONTINUOUS
 62
    5
 10
748.56464347565202
 20
94.384556926306544
 40
12.026499332130607
 50
317.5616290000047
 51
42.438370999994966
  0
ARC
  8
_0-7_枠細線
  6
CONTINUOUS
 62
    5
 10
766.31584314054453
 20
110.61544292468376
 40
12.026499332130607
 50
137.56162900000001
 51
222.43837100000309
  0
ARC
  8
_0-7_枠細線
  6
CONTINUOUS
 62
    5
 10
653.68415669912338
 20
94.384556926306544
 40
12.026499332130607
 50
317.5616290000047
 51
42.438370999994966
  0
ARC
  8
_0-7_枠細線
  6
CONTINUOUS
 62
    5
 10
671.43535636401589
 20
110.61544292468376
 40
12.026499332130607
 50
137.56162900000001
 51
222.43837100000309
  0
LINE
  8
_0-7_枠細線
  6
CONTINUOUS
 62
    5
 10
660.05348907023745
 20
114.499999925495
 11
754.93397584676586
 21
114.499999925495
  0
LINE
  8
_0-7_枠細線
  6
CONTINUOUS
 62
    5
 10
759.94651076943023
 20
90.499999925494947
 11
665.06602399290182
 21
90.499999925494947
  0
ARC
  8
_0-7_枠細線
  6
CONTINUOUS
 62
    5
 10
858.56464347565247
 20
94.384556926306544
 40
12.026499332130607
 50
317.5616290000047
 51
42.438370999994966
  0
ARC
  8
_0-7_枠細線
  6
CONTINUOUS
 62
    5
 10
876.3158431405451
 20
110.61544292468376
 40
12.026499332130607
 50
137.56162900000001
 51
222.43837100000309
  0
ARC
  8
_0-7_枠細線
  6
CONTINUOUS
 62
    5
 10
763.68415669912383
 20
94.384556926306544
 40
12.026499332130607
 50
317.5616290000047
 51
42.438370999994966
  0
ARC
  8
_0-7_枠細線
  6
CONTINUOUS
 62
    5
 10
781.43535636401634
 20
110.61544292468376
 40
12.026499332130607
 50
137.56162900000001
 51
222.43837100000309
  0
LINE
  8
_0-7_枠細線
  6
CONTINUOUS
 62
    5
 10
770.05348907023802
 20
114.499999925495
 11
864.93397584676643
 21
114.499999925495
  0
LINE
  8
_0-7_枠細線
  6
CONTINUOUS
 62
    5
 10
869.94651076943069
 20
90.499999925494947
 11
775.06602399290227
 21
90.499999925494947
  0
LINE
  8
_0-7_枠細線
  6
CONTINUOUS
 62
    5
 10
775.60374839004851
 20
95.984563209849796
 11
781.08831167440314
 21
90.49999992549516
  0
LINE
  8
_0-7_枠細線
  6
CONTINUOUS
 62
    5
 10
769.99427221070562
 20
114.32196145055073
 11
793.81623373576076
 21
90.499999925495089
  0
LINE
  8
_0-7_枠細線
  6
CONTINUOUS
 62
    5
 10
782.54415579711872
 20
114.49999992549508
 11
806.54415579711849
 21
90.499999925495089
  0
LINE
  8
_0-7_枠細線
  6
CONTINUOUS
 62
    5
 10
795.27207785847645
 20
114.49999992549508
 11
819.27207785847622
 21
90.499999925495089
  0
LINE
  8
_0-7_枠細線
  6
CONTINUOUS
 62
    5
 10
807.99999991983429
 20
114.49999992549508
 11
831.99999991983407
 21
90.499999925495018
  0
LINE
  8
_0-7_枠細線
  6
CONTINUOUS
 62
    5
 10
820.72792198119203
 20
114.499999925495
 11
844.7279219811918
 21
90.499999925495018
  0
LINE
  8
_0-7_枠細線
  6
CONTINUOUS
 62
    5
 10
833.45584404254987
 20
114.499999925495
 11
857.45584404254942
 21
90.499999925495018
  0
LINE
  8
_0-7_枠細線
  6
CONTINUOUS
 62
    5
 10
846.18376610390771
 20
114.499999925495
 11
870.00572762896309
 21
90.678038400439078
  0
LINE
  8
_0-7_枠細線
  6
CONTINUOUS
 62
    5
 10
858.91168816526545
 20
114.499999925495
 11
864.39625144962054
 21
109.01543664113966
  0
LINE
  8
_0-7_枠細線
  6
CONTINUOUS
 62
    5
 10
858.9116881652659
 20
90.499999925495018
 11
868.9170534457578
 21
100.50536520598698
  0
LINE
  8
_0-7_枠細線
  6
CONTINUOUS
 62
    5
 10
846.18376610390806
 20
90.499999925495018
 11
864.43474620879965
 21
108.75098003038673
  0
LINE
  8
_0-7_枠細線
  6
CONTINUOUS
 62
    5
 10
833.45584404255021
 20
90.499999925495018
 11
857.4558440425501
 21
114.499999925495
  0
LINE
  8
_0-7_枠細線
  6
CONTINUOUS
 62
    5
 10
820.72792198119248
 20
90.499999925495089
 11
844.72792198119237
 21
114.499999925495
  0
LINE
  8
_0-7_枠細線
  6
CONTINUOUS
 62
    5
 10
807.99999991983441
 20
90.499999925495089
 11
831.99999991983441
 21
114.499999925495
  0
LINE
  8
_0-7_枠細線
  6
CONTINUOUS
 62
    5
 10
795.27207785847679
 20
90.499999925495089
 11
819.27207785847668
 21
114.499999925495
  0
LINE
  8
_0-7_枠細線
  6
CONTINUOUS
 62
    5
 10
782.54415579711906
 20
90.49999992549516
 11
806.54415579711895
 21
114.49999992549508
  0
LINE
  8
_0-7_枠細線
  6
CONTINUOUS
 62
    5
 10
775.56525363086917
 20
96.249019820603294
 11
793.81623373576099
 21
114.49999992549508
  0
LINE
  8
_0-7_枠細線
  6
CONTINUOUS
 62
    5
 10
771.08294639391136
 20
104.49463464500312
 11
781.08831167440326
 21
114.49999992549508
  0
TEXT
  8
_0-7_枠細線
 62
    5
 10
1128.5
 20
141.25
 40
20.000000000000007
 41
0.5999999999999998
 50
0
  1
集水マス
  0
LINE
  8
_0-9_枠極太
  6
CONTINUOUS
 62
    5
 10
60
 20
60
 11
60
 21
960
  0
LINE
  8
_0-9_枠極太
  6
CONTINUOUS
 62
    5
 10
60
 20
960
 11
1425
 21
960
  0
LINE
  8
_0-9_枠極太
  6
CONTINUOUS
 62
    5
 10
1425
 20
960
 11
1425
 21
60
  0
LINE
  8
_0-9_枠極太
  6
CONTINUOUS
 62
    5
 10
1425
 20
60
 11
60
 21
60
  0
LINE
  8
_0-7_枠細線
  6
CONTINUOUS
 62
    5
 10
1425
 20
907.5
 11
890
 21
907.5
  0
LINE
  8
_0-7_枠細線
  6
CONTINUOUS
 62
    5
 10
915
 20
908.94233397174708
 11
907.5
 21
923.94233397174708
  0
LINE
  8
_0-7_枠細線
  6
CONTINUOUS
 62
    5
 10
900
 20
908.94233397174708
 11
915
 21
908.94233397174708
  0
LINE
  8
_0-7_枠細線
  6
CONTINUOUS
 62
    5
 10
907.5
 20
923.94233397174708
 11
900
 21
908.94233397174708
  0
TEXT
  8
_0-7_枠細線
 62
    5
 10
902.36515126814822
 20
908.63533172636653
 40
12.5
 41
0.8
 50
0
  1
１
  0
TEXT
  8
_0-7_枠細線
 62
    5
 10
1180
 20
910
 40
12.5
 41
0.7199999999999999
 50
0
  1
２０１９．０９．０１
  0
TEXT
  8
_0-7_枠細線
 62
    5
 10
938.85037037037023
 20
910
 40
12.500000000000002
 41
1
 50
0
  1
アンカー材質･厚み変更
  0
LINE
  8
_0-7_枠細線
  6
CONTINUOUS
 62
    5
 10
890
 20
907.5
 11
890
 21
959.99999999999943
  0
LINE
  8
_0-7_枠細線
  6
CONTINUOUS
 62
    5
 10
925
 20
907.5
 11
925
 21
959.99999999999943
  0
LINE
  8
_0-7_枠細線
  6
CONTINUOUS
 62
    5
 10
1175
 20
907.5
 11
1175
 21
959.99999999999943
  0
LINE
  8
_0-7_枠細線
  6
CONTINUOUS
 62
    5
 10
1275
 20
907.5
 11
1275
 21
959.99999999999943
  0
CIRCLE
  8
_0-0_計極細
  6
CONTINUOUS
 62
    2
 10
1365.3587539800806
 20
666.98292459718789
 40
0.3318518518518431
  0
LINE
  8
_0-0_計極細
  6
CONTINUOUS
 62
    2
 10
1362.9663880797691
 20
660.13277071173673
 11
1371.9663880797691
 21
660.13277071173673
  0
LINE
  8
_0-0_計極細
  6
CENTER1
 62
    2
 10
1367.4663880797693
 20
628.71538973207555
 11
1367.4663880797693
 21
662.69820281050261
  0
LINE
  8
_0-0_計極細
  6
CONTINUOUS
 62
    2
 10
1371.9663880797691
 20
660.13277071173673
 11
1371.9663880797691
 21
633.68143390274724
  0
LINE
  8
_0-0_計極細
  6
CONTINUOUS
 62
    2
 10
1362.9663880797691
 20
633.68143390274724
 11
1362.9663880797691
 21
660.13277071173673
  0
LINE
  8
_0-0_計極細
  6
CENTER1
 62
    2
 10
1378.6627796922216
 20
651.75689336976814
 11
1340.244167402682
 21
665.74012466078909
  0
LINE
  8
_0-0_計極細
  6
CONTINUOUS
 62
    2
 10
1374.1504290120599
 20
648.61045460024923
 11
1341.0758221178521
 21
660.64862701979723
  0
LINE
  8
_0-0_計極細
  6
CONTINUOUS
 62
    2
 10
1377.2286103019915
 20
657.06768818732269
 11
1344.1540034077823
 21
669.10586060687035
  0
LINE
  8
_0-0_計極細
  6
CONTINUOUS
 62
    2
 10
1344.1540034077823
 20
669.10586060687035
 11
1341.0758221178521
 21
660.64862701979723
  0
LINE
  8
_0-0_計極細
  6
CONTINUOUS
 62
    2
 10
1374.1504290120599
 20
648.61045460024923
 11
1377.2286103019915
 21
657.06768818732269
  0
CIRCLE
  8
_0-0_計極細
  6
CONTINUOUS
 62
    2
 10
1323.7265317578585
 20
627.09273941200286
 40
1.0953188836088352
  0
CIRCLE
  8
_0-0_計極細
  6
CONTINUOUS
 62
    2
 10
1321.9576428689695
 20
670.66607274533624
 40
1.0953188836088352
  0
CIRCLE
  8
_0-0_計極細
  6
CONTINUOUS
 62
    2
 10
1322.3409762023027
 20
631.09403570829932
 40
0.3318518518518431
  0
CIRCLE
  8
_0-0_計極細
  6
CONTINUOUS
 62
    2
 10
1321.5570255850193
 20
654.64736904163237
 40
0.3318518518518431
  0
LINE
  8
_0-0_計極細
  6
CONTINUOUS
 62
    2
 10
1317.9663880797691
 20
678.68143390274724
 11
1317.9663880797691
 21
617.93647372587975
  0
LINE
  8
_0-0_計極細
  6
CONTINUOUS
 62
    2
 10
1318.4663880797686
 20
678.68143390274724
 11
1317.9663880797691
 21
678.68143390274724
  0
CIRCLE
  8
_0-0_計極細
  6
CONTINUOUS
 62
    2
 10
1359.9631984245248
 20
693.40070237496525
 40
0.3318518518518431
  0
CIRCLE
  8
_0-0_計極細
  6
CONTINUOUS
 62
    2
 10
1372.7631984245245
 20
686.00940607866937
 40
1.0953188836088352
  0
CIRCLE
  8
_0-0_計極細
  6
CONTINUOUS
 62
    2
 10
1372.6831984245243
 20
689.80070237496545
 40
0.3318518518518431
  0
CIRCLE
  8
_0-0_計極細
  6
CONTINUOUS
 62
    2
 10
1381.8831984245242
 20
693.36940607866927
 40
1.0953188836088352
  0
CIRCLE
  8
_0-0_計極細
  6
CONTINUOUS
 62
    2
 10
1375.0831984245244
 20
694.52070237496525
 40
0.3318518518518431
  0
CIRCLE
  8
_0-0_計極細
  6
CONTINUOUS
 62
    2
 10
1391.1631984245239
 20
692.84070237496519
 40
0.3318518518518431
  0
CIRCLE
  8
_0-0_計極細
  6
CONTINUOUS
 62
    2
 10
1401.2431984245241
 20
692.84070237496519
 40
0.3318518518518431
  0
CIRCLE
  8
_0-0_計極細
  6
CONTINUOUS
 62
    2
 10
1326.5402354615626
 20
649.57214950111404
 40
0.3318518518518431
  0
CIRCLE
  8
_0-0_計極細
  6
CONTINUOUS
 62
    2
 10
1326.4202354615625
 20
663.94548283444749
 40
0.3318518518518431
  0
CIRCLE
  8
_0-0_計極細
  6
CONTINUOUS
 62
    2
 10
1385.2989806723617
 20
635.16717464348778
 40
1.0953188836088352
  0
CIRCLE
  8
_0-0_計極細
  6
CONTINUOUS
 62
    2
 10
1357.5398650911911
 20
641.27940607866981
 40
1.0953188836088352
  0
CIRCLE
  8
_0-0_計極細
  6
CONTINUOUS
 62
    2
 10
1336.4198650911919
 20
654.71940607866952
 40
1.0953188836088352
  0
CIRCLE
  8
_0-0_計極細
  6
CONTINUOUS
 62
    2
 10
1330.2865317578587
 20
636.79940607866968
 40
1.0953188836088352
  0
CIRCLE
  8
_0-0_計極細
  6
CONTINUOUS
 62
    2
 10
1372.5231984245247
 20
663.52940607866958
 40
1.0953188836088352
  0
CIRCLE
  8
_0-0_計極細
  6
CONTINUOUS
 62
    2
 10
1353.3231984245249
 20
682.72940607866917
 40
1.0953188836088352
  0
CIRCLE
  8
_0-0_計極細
  6
CONTINUOUS
 62
    2
 10
1386.5765317578578
 20
678.78273941200234
 40
1.0953188836088352
  0
CIRCLE
  8
_0-0_計極細
  6
CONTINUOUS
 62
    2
 10
1395.9631984245241
 20
688.06273941200266
 40
1.0953188836088352
  0
CIRCLE
  8
_0-0_計極細
  6
CONTINUOUS
 62
    2
 10
1398.8431984245242
 20
679.80070237496545
 40
0.3318518518518431
  0
CIRCLE
  8
_0-0_計極細
  6
CONTINUOUS
 62
    2
 10
1381.0831984245247
 20
667.08070237496577
 40
0.3318518518518431
  0
CIRCLE
  8
_0-0_計極細
  6
CONTINUOUS
 62
    2
 10
1372.6831984245243
 20
671.40070237496559
 40
0.3318518518518431
  0
CIRCLE
  8
_0-0_計極細
  6
CONTINUOUS
 62
    2
 10
1383.4831984245247
 20
658.68070237496556
 40
0.3318518518518431
  0
CIRCLE
  8
_0-0_計極細
  6
CONTINUOUS
 62
    2
 10
1384.4431984245248
 20
646.20070237496577
 40
0.3318518518518431
  0
CIRCLE
  8
_0-0_計極細
  6
CONTINUOUS
 62
    2
 10
1380.1231984245239
 20
637.80070237496614
 40
0.3318518518518431
  0
CIRCLE
  8
_0-0_計極細
  6
CONTINUOUS
 62
    2
 10
1356.6031984245246
 20
669.72070237496541
 40
0.3318518518518431
  0
CIRCLE
  8
_0-0_計極細
  6
CONTINUOUS
 62
    2
 10
1352.7365317578576
 20
690.38736904163204
 40
0.3318518518518431
  0
CIRCLE
  8
_0-0_計極細
  6
CONTINUOUS
 62
    2
 10
1358.4298650911912
 20
645.97403570829908
 40
0.3318518518518431
  0
CIRCLE
  8
_0-0_計極細
  6
CONTINUOUS
 62
    2
 10
1358.9098650911913
 20
637.17403570829913
 40
0.3318518518518431
  0
CIRCLE
  8
_0-0_計極細
  6
CONTINUOUS
 62
    2
 10
1342.7498650911914
 20
637.01403570829928
 40
0.3318518518518431
  0
CIRCLE
  8
_0-0_計極細
  6
CONTINUOUS
 62
    2
 10
1327.5498650911923
 20
621.97403570829931
 40
0.3318518518518431
  0
CIRCLE
  8
_0-0_計極細
  6
CONTINUOUS
 62
    2
 10
1333.1498650911917
 20
632.69403570829911
 40
0.3318518518518431
  0
CIRCLE
  8
_0-0_計極細
  6
CONTINUOUS
 62
    2
 10
1343.8498650911913
 20
646.67403570829924
 40
0.3318518518518431
  0
CIRCLE
  8
_0-0_計極細
  6
CONTINUOUS
 62
    2
 10
1333.329865091192
 20
656.88736904163238
 40
0.3318518518518431
  0
CIRCLE
  8
_0-0_計極細
  6
CONTINUOUS
 62
    2
 10
1335.7831984245249
 20
671.87403570829906
 40
0.3318518518518431
  0
LINE
  8
_0-0_計極細
  6
CONTINUOUS
 62
    2
 10
1392.9403895285247
 20
617.93647372587975
 11
1406.4730363917622
 21
631.46912058911744
  0
LINE
  8
_0-0_計極細
  6
CONTINUOUS
 62
    2
 10
1350.5139826573322
 20
617.93647372587975
 11
1366.2589428341996
 21
633.68143390274724
  0
LINE
  8
_0-0_計極細
  6
CONTINUOUS
 62
    2
 10
1387.9663880797696
 20
655.38887914831707
 11
1406.4730363672913
 21
673.89552743583909
  0
LINE
  8
_0-0_計極細
  6
CONTINUOUS
 62
    2
 10
1388.6977488414059
 20
617.93647372587975
 11
1406.4730363893154
 21
635.71176127378953
  0
LINE
  8
_0-0_計極細
  6
CONTINUOUS
 62
    2
 10
1346.2713419702129
 20
617.93647372587975
 11
1362.0163021470805
 21
633.68143390274724
  0
LINE
  8
_0-0_計極細
  6
CONTINUOUS
 62
    2
 10
1387.9663880797696
 20
659.63151983543628
 11
1403.01630203935
 21
674.68143379501703
  0
LINE
  8
_0-0_計極細
  6
CONTINUOUS
 62
    2
 10
1384.4551081542866
 20
617.93647372587975
 11
1406.4730363868682
 21
639.95440195846129
  0
LINE
  8
_0-0_計極細
  6
CONTINUOUS
 62
    2
 10
1342.0287012830934
 20
617.93647372587975
 11
1357.7736614599607
 21
633.68143390274724
  0
LINE
  8
_0-0_計極細
  6
CONTINUOUS
 62
    2
 10
1387.9663880797696
 20
663.87416052255514
 11
1398.7736613826007
 21
674.68143382538688
  0
LINE
  8
_0-0_計極細
  6
CONTINUOUS
 62
    2
 10
1337.9663880797691
 20
633.68143390274724
 11
1337.9663880797691
 21
617.93647372587975
  0
LINE
  8
_0-0_計極細
  6
CONTINUOUS
 62
    2
 10
1387.9663880797696
 20
674.68143390274702
 11
1406.473036366838
 21
674.68143390274702
  0
LINE
  8
_0-0_計極細
  6
CONTINUOUS
 62
    2
 10
1337.9663880797691
 20
633.68143390274724
 11
1387.9663880797696
 21
633.68143390274724
  0
LINE
  8
_0-0_計極細
  6
CONTINUOUS
 62
    2
 10
1387.9663880797696
 20
674.68143390274702
 11
1387.9663880797696
 21
633.68143390274724
  0
LINE
  8
_0-0_計極細
  6
CONTINUOUS
 62
    2
 10
1394.0398713199509
 20
694.68143390274736
 11
1401.0398709438775
 21
701.68143352667403
  0
LINE
  8
_0-0_計極細
  6
CONTINUOUS
 62
    2
 10
1381.3119492585927
 20
694.68143390274736
 11
1388.311948982089
 21
701.68143362624289
  0
LINE
  8
_0-0_計極細
  6
CONTINUOUS
 62
    2
 10
1368.5840271972356
 20
694.68143390274736
 11
1375.5840270203
 21
701.68143372581187
  0
LINE
  8
_0-0_計極細
  6
CONTINUOUS
 62
    2
 10
1355.8561051358774
 20
694.68143390274736
 11
1362.856105058511
 21
701.6814338253813
  0
LINE
  8
_0-0_計極細
  6
DASHED2
 62
    2
 10
1400.40383235063
 20
694.68143390274736
 11
1406.473036366838
 21
700.75063791895536
  0
LINE
  8
_0-0_計極細
  6
DASHED2
 62
    2
 10
1387.6759102892718
 20
694.68143390274736
 11
1394.6759099629833
 21
701.68143357645863
  0
LINE
  8
_0-0_計極細
  6
DASHED2
 62
    2
 10
1374.947988227914
 20
694.68143390274736
 11
1381.947988001195
 21
701.68143367602727
  0
LINE
  8
_0-0_計極細
  6
DASHED2
 62
    2
 10
1362.2200661665565
 20
694.68143390274736
 11
1369.2200660394053
 21
701.68143377559647
  0
LINE
  8
_0-0_計極細
  6
DASHED2
 62
    2
 10
1352.9663880797689
 20
698.15567787731777
 11
1356.492144077617
 21
701.68143387516568
  0
LINE
  8
_0-0_計極細
  6
CONTINUOUS
 62
    2
 10
1352.9663880797689
 20
696.88288567118195
 11
1350.7649363113339
 21
694.68143390274736
  0
LINE
  8
_0-0_計極細
  6
CONTINUOUS
 62
    2
 10
1352.9663880797689
 20
699.42847008345336
 11
1348.2193518990628
 21
694.68143390274736
  0
LINE
  8
_0-0_計極細
  6
CONTINUOUS
 62
    2
 10
1347.9663880797691
 20
696.974054495725
 11
1352.6737674867911
 21
701.68143390274724
  0
LINE
  8
_0-0_計極細
  6
CONTINUOUS
 62
    2
 10
1347.9663880797691
 20
699.51963890799686
 11
1350.1281830745197
 21
701.68143390274724
  0
LINE
  8
_0-0_計極細
  6
CONTINUOUS
 62
    2
 10
1352.9663880797691
 20
700.77584057704416
 11
1352.0607947540655
 21
701.68143390274724
  0
LINE
  8
_0-0_計極細
  6
CONTINUOUS
 62
    2
 10
1352.9663880797691
 20
698.23025616477241
 11
1349.5152103417943
 21
701.68143390274724
  0
LINE
  8
_0-0_計極細
  6
CONTINUOUS
 62
    2
 10
1352.9663880797691
 20
695.68467175250066
 11
1347.9663880797691
 21
700.68467175250078
  0
LINE
  8
_0-0_計極細
  6
CONTINUOUS
 62
    2
 10
1351.4240415172512
 20
694.68143390274736
 11
1347.9663880797691
 21
698.13908734022948
  0
LINE
  8
_0-0_計極細
  6
CONTINUOUS
 62
    2
 10
1348.87845710498
 20
694.68143390274736
 11
1347.9663880797691
 21
695.59350292795762
  0
LINE
  8
_0-0_計極細
  6
CONTINUOUS
 62
    2
 10
1347.9663880797691
 20
701.18143390274713
 11
1347.9663880797691
 21
701.68143390274724
  0
LINE
  8
_0-0_計極細
  6
CONTINUOUS
 62
    2
 10
1347.9663880797691
 20
701.68143390274724
 11
1352.9663880797691
 21
701.68143390274724
  0
LINE
  8
_0-0_計極細
  6
CONTINUOUS
 62
    2
 10
1347.9663880797691
 20
694.68143390274736
 11
1406.473036366838
 21
694.68143390274736
  0
LINE
  8
_0-0_計極細
  6
CONTINUOUS
 62
    2
 10
1352.9663880797691
 20
701.68143390274724
 11
1406.473036366838
 21
701.68143390274724
  0
LINE
  8
_0-0_計極細
  6
CONTINUOUS
 62
    2
 10
1352.9663880797691
 20
701.68143390274724
 11
1352.9663880797691
 21
694.68143390274736
  0
ARC
  8
_0-1_計細線
  6
CONTINUOUS
 62
    3
 10
1344.9663880797693
 20
681.68143390274724
 40
3.0000000000000004
 50
269.99999999999977
 51
359.99999999999966
  0
LINE
  8
_0-1_計細線
  6
CONTINUOUS
 62
    3
 10
1347.9663880797691
 20
681.68143390274724
 11
1347.9663880797691
 21
701.18143390274713
  0
LINE
  8
_0-1_計細線
  6
CONTINUOUS
 62
    3
 10
1344.9663880797693
 20
678.68143390274724
 11
1318.4663880797686
 21
678.68143390274724
  0
LINE
  8
_0-1_計細線
  6
CONTINUOUS
 62
    3
 10
1317.9663880797691
 20
679.18143390274713
 11
1318.4663880797686
 21
678.68143390274724
  0
LINE
  8
_0-1_計細線
  6
CONTINUOUS
 62
    3
 10
1317.9663880797691
 20
681.18143390274724
 11
1317.9663880797691
 21
679.18143390274713
  0
LINE
  8
_0-1_計細線
  6
CONTINUOUS
 62
    3
 10
1318.4663880797686
 20
681.68143390274724
 11
1317.9663880797691
 21
681.18143390274724
  0
LINE
  8
_0-1_計細線
  6
CONTINUOUS
 62
    3
 10
1344.9663880797693
 20
681.68143390274724
 11
1318.4663880797686
 21
681.68143390274724
  0
LINE
  8
_0-1_計細線
  6
CONTINUOUS
 62
    3
 10
1347.4663880797696
 20
701.68143390274724
 11
1347.9663880797691
 21
701.18143390274713
  0
LINE
  8
_0-1_計細線
  6
CONTINUOUS
 62
    3
 10
1345.4663880797691
 20
701.68143390274724
 11
1347.4663880797696
 21
701.68143390274724
  0
LINE
  8
_0-1_計細線
  6
CONTINUOUS
 62
    3
 10
1344.9663880797693
 20
701.18143390274713
 11
1345.4663880797691
 21
701.68143390274724
  0
LINE
  8
_0-1_計細線
  6
CONTINUOUS
 62
    3
 10
1344.9663880797693
 20
681.68143390274724
 11
1344.9663880797693
 21
701.18143390274713
  0
LINE
  8
_0-1_計細線
  6
CONTINUOUS
 62
    3
 10
1338.9663880820751
 20
681.68143390274724
 11
1335.566388082075
 21
681.68143390274724
  0
LINE
  8
_0-1_計細線
  6
CONTINUOUS
 62
    3
 10
1322.1663880819031
 20
681.68143390274724
 11
1318.7663880819034
 21
681.68143390274724
  0
LINE
  8
_0-0_計極細
  6
CENTER1
 62
    2
 10
918.4663880797691
 20
628.71538973207555
 11
918.4663880797691
 21
662.69820281050261
  0
LINE
  8
_0-0_計極細
  6
CONTINUOUS
 62
    2
 10
913.9663880797691
 20
660.13277071173673
 11
913.9663880797691
 21
633.68143390274724
  0
LINE
  8
_0-0_計極細
  6
CONTINUOUS
 62
    2
 10
922.96638807976922
 20
660.13277071173673
 11
913.9663880797691
 21
660.13277071173673
  0
LINE
  8
_0-0_計極細
  6
CONTINUOUS
 62
    2
 10
922.96638807976922
 20
633.68143390274724
 11
922.96638807976922
 21
660.13277071173673
  0
LINE
  8
_0-0_計極細
  6
CENTER1
 62
    2
 10
907.26999646731656
 20
651.75689336976814
 11
945.68860875685596
 21
665.74012466078909
  0
LINE
  8
_0-0_計極細
  6
CONTINUOUS
 62
    2
 10
911.78234714747782
 20
648.61045460024923
 11
944.85695404168666
 21
660.64862701979723
  0
LINE
  8
_0-0_計極細
  6
CONTINUOUS
 62
    2
 10
908.70416585754685
 20
657.06768818732269
 11
941.7787727517557
 21
669.10586060687035
  0
LINE
  8
_0-0_計極細
  6
CONTINUOUS
 62
    2
 10
941.7787727517557
 20
669.10586060687035
 11
944.85695404168666
 21
660.64862701979723
  0
LINE
  8
_0-0_計極細
  6
CONTINUOUS
 62
    2
 10
911.78234714747782
 20
648.61045460024923
 11
908.70416585754685
 21
657.06768818732269
  0
CIRCLE
  8
_0-0_計極細
  6
CONTINUOUS
 62
    2
 10
956.61653175785682
 20
657.62273941200317
 40
1.0953188836088352
  0
CIRCLE
  8
_0-0_計極細
  6
CONTINUOUS
 62
    2
 10
964.03875398008176
 20
622.66983753284171
 40
0.3318518518518431
  0
CIRCLE
  8
_0-0_計極細
  6
CONTINUOUS
 62
    2
 10
963.23875398008136
 20
636.26348015274345
 40
0.3318518518518431
  0
CIRCLE
  8
_0-0_計極細
  6
CONTINUOUS
 62
    2
 10
963.8339275911917
 20
669.08940607866941
 40
1.0953188836088352
  0
LINE
  8
_0-0_計極細
  6
CONTINUOUS
 62
    2
 10
967.96638807976922
 20
678.68143390274724
 11
967.96638807976922
 21
617.93647372587975
  0
LINE
  8
_0-0_計極細
  6
CONTINUOUS
 62
    2
 10
967.46638807976888
 20
678.68143390274724
 11
967.96638807976922
 21
678.68143390274724
  0
CIRCLE
  8
_0-0_計極細
  6
CONTINUOUS
 62
    2
 10
884.28101221235113
 20
687.70273941200242
 40
1.0953188836088352
  0
CIRCLE
  8
_0-0_計極細
  6
CONTINUOUS
 62
    2
 10
920.22986509119301
 20
691.69681348607639
 40
0.3318518518518431
  0
CIRCLE
  8
_0-0_計極細
  6
CONTINUOUS
 62
    2
 10
956.94986509119246
 20
625.48940607866973
 40
1.0953188836088352
  0
CIRCLE
  8
_0-0_計極細
  6
CONTINUOUS
 62
    2
 10
954.06986509119247
 20
636.68940607866955
 40
1.0953188836088352
  0
CIRCLE
  8
_0-0_計極細
  6
CONTINUOUS
 62
    2
 10
932.48319842452588
 20
638.84940607866963
 40
1.0953188836088352
  0
CIRCLE
  8
_0-0_計極細
  6
CONTINUOUS
 62
    2
 10
900.56319842452638
 20
646.52940607866969
 40
1.0953188836088352
  0
CIRCLE
  8
_0-0_計極細
  6
CONTINUOUS
 62
    2
 10
912.32319842452625
 20
669.32940607866931
 40
1.0953188836088352
  0
CIRCLE
  8
_0-0_計極細
  6
CONTINUOUS
 62
    2
 10
896.39925993699865
 20
687.16717464348801
 40
1.0953188836088352
  0
CIRCLE
  8
_0-0_計極細
  6
CONTINUOUS
 62
    2
 10
927.45653175785947
 20
683.00940607866937
 40
1.0953188836088352
  0
CIRCLE
  8
_0-0_計極細
  6
CONTINUOUS
 62
    2
 10
939.62986509119287
 20
669.81903570829888
 40
0.3318518518518431
  0
CIRCLE
  8
_0-0_計極細
  6
CONTINUOUS
 62
    2
 10
960.77653175785929
 20
651.97903570829897
 40
0.3318518518518431
  0
CIRCLE
  8
_0-0_計極細
  6
CONTINUOUS
 62
    2
 10
960.45653175785924
 20
662.75236904163239
 40
0.3318518518518431
  0
CIRCLE
  8
_0-0_計極細
  6
CONTINUOUS
 62
    2
 10
951.38986509119286
 20
668.72570237496564
 40
0.3318518518518431
  0
CIRCLE
  8
_0-0_計極細
  6
CONTINUOUS
 62
    2
 10
942.53653175785939
 20
648.24570237496584
 40
0.3318518518518431
  0
CIRCLE
  8
_0-0_計極細
  6
CONTINUOUS
 62
    2
 10
952.53653175785939
 20
622.07681348607696
 40
0.3318518518518431
  0
CIRCLE
  8
_0-0_計極細
  6
CONTINUOUS
 62
    2
 10
956.69653175785947
 20
631.03681348607677
 40
0.3318518518518431
  0
CIRCLE
  8
_0-0_計極細
  6
CONTINUOUS
 62
    2
 10
948.48319842452611
 20
639.9968134860768
 40
0.3318518518518431
  0
CIRCLE
  8
_0-0_計極細
  6
CONTINUOUS
 62
    2
 10
940.69653175785959
 20
638.07681348607707
 40
0.3318518518518431
  0
CIRCLE
  8
_0-0_計極細
  6
CONTINUOUS
 62
    2
 10
928.7498650911931
 20
637.43681348607709
 40
0.3318518518518431
  0
CIRCLE
  8
_0-0_計極細
  6
CONTINUOUS
 62
    2
 10
927.14986509119308
 20
644.47681348607694
 40
0.3318518518518431
  0
CIRCLE
  8
_0-0_計極細
  6
CONTINUOUS
 62
    2
 10
933.86986509119299
 20
647.78348015274378
 40
0.3318518518518431
  0
CIRCLE
  8
_0-0_計極細
  6
CONTINUOUS
 62
    2
 10
910.28986509119306
 20
637.05014681941043
 40
0.3318518518518431
  0
CIRCLE
  8
_0-0_計極細
  6
CONTINUOUS
 62
    2
 10
906.55653175785983
 20
642.17014681941021
 40
0.3318518518518431
  0
CIRCLE
  8
_0-0_計極細
  6
CONTINUOUS
 62
    2
 10
901.32986509119291
 20
638.11681348607692
 40
0.3318518518518431
  0
CIRCLE
  8
_0-0_計極細
  6
CONTINUOUS
 62
    2
 10
904.74319842452644
 20
648.89014681941012
 40
0.3318518518518431
  0
CIRCLE
  8
_0-0_計極細
  6
CONTINUOUS
 62
    2
 10
912.98319842452656
 20
660.78348015274344
 40
0.3318518518518431
  0
CIRCLE
  8
_0-0_計極細
  6
CONTINUOUS
 62
    2
 10
921.83653175785958
 20
668.89014681941012
 40
0.3318518518518431
  0
CIRCLE
  8
_0-0_計極細
  6
CONTINUOUS
 62
    2
 10
929.40986509119284
 20
672.30348015274319
 40
0.3318518518518431
  0
CIRCLE
  8
_0-0_計極細
  6
CONTINUOUS
 62
    2
 10
914.36986509119288
 20
674.54348015274354
 40
0.3318518518518431
  0
CIRCLE
  8
_0-0_計極細
  6
CONTINUOUS
 62
    2
 10
902.10319842452645
 20
675.29014681940998
 40
0.3318518518518431
  0
CIRCLE
  8
_0-0_計極細
  6
CONTINUOUS
 62
    2
 10
911.37653175785988
 20
691.59014681940994
 40
0.3318518518518431
  0
CIRCLE
  8
_0-0_計極細
  6
CONTINUOUS
 62
    2
 10
918.4165317578595
 20
682.6301468194099
 40
0.3318518518518431
  0
CIRCLE
  8
_0-0_計極細
  6
CONTINUOUS
 62
    2
 10
933.3498650911929
 20
682.95014681940995
 40
0.3318518518518431
  0
CIRCLE
  8
_0-0_計極細
  6
CONTINUOUS
 62
    2
 10
929.93653175785948
 20
692.65681348607643
 40
0.3318518518518431
  0
CIRCLE
  8
_0-0_計極細
  6
CONTINUOUS
 62
    2
 10
897.93653175786005
 20
679.64348015274345
 40
0.3318518518518431
  0
CIRCLE
  8
_0-0_計極細
  6
CONTINUOUS
 62
    2
 10
883.99875398008237
 20
677.83014681941017
 40
0.3318518518518431
  0
CIRCLE
  8
_0-0_計極細
  6
CONTINUOUS
 62
    2
 10
890.19727249860068
 20
683.80348015274319
 40
0.3318518518518431
  0
LINE
  8
_0-0_計極細
  6
CONTINUOUS
 62
    2
 10
925.51320334077514
 20
617.93647379574202
 11
941.25816344778059
 21
633.68143390274724
  0
LINE
  8
_0-0_計極細
  6
CONTINUOUS
 62
    2
 10
883.08679660159044
 20
617.93647392775006
 11
898.83175657658796
 21
633.68143390274724
  0
LINE
  8
_0-0_計極細
  6
CONTINUOUS
 62
    2
 10
879.45973979270036
 20
656.73582399005272
 11
897.405349705395
 21
674.68143390274702
  0
LINE
  8
_0-0_計極細
  6
CONTINUOUS
 62
    2
 10
921.27056266685668
 20
617.93647380894276
 11
937.01552276066138
 21
633.68143390274724
  0
LINE
  8
_0-0_計極細
  6
CONTINUOUS
 62
    2
 10
879.45973979270036
 20
618.55205780597919
 11
897.96638807976888
 21
637.05870609304782
  0
LINE
  8
_0-0_計極細
  6
CONTINUOUS
 62
    2
 10
879.45973979270036
 20
660.97846467717193
 11
893.16270901827568
 21
674.68143390274702
  0
LINE
  8
_0-0_計極細
  6
CONTINUOUS
 62
    2
 10
917.02792199293856
 20
617.93647382214328
 11
932.77288207354206
 21
633.68143390274724
  0
LINE
  8
_0-0_計極細
  6
CONTINUOUS
 62
    2
 10
879.45973979270036
 20
622.79469849309805
 11
897.96638807976888
 21
641.30134678016714
  0
LINE
  8
_0-0_計極細
  6
CONTINUOUS
 62
    2
 10
879.45973979270036
 20
665.22110536429113
 11
888.92006833115624
 21
674.68143390274702
  0
LINE
  8
_0-0_計極細
  6
CONTINUOUS
 62
    2
 10
947.96638807976888
 20
633.68143390274724
 11
947.96638807976888
 21
617.93647372587975
  0
LINE
  8
_0-0_計極細
  6
CONTINUOUS
 62
    2
 10
897.96638807976888
 20
674.68143390274702
 11
879.45973979270036
 21
674.68143390274702
  0
LINE
  8
_0-0_計極細
  6
CONTINUOUS
 62
    2
 10
947.96638807976888
 20
633.68143390274724
 11
897.96638807976888
 21
633.68143390274724
  0
LINE
  8
_0-0_計極細
  6
CONTINUOUS
 62
    2
 10
897.96638807976888
 20
674.68143390274702
 11
897.96638807976888
 21
633.68143390274724
  0
LINE
  8
_0-5_寸法線
  6
CONTINUOUS
 62
    7
 10
926.76638807976917
 20
678.68143390274724
 11
848.7330942545758
 21
678.6814339027477
  0
LINE
  8
_0-5_寸法線
  6
CONTINUOUS
 62
    7
 10
853.7330942545758
 20
678.6814339027477
 11
856.32128470560087
 21
669.02217563985687
  0
LINE
  8
_0-5_寸法線
  6
CONTINUOUS
 62
    7
 10
853.7330942545758
 20
678.6814339027477
 11
851.14490380355051
 21
669.02217563985687
  0
LINE
  8
_0-5_寸法線
  6
CONTINUOUS
 62
    7
 10
926.76638807976917
 20
655.68143390274759
 11
848.7330942545758
 21
655.68143390274781
  0
LINE
  8
_0-5_寸法線
  6
CONTINUOUS
 62
    7
 10
853.7330942545758
 20
655.68143390274781
 11
851.14490380355051
 21
665.34069216563853
  0
LINE
  8
_0-5_寸法線
  6
CONTINUOUS
 62
    7
 10
853.7330942545758
 20
655.68143390274781
 11
856.32128470560087
 21
665.34069216563853
  0
LINE
  8
_0-5_寸法線
  6
CONTINUOUS
 62
    7
 10
853.7330942545758
 20
678.6814339027477
 11
853.7330942545758
 21
655.68143390274781
  0
TEXT
  8
_0-5_寸法線
 62
    7
 10
853.7330942545758
 20
659.68143390274793
 40
15
 41
1
 50
90
  1
23
  0
CIRCLE
  8
_0-0_計極細
  6
CONTINUOUS
 62
    2
 10
919.77653175785974
 20
689.28940607866912
 40
1.0953188836088352
  0
CIRCLE
  8
_0-0_計極細
  6
CONTINUOUS
 62
    2
 10
893.02986509119319
 20
690.27014681940966
 40
0.3318518518518431
  0
CIRCLE
  8
_0-0_計極細
  6
CONTINUOUS
 62
    2
 10
883.99875398008237
 20
690.60199867126187
 40
0.3318518518518431
  0
LINE
  8
_0-0_計極細
  6
CONTINUOUS
 62
    2
 10
927.66519627319053
 20
694.68143389907084
 11
932.96638807976888
 21
699.98262570564907
  0
LINE
  8
_0-0_計極細
  6
CONTINUOUS
 62
    2
 10
914.93727420300615
 20
694.68143389024408
 11
921.93727421550932
 21
701.68143390274724
  0
LINE
  8
_0-0_計極細
  6
CONTINUOUS
 62
    2
 10
902.20935213282132
 20
694.68143388141709
 11
909.20935215415125
 21
701.68143390274724
  0
LINE
  8
_0-0_計極細
  6
CONTINUOUS
 62
    2
 10
889.48143006263672
 20
694.68143387259045
 11
896.4814300927934
 21
701.68143390274724
  0
LINE
  8
_0-0_計極細
  6
CONTINUOUS
 62
    2
 10
879.45973979270036
 20
697.38766566401159
 11
883.75350803143556
 21
701.68143390274724
  0
LINE
  8
_0-0_計極細
  6
DASHED2
 62
    2
 10
921.30123523809846
 20
694.6814338946574
 11
928.30123524618841
 21
701.68143390274747
  0
LINE
  8
_0-0_計極細
  6
DASHED2
 62
    2
 10
908.57331316791362
 20
694.68143388583076
 11
915.57331318483034
 21
701.68143390274724
  0
LINE
  8
_0-0_計極細
  6
DASHED2
 62
    2
 10
895.84539109772913
 20
694.68143387700411
 11
902.8453911234725
 21
701.68143390274724
  0
LINE
  8
_0-0_計極細
  6
DASHED2
 62
    2
 10
883.1174690275443
 20
694.68143386817712
 11
890.11746906211442
 21
701.68143390274724
  0
LINE
  8
_0-0_計極細
  6
CONTINUOUS
 62
    2
 10
937.84753392595337
 20
694.68143390274736
 11
937.96638807976888
 21
694.80028805656286
  0
LINE
  8
_0-0_計極細
  6
CONTINUOUS
 62
    2
 10
935.30194951368185
 20
694.68143390274736
 11
937.96638807976922
 21
697.34587246883439
  0
LINE
  8
_0-0_計極細
  6
CONTINUOUS
 62
    2
 10
932.96638807976888
 20
694.89145688110602
 11
937.96638807976922
 21
699.89145688110602
  0
LINE
  8
_0-0_計極細
  6
CONTINUOUS
 62
    2
 10
932.96638807976888
 20
697.43704129337732
 11
937.21078068913869
 21
701.68143390274724
  0
LINE
  8
_0-0_計極細
  6
CONTINUOUS
 62
    2
 10
932.96638807976888
 20
699.98262570564907
 11
934.66519627686716
 21
701.68143390274724
  0
LINE
  8
_0-0_計極細
  6
CONTINUOUS
 62
    2
 10
937.96638807976922
 20
700.3128537793923
 11
936.59780795641404
 21
701.68143390274724
  0
LINE
  8
_0-0_計極細
  6
CONTINUOUS
 62
    2
 10
937.96638807976922
 20
697.76726936712043
 11
934.05222354414218
 21
701.68143390274724
  0
LINE
  8
_0-0_計極細
  6
CONTINUOUS
 62
    2
 10
932.96638807976888
 20
700.22168495484925
 11
937.96638807976922
 21
695.22168495484891
  0
LINE
  8
_0-0_計極細
  6
CONTINUOUS
 62
    2
 10
932.96638807976888
 20
697.67610054257727
 11
935.96105471959902
 21
694.68143390274736
  0
LINE
  8
_0-0_計極細
  6
CONTINUOUS
 62
    2
 10
932.96638807976888
 20
695.13051613030586
 11
933.4154703073275
 21
694.68143390274736
  0
LINE
  8
_0-0_計極細
  6
CONTINUOUS
 62
    2
 10
937.96638807976922
 20
701.18143390274713
 11
937.96638807976922
 21
701.68143390274724
  0
LINE
  8
_0-0_計極細
  6
CONTINUOUS
 62
    2
 10
937.96638807976922
 20
701.68143390274724
 11
932.96638807976888
 21
701.68143390274724
  0
LINE
  8
_0-0_計極細
  6
CONTINUOUS
 62
    2
 10
937.96638807976922
 20
694.68143390274736
 11
879.45973979270036
 21
694.68143390274736
  0
LINE
  8
_0-0_計極細
  6
CONTINUOUS
 62
    2
 10
932.96638807976888
 20
701.68143390274724
 11
879.45973979270036
 21
701.68143390274724
  0
LINE
  8
_0-0_計極細
  6
CONTINUOUS
 62
    2
 10
932.96638807976888
 20
701.68143390274724
 11
932.96638807976888
 21
694.68143390274736
  0
ARC
  8
_0-1_計細線
  6
CONTINUOUS
 62
    3
 10
940.9663880797691
 20
681.68143390274724
 40
3.0000000000000004
 50
179.99999999999983
 51
269.99999999999977
  0
LINE
  8
_0-1_計細線
  6
CONTINUOUS
 62
    3
 10
937.96638807976922
 20
681.68143390274724
 11
937.96638807976922
 21
701.18143390274713
  0
LINE
  8
_0-1_計細線
  6
CONTINUOUS
 62
    3
 10
940.9663880797691
 20
678.68143390274724
 11
967.46638807976888
 21
678.68143390274724
  0
LINE
  8
_0-1_計細線
  6
CONTINUOUS
 62
    3
 10
967.96638807976922
 20
679.18143390274713
 11
967.46638807976888
 21
678.68143390274724
  0
LINE
  8
_0-1_計細線
  6
CONTINUOUS
 62
    3
 10
967.96638807976922
 20
681.18143390274724
 11
967.96638807976922
 21
679.18143390274713
  0
LINE
  8
_0-1_計細線
  6
CONTINUOUS
 62
    3
 10
967.46638807976888
 20
681.68143390274724
 11
967.96638807976922
 21
681.18143390274724
  0
LINE
  8
_0-1_計細線
  6
CONTINUOUS
 62
    3
 10
940.9663880797691
 20
681.68143390274724
 11
967.46638807976888
 21
681.68143390274724
  0
LINE
  8
_0-1_計細線
  6
CONTINUOUS
 62
    3
 10
938.46638807976888
 20
701.68143390274724
 11
937.96638807976922
 21
701.18143390274713
  0
LINE
  8
_0-1_計細線
  6
CONTINUOUS
 62
    3
 10
940.46638807976888
 20
701.68143390274724
 11
938.46638807976888
 21
701.68143390274724
  0
LINE
  8
_0-1_計細線
  6
CONTINUOUS
 62
    3
 10
940.9663880797691
 20
701.18143390274713
 11
940.46638807976888
 21
701.68143390274724
  0
LINE
  8
_0-1_計細線
  6
CONTINUOUS
 62
    3
 10
940.9663880797691
 20
681.68143390274724
 11
940.9663880797691
 21
701.18143390274713
  0
LINE
  8
_0-5_寸法線
  6
CONTINUOUS
 62
    7
 10
869.45973979270036
 20
701.68143390274724
 11
848.7330942545758
 21
701.68143390274724
  0
LINE
  8
_0-5_寸法線
  6
CONTINUOUS
 62
    7
 10
853.7330942545758
 20
701.68143390274724
 11
856.32128470560087
 21
692.02217563985653
  0
LINE
  8
_0-5_寸法線
  6
CONTINUOUS
 62
    7
 10
853.7330942545758
 20
701.68143390274724
 11
851.14490380355051
 21
692.02217563985653
  0
LINE
  8
_0-5_寸法線
  6
CONTINUOUS
 62
    7
 10
926.76638807976917
 20
678.68143390274724
 11
848.7330942545758
 21
678.6814339027477
  0
LINE
  8
_0-5_寸法線
  6
CONTINUOUS
 62
    7
 10
853.7330942545758
 20
678.6814339027477
 11
851.14490380355051
 21
688.3406921656383
  0
LINE
  8
_0-5_寸法線
  6
CONTINUOUS
 62
    7
 10
853.7330942545758
 20
678.6814339027477
 11
856.32128470560087
 21
688.3406921656383
  0
LINE
  8
_0-5_寸法線
  6
CONTINUOUS
 62
    7
 10
853.7330942545758
 20
701.68143390274724
 11
853.7330942545758
 21
678.6814339027477
  0
TEXT
  8
_0-5_寸法線
 62
    7
 10
853.7330942545758
 20
682.68143390274759
 40
15
 41
1
 50
90
  1
23
  0
LINE
  8
_0-1_計細線
  6
CONTINUOUS
 62
    3
 10
950.36638807832207
 20
681.68143390274724
 11
946.96638807832187
 21
681.68143390274724
  0
LINE
  8
_0-1_計細線
  6
CONTINUOUS
 62
    3
 10
963.76638807763527
 20
681.68143390274724
 11
967.16638807763502
 21
681.68143390274724
  0
LINE
  8
_0-5_寸法線
  6
CONTINUOUS
 62
    7
 10
937.96638807976922
 20
645.68143390274759
 11
937.96638807976888
 21
581.35893395063681
  0
LINE
  8
_0-5_寸法線
  6
CONTINUOUS
 62
    7
 10
937.96638807976888
 20
586.35893395063681
 11
947.62564634265971
 21
588.94712440166188
  0
LINE
  8
_0-5_寸法線
  6
CONTINUOUS
 62
    7
 10
937.96638807976888
 20
586.35893395063681
 11
947.62564634265971
 21
583.77074349961151
  0
LINE
  8
_0-5_寸法線
  6
CONTINUOUS
 62
    7
 10
967.9663880797691
 20
607.93647372587975
 11
967.96638807976888
 21
581.35893395063681
  0
LINE
  8
_0-5_寸法線
  6
CONTINUOUS
 62
    7
 10
967.96638807976888
 20
586.35893395063681
 11
958.30712981687827
 21
583.77074349961151
  0
LINE
  8
_0-5_寸法線
  6
CONTINUOUS
 62
    7
 10
967.96638807976888
 20
586.35893395063681
 11
958.30712981687827
 21
588.94712440166188
  0
LINE
  8
_0-5_寸法線
  6
CONTINUOUS
 62
    7
 10
937.96638807976888
 20
586.35893395063681
 11
967.96638807976888
 21
586.35893395063681
  0
TEXT
  8
_0-5_寸法線
 62
    7
 10
945.46638807976888
 20
586.35893395063681
 40
15
 41
1
 50
0
  1
30
  0
LINE
  8
_0-5_寸法線
  6
CONTINUOUS
 62
    7
 10
967.96638807976888
 20
586.35893395063681
 11
977.62564634265971
 21
588.94712440166188
  0
LINE
  8
_0-5_寸法線
  6
CONTINUOUS
 62
    7
 10
967.96638807976888
 20
586.35893395063681
 11
977.62564634265971
 21
583.7707434996114
  0
LINE
  8
_0-5_寸法線
  6
CONTINUOUS
 62
    7
 10
1317.9663880797691
 20
607.93647372587975
 11
1317.9663880797689
 21
581.35893395063681
  0
LINE
  8
_0-5_寸法線
  6
CONTINUOUS
 62
    7
 10
1317.9663880797689
 20
586.35893395063681
 11
1308.3071298168782
 21
583.77074349961151
  0
LINE
  8
_0-5_寸法線
  6
CONTINUOUS
 62
    7
 10
1317.9663880797689
 20
586.35893395063681
 11
1308.3071298168782
 21
588.94712440166188
  0
LINE
  8
_0-5_寸法線
  6
CONTINUOUS
 62
    7
 10
967.96638807976888
 20
586.35893395063681
 11
1317.9663880797689
 21
586.35893395063681
  0
TEXT
  8
_0-5_寸法線
 62
    7
 10
1135.4663880797689
 20
586.35893395063681
 40
15
 41
1
 50
0
  1
Ｂ
  0
LINE
  8
_0-5_寸法線
  6
CONTINUOUS
 62
    7
 10
1317.9663880797689
 20
586.35893395063681
 11
1327.6256463426594
 21
588.94712440166188
  0
LINE
  8
_0-5_寸法線
  6
CONTINUOUS
 62
    7
 10
1317.9663880797689
 20
586.35893395063681
 11
1327.6256463426594
 21
583.7707434996114
  0
LINE
  8
_0-5_寸法線
  6
CONTINUOUS
 62
    7
 10
1347.9663880797691
 20
645.68143390274759
 11
1347.9663880797689
 21
581.35893395063681
  0
LINE
  8
_0-5_寸法線
  6
CONTINUOUS
 62
    7
 10
1347.9663880797689
 20
586.35893395063681
 11
1338.3071298168782
 21
583.77074349961151
  0
LINE
  8
_0-5_寸法線
  6
CONTINUOUS
 62
    7
 10
1347.9663880797689
 20
586.35893395063681
 11
1338.3071298168782
 21
588.94712440166188
  0
LINE
  8
_0-5_寸法線
  6
CONTINUOUS
 62
    7
 10
1317.9663880797689
 20
586.35893395063681
 11
1347.9663880797689
 21
586.35893395063681
  0
TEXT
  8
_0-5_寸法線
 62
    7
 10
1325.4663880797689
 20
586.35893395063681
 40
15
 41
1
 50
0
  1
30
  0
LINE
  8
_0-0_計極細
  6
CENTER1
 62
    2
 10
1142.9663880797691
 20
675.36995847027742
 11
1142.9663880797691
 21
713.43995847028145
  0
LINE
  8
_0-5_寸法線
  6
CONTINUOUS
 62
    7
 10
1135.3059436485794
 20
688.10930999961306
 11
1099.353838141059
 21
718.27670847102013
  0
LINE
  8
_0-5_寸法線
  6
CONTINUOUS
 62
    7
 10
1103.1840603566538
 20
715.06277042258739
 11
1100.5958699056287
 21
724.72202868547811
  0
LINE
  8
_0-5_寸法線
  6
CONTINUOUS
 62
    7
 10
1103.1840603566538
 20
715.06277042258739
 11
1105.772250807679
 21
724.72202868547811
  0
LINE
  8
_0-5_寸法線
  6
CONTINUOUS
 62
    7
 10
1135.3059436485794
 20
708.10930999961306
 11
1099.353838141059
 21
738.27670847102013
  0
LINE
  8
_0-5_寸法線
  6
CONTINUOUS
 62
    7
 10
1103.1840603566538
 20
735.06277042258739
 11
1105.772250807679
 21
725.40351215969667
  0
LINE
  8
_0-5_寸法線
  6
CONTINUOUS
 62
    7
 10
1103.1840603566538
 20
735.06277042258739
 11
1100.5958699056287
 21
725.40351215969667
  0
LINE
  8
_0-5_寸法線
  6
CONTINUOUS
 62
    7
 10
1103.1840603566538
 20
715.06277042258739
 11
1103.1840603566538
 21
735.06277042258739
  0
TEXT
  8
_0-5_寸法線
 62
    7
 10
1103.1840603566538
 20
717.63156893725227
 40
15
 41
1
 50
90
  1
20
  0
LINE
  8
_0-0_計極細
  6
CENTER1
 62
    2
 10
942.96638807976888
 20
691.18143390274668
 11
1342.9663880797689
 21
691.18143390274668
  0
LINE
  8
_0-1_計細線
  6
CONTINUOUS
 62
    3
 10
946.9663880797691
 20
701.68143390274724
 11
946.9663880797691
 21
681.68143390274724
  0
LINE
  8
_0-1_計細線
  6
CONTINUOUS
 62
    3
 10
946.9663880797691
 20
681.68143390274724
 11
942.96638807976922
 21
681.68143390274724
  0
LINE
  8
_0-1_計細線
  6
CONTINUOUS
 62
    3
 10
942.96638807976922
 20
681.68143390274724
 11
942.96638807976922
 21
701.68143390274724
  0
LINE
  8
_0-1_計細線
  6
CONTINUOUS
 62
    3
 10
942.96638807976922
 20
701.68143390274724
 11
946.9663880797691
 21
701.68143390274724
  0
LINE
  8
_0-1_計細線
  6
CONTINUOUS
 62
    3
 10
1338.9663880797693
 20
701.68143390274781
 11
1338.9663880797693
 21
681.68143390274781
  0
LINE
  8
_0-1_計細線
  6
CONTINUOUS
 62
    3
 10
1338.9663880797693
 20
681.68143390274781
 11
1342.9663880797691
 21
681.68143390274781
  0
LINE
  8
_0-1_計細線
  6
CONTINUOUS
 62
    3
 10
1342.9663880797691
 20
681.68143390274781
 11
1342.9663880797691
 21
701.68143390274781
  0
LINE
  8
_0-1_計細線
  6
CONTINUOUS
 62
    3
 10
1342.9663880797691
 20
701.68143390274781
 11
1338.9663880797693
 21
701.68143390274781
  0
ARC
  8
_0-1_計細線
  6
CONTINUOUS
 62
    3
 10
1317.9663880797827
 20
694.181433902761
 40
1.4999999999861302
 50
0
 51
179.99999999999983
  0
LINE
  8
_0-1_計細線
  6
CONTINUOUS
 62
    3
 10
1319.4663880797691
 20
689.18143390274781
 11
1319.4663880797691
 21
694.18143390274736
  0
ARC
  8
_0-1_計細線
  6
CONTINUOUS
 62
    3
 10
1317.9663880797439
 20
689.18143390272235
 40
1.4999999999749889
 50
179.99999999999983
 51
359.99999999999966
  0
LINE
  8
_0-1_計細線
  6
CONTINUOUS
 62
    3
 10
1316.4663880797693
 20
694.18143390274736
 11
1316.4663880797693
 21
689.18143390274781
  0
ARC
  8
_0-1_計細線
  6
CONTINUOUS
 62
    3
 10
1317.9663880797598
 20
694.18143390273781
 40
2.5000000000093223
 50
0
 51
179.99999999999983
  0
LINE
  8
_0-1_計細線
  6
CONTINUOUS
 62
    3
 10
1320.4663880797691
 20
689.18143390274781
 11
1320.4663880797691
 21
694.18143390274736
  0
ARC
  8
_0-1_計細線
  6
CONTINUOUS
 62
    3
 10
1317.9663880797827
 20
689.18143390266778
 40
2.5000000000138698
 50
179.99999999999983
 51
359.99999999999966
  0
LINE
  8
_0-1_計細線
  6
CONTINUOUS
 62
    3
 10
1315.4663880797691
 20
694.18143390274736
 11
1315.4663880797691
 21
689.18143390274781
  0
ARC
  8
_0-1_計細線
  6
CONTINUOUS
 62
    3
 10
1317.9663880797691
 20
691.68143390274736
 40
4.25
 50
301.78833061704233
 51
58.211669382950085
  0
ARC
  8
_0-1_計細線
  6
CONTINUOUS
 62
    3
 10
1317.9663880797691
 20
691.68143390274736
 40
4.25
 50
121.78833061705475
 51
238.2116693829517
  0
ARC
  8
_0-1_計細線
  6
CONTINUOUS
 62
    3
 10
967.96638807978286
 20
694.18143390276043
 40
1.4999999999864713
 50
0
 51
179.99999999999983
  0
LINE
  8
_0-1_計細線
  6
CONTINUOUS
 62
    3
 10
969.4663880797691
 20
689.18143390274724
 11
969.4663880797691
 21
694.18143390274679
  0
ARC
  8
_0-1_計細線
  6
CONTINUOUS
 62
    3
 10
967.96638807976319
 20
689.18143390270234
 40
1.4999999999940883
 50
179.99999999999983
 51
359.99999999999966
  0
LINE
  8
_0-1_計細線
  6
CONTINUOUS
 62
    3
 10
966.4663880797691
 20
694.18143390274679
 11
966.4663880797691
 21
689.18143390274724
  0
ARC
  8
_0-1_計細線
  6
CONTINUOUS
 62
    3
 10
967.96638807978013
 20
694.1814339027444
 40
2.4999999999891998
 50
0
 51
179.99999999999983
  0
LINE
  8
_0-1_計細線
  6
CONTINUOUS
 62
    3
 10
970.46638807976922
 20
689.18143390274724
 11
970.46638807976922
 21
694.18143390274679
  0
ARC
  8
_0-1_計細線
  6
CONTINUOUS
 62
    3
 10
967.96638807976819
 20
689.18143390273872
 40
2.4999999999989768
 50
179.99999999999983
 51
359.99999999999966
  0
LINE
  8
_0-1_計細線
  6
CONTINUOUS
 62
    3
 10
965.46638807976922
 20
694.18143390274679
 11
965.46638807976922
 21
689.18143390274724
  0
ARC
  8
_0-1_計細線
  6
CONTINUOUS
 62
    3
 10
967.96638807976922
 20
691.68143390274679
 40
4.25
 50
301.78833061704756
 51
58.211669382950134
  0
ARC
  8
_0-1_計細線
  6
CONTINUOUS
 62
    3
 10
967.96638807976922
 20
691.68143390274679
 40
4.25
 50
121.78833061704954
 51
238.2116693829517
  0
ARC
  8
_0-1_計細線
  6
CONTINUOUS
 62
    3
 10
1142.9663880797691
 20
690.93143390274793
 40
4.25
 50
121.78833061705315
 51
238.2116693829517
  0
ARC
  8
_0-1_計細線
  6
CONTINUOUS
 62
    3
 10
1142.9663880797691
 20
690.93143390274793
 40
4.25
 50
301.78833061704233
 51
58.211669382951712
  0
ARC
  8
_0-1_計細線
  6
CONTINUOUS
 62
    3
 10
1142.9663880797827
 20
693.43143390271405
 40
2.4999999999861302
 50
0
 51
179.99999999999983
  0
LINE
  8
_0-1_計細線
  6
CONTINUOUS
 62
    3
 10
1145.4663880797691
 20
688.43143390274849
 11
1145.4663880797691
 21
693.43143390274793
  0
ARC
  8
_0-1_計細線
  6
CONTINUOUS
 62
    3
 10
1142.9663880797827
 20
688.43143390280727
 40
2.5000000000138698
 50
179.99999999999983
 51
359.99999999999966
  0
LINE
  8
_0-1_計細線
  6
CONTINUOUS
 62
    3
 10
1140.4663880797691
 20
693.43143390274793
 11
1140.4663880797691
 21
688.43143390274849
  0
ARC
  8
_0-1_計細線
  6
CONTINUOUS
 62
    3
 10
1142.9663880797827
 20
693.43143390268301
 40
1.4999999999861302
 50
0
 51
179.99999999999983
  0
LINE
  8
_0-1_計細線
  6
CONTINUOUS
 62
    3
 10
1144.4663880797691
 20
688.43143390274849
 11
1144.4663880797691
 21
693.43143390274793
  0
ARC
  8
_0-1_計細線
  6
CONTINUOUS
 62
    3
 10
1142.9663880798219
 20
688.43143390279931
 40
1.5000000000527507
 50
179.99999999999983
 51
359.99999999999966
  0
LINE
  8
_0-1_計細線
  6
CONTINUOUS
 62
    3
 10
1141.4663880797691
 20
693.43143390274793
 11
1141.4663880797691
 21
688.43143390274849
  0
LINE
  8
_0-1_計細線
  6
CONTINUOUS
 62
    3
 10
946.9663880797691
 20
699.68143390274736
 11
1338.9663880797693
 21
699.68143390274793
  0
LINE
  8
_0-1_計細線
  6
CONTINUOUS
 62
    3
 10
1338.9663880797693
 20
701.68143390274781
 11
1338.9663880797693
 21
681.68143390274781
  0
LINE
  8
_0-1_計細線
  6
CONTINUOUS
 62
    3
 10
1338.9663880797693
 20
681.68143390274781
 11
946.9663880797691
 21
681.68143390274724
  0
LINE
  8
_0-1_計細線
  6
CONTINUOUS
 62
    3
 10
946.9663880797691
 20
681.68143390274724
 11
946.9663880797691
 21
701.68143390274724
  0
LINE
  8
_0-1_計細線
  6
CONTINUOUS
 62
    3
 10
946.9663880797691
 20
701.68143390274724
 11
1338.9663880797693
 21
701.68143390274781
  0
LINE
  8
_0-5_寸法線
  6
CONTINUOUS
 62
    7
 10
937.96638807976922
 20
711.1814339027477
 11
937.96638807976956
 21
861.68143390274736
  0
LINE
  8
_0-5_寸法線
  6
CONTINUOUS
 62
    7
 10
937.96638807976956
 20
856.68143390274736
 11
947.62564634266027
 21
859.26962435377254
  0
LINE
  8
_0-5_寸法線
  6
CONTINUOUS
 62
    7
 10
937.96638807976956
 20
856.68143390274736
 11
947.62564634266027
 21
854.09324345172206
  0
LINE
  8
_0-5_寸法線
  6
CONTINUOUS
 62
    7
 10
1347.9663880797696
 20
711.1814339027477
 11
1347.9663880797702
 21
861.68143390274736
  0
LINE
  8
_0-5_寸法線
  6
CONTINUOUS
 62
    7
 10
1347.9663880797702
 20
856.68143390274736
 11
1338.3071298168793
 21
854.09324345172206
  0
LINE
  8
_0-5_寸法線
  6
CONTINUOUS
 62
    7
 10
1347.9663880797702
 20
856.68143390274736
 11
1338.3071298168793
 21
859.26962435377254
  0
LINE
  8
_0-5_寸法線
  6
CONTINUOUS
 62
    7
 10
937.96638807976956
 20
856.68143390274736
 11
1347.9663880797702
 21
856.68143390274736
  0
TEXT
  8
_0-5_寸法線
 62
    7
 10
1135.4663880797696
 20
856.68143390274736
 40
15
 41
1
 50
0
  1
Ｗ
  0
LINE
  8
_0-5_寸法線
  6
CONTINUOUS
 62
    7
 10
1342.9663880797691
 20
711.18143390274827
 11
1342.9663880797691
 21
791.68143390274736
  0
LINE
  8
_0-5_寸法線
  6
CONTINUOUS
 62
    7
 10
1342.9663880797691
 20
786.68143390274736
 11
1333.3071298168784
 21
784.09324345172206
  0
LINE
  8
_0-5_寸法線
  6
CONTINUOUS
 62
    7
 10
1342.9663880797691
 20
786.68143390274736
 11
1333.3071298168784
 21
789.26962435377254
  0
LINE
  8
_0-5_寸法線
  6
CONTINUOUS
 62
    7
 10
942.96638807976956
 20
711.1814339027477
 11
942.96638807976956
 21
791.68143390274736
  0
LINE
  8
_0-5_寸法線
  6
CONTINUOUS
 62
    7
 10
942.96638807976956
 20
786.68143390274736
 11
952.62564634266027
 21
789.26962435377254
  0
LINE
  8
_0-5_寸法線
  6
CONTINUOUS
 62
    7
 10
942.96638807976956
 20
786.68143390274736
 11
952.62564634266027
 21
784.09324345172206
  0
LINE
  8
_0-5_寸法線
  6
CONTINUOUS
 62
    7
 10
1342.9663880797691
 20
786.68143390274736
 11
942.96638807976956
 21
786.68143390274736
  0
TEXT
  8
_0-5_寸法線
 62
    7
 10
1135.4663880797696
 20
786.68143390274633
 40
15
 41
1
 50
0
  1
Ａ
  0
LINE
  8
_0-5_寸法線
  6
CONTINUOUS
 62
    7
 10
942.96638807976922
 20
711.68143390274724
 11
942.96638807976922
 21
756.68143390274724
  0
LINE
  8
_0-5_寸法線
  6
CONTINUOUS
 62
    7
 10
942.96638807976922
 20
751.68143390274724
 11
952.62564634265982
 21
754.26962435377254
  0
LINE
  8
_0-5_寸法線
  6
CONTINUOUS
 62
    7
 10
942.96638807976922
 20
751.68143390274724
 11
952.62564634265982
 21
749.09324345172206
  0
LINE
  8
_0-5_寸法線
  6
CONTINUOUS
 62
    7
 10
967.96638807976922
 20
711.68143390274759
 11
967.96638807976922
 21
756.68143390274724
  0
LINE
  8
_0-5_寸法線
  6
CONTINUOUS
 62
    7
 10
967.96638807976922
 20
751.68143390274724
 11
958.30712981687839
 21
749.09324345172206
  0
LINE
  8
_0-5_寸法線
  6
CONTINUOUS
 62
    7
 10
967.96638807976922
 20
751.68143390274724
 11
958.30712981687839
 21
754.26962435377254
  0
LINE
  8
_0-5_寸法線
  6
CONTINUOUS
 62
    7
 10
942.96638807976922
 20
751.68143390274724
 11
967.96638807976922
 21
751.68143390274724
  0
TEXT
  8
_0-5_寸法線
 62
    7
 10
947.96638807976922
 20
751.68143390274724
 40
15
 41
1
 50
0
  1
25
  0
LINE
  8
_0-5_寸法線
  6
CONTINUOUS
 62
    7
 10
967.96638807976922
 20
751.68143390274724
 11
977.62564634265982
 21
754.26962435377254
  0
LINE
  8
_0-5_寸法線
  6
CONTINUOUS
 62
    7
 10
967.96638807976922
 20
751.68143390274724
 11
977.62564634265982
 21
749.09324345172195
  0
LINE
  8
_0-5_寸法線
  6
CONTINUOUS
 62
    7
 10
1317.9663880797691
 20
711.68143390274759
 11
1317.9663880797691
 21
756.68143390274724
  0
LINE
  8
_0-5_寸法線
  6
CONTINUOUS
 62
    7
 10
1317.9663880797691
 20
751.68143390274724
 11
1308.3071298168784
 21
749.09324345172206
  0
LINE
  8
_0-5_寸法線
  6
CONTINUOUS
 62
    7
 10
1317.9663880797691
 20
751.68143390274724
 11
1308.3071298168784
 21
754.26962435377254
  0
LINE
  8
_0-5_寸法線
  6
CONTINUOUS
 62
    7
 10
967.96638807976922
 20
751.68143390274724
 11
1317.9663880797691
 21
751.68143390274724
  0
TEXT
  8
_0-5_寸法線
 62
    7
 10
1135.4663880797691
 20
751.68143390274724
 40
15
 41
1
 50
0
  1
Ｐ
  0
LINE
  8
_0-5_寸法線
  6
CONTINUOUS
 62
    7
 10
1317.9663880797691
 20
751.68143390274724
 11
1327.62564634266
 21
754.26962435377254
  0
LINE
  8
_0-5_寸法線
  6
CONTINUOUS
 62
    7
 10
1317.9663880797691
 20
751.68143390274724
 11
1327.62564634266
 21
749.09324345172195
  0
LINE
  8
_0-5_寸法線
  6
CONTINUOUS
 62
    7
 10
1342.9663880797689
 20
711.68143390274724
 11
1342.9663880797689
 21
756.68143390274724
  0
LINE
  8
_0-5_寸法線
  6
CONTINUOUS
 62
    7
 10
1342.9663880797689
 20
751.68143390274724
 11
1333.3071298168782
 21
749.09324345172206
  0
LINE
  8
_0-5_寸法線
  6
CONTINUOUS
 62
    7
 10
1342.9663880797689
 20
751.68143390274724
 11
1333.3071298168782
 21
754.26962435377254
  0
LINE
  8
_0-5_寸法線
  6
CONTINUOUS
 62
    7
 10
1317.9663880797691
 20
751.68143390274724
 11
1342.9663880797689
 21
751.68143390274724
  0
TEXT
  8
_0-5_寸法線
 62
    7
 10
1322.9663880797691
 20
751.68143390274724
 40
15
 41
1
 50
0
  1
25
  0
LINE
  8
_0-1_計細線
  6
CONTINUOUS
 62
    3
 10
1347.9663880797691
 20
690.68143390274724
 11
1347.9663880797691
 21
655.68143390274759
  0
LINE
  8
_0-1_計細線
  6
CONTINUOUS
 62
    3
 10
1347.9663880797691
 20
655.68143390274759
 11
1350.2663880797693
 21
655.68143390274759
  0
LINE
  8
_0-1_計細線
  6
CONTINUOUS
 62
    3
 10
1350.2663880797693
 20
655.68143390274759
 11
1350.2663880797693
 21
690.68143390274724
  0
LINE
  8
_0-1_計細線
  6
CONTINUOUS
 62
    3
 10
1350.2663880797693
 20
690.68143390274724
 11
1347.9663880797691
 21
690.68143390274724
  0
LINE
  8
_0-0_計極細
  6
CONTINUOUS
 62
    2
 10
1350.2663880797693
 20
674.68143390274747
 11
1347.9663880797691
 21
674.68143390274747
  0
LINE
  8
_0-0_計極細
  6
CONTINUOUS
 62
    2
 10
1350.2663880797693
 20
676.68143390274747
 11
1347.9663880797691
 21
676.68143390274747
  0
LINE
  8
_0-0_計極細
  6
CONTINUOUS
 62
    2
 10
1350.2663880797693
 20
672.68143390274736
 11
1347.9663880797691
 21
672.68143390274736
  0
LINE
  8
_0-0_計極細
  6
CONTINUOUS
 62
    2
 10
1350.2663880797693
 20
678.68143390274724
 11
1347.9663880797691
 21
678.68143390274724
  0
LINE
  8
_0-0_計極細
  6
CONTINUOUS
 62
    2
 10
1347.9663880797691
 20
658.68143390274759
 11
1350.2663880797693
 21
658.68143390274759
  0
LINE
  8
_0-0_計極細
  6
CONTINUOUS
 62
    2
 10
1350.2663880797693
 20
688.68143390274759
 11
1347.9663880797691
 21
688.68143390274759
  0
LINE
  8
_0-1_計細線
  6
CONTINUOUS
 62
    3
 10
937.96638807976922
 20
690.68143390274724
 11
937.96638807976922
 21
655.68143390274759
  0
LINE
  8
_0-1_計細線
  6
CONTINUOUS
 62
    3
 10
937.96638807976922
 20
655.68143390274759
 11
935.66638807976915
 21
655.68143390274759
  0
LINE
  8
_0-1_計細線
  6
CONTINUOUS
 62
    3
 10
935.66638807976915
 20
655.68143390274759
 11
935.66638807976915
 21
690.68143390274724
  0
LINE
  8
_0-1_計細線
  6
CONTINUOUS
 62
    3
 10
935.66638807976915
 20
690.68143390274724
 11
937.96638807976922
 21
690.68143390274724
  0
LINE
  8
_0-0_計極細
  6
CONTINUOUS
 62
    2
 10
935.66638807976915
 20
674.68143390274747
 11
937.96638807976922
 21
674.68143390274747
  0
LINE
  8
_0-0_計極細
  6
CONTINUOUS
 62
    2
 10
935.66638807976915
 20
676.68143390274747
 11
937.96638807976922
 21
676.68143390274747
  0
LINE
  8
_0-0_計極細
  6
CONTINUOUS
 62
    2
 10
935.66638807976915
 20
672.68143390274736
 11
937.96638807976922
 21
672.68143390274736
  0
LINE
  8
_0-0_計極細
  6
CONTINUOUS
 62
    2
 10
935.66638807976915
 20
678.68143390274724
 11
937.96638807976922
 21
678.68143390274724
  0
LINE
  8
_0-0_計極細
  6
CONTINUOUS
 62
    2
 10
937.96638807976922
 20
658.68143390274759
 11
935.66638807976915
 21
658.68143390274759
  0
LINE
  8
_0-0_計極細
  6
CONTINUOUS
 62
    2
 10
935.66638807976915
 20
688.68143390274759
 11
937.96638807976922
 21
688.68143390274759
  0
LINE
  8
_0-7_枠細線
  6
CONTINUOUS
 62
    5
 10
1367.7099094664129
 20
671.5116455302857
 11
1360.2099094664129
 21
686.5116455302857
  0
LINE
  8
_0-7_枠細線
  6
CONTINUOUS
 62
    5
 10
1352.7099094664129
 20
671.5116455302857
 11
1367.7099094664129
 21
671.5116455302857
  0
LINE
  8
_0-7_枠細線
  6
CONTINUOUS
 62
    5
 10
1360.2099094664129
 20
686.5116455302857
 11
1352.7099094664129
 21
671.5116455302857
  0
TEXT
  8
_0-7_枠細線
 62
    5
 10
1355.0750607345612
 20
671.20464328490516
 40
12.5
 41
0.8
 50
0
  1
１
  0
TEXT
  8
_0-7_枠細線
 62
    5
 10
1097.3380441238498
 20
542.15884678816428
 40
25.000000000000007
 41
0.8
 50
0
  1
断面詳細図
  0
TEXT
  8
_0-7_枠細線
 62
    5
 10
1223.4640103143606
 20
543.99023869371581
 40
20.000000000000004
 41
0.5999999999999999
 50
0
  1
Ｓ＝１：５
  0
LINE
  8
_0-0_計極細
  6
CENTER2
 62
    2
 10
224.05083111913598
 20
583.49999999999864
 11
646.29507298287831
 21
583.49999999999864
  0
LINE
  8
_0-5_寸法線
  6
CONTINUOUS
 62
    7
 10
231.91999999999643
 20
798.49999999999886
 11
231.91999999999652
 21
878.49999999999886
  0
LINE
  8
_0-5_寸法線
  6
CONTINUOUS
 62
    7
 10
231.91999999999652
 20
873.49999999999886
 11
222.26074173710586
 21
870.91180954897368
  0
LINE
  8
_0-5_寸法線
  6
CONTINUOUS
 62
    7
 10
231.91999999999652
 20
873.49999999999886
 11
222.26074173710586
 21
876.08819045102393
  0
LINE
  8
_0-5_寸法線
  6
CONTINUOUS
 62
    7
 10
234.91999999999649
 20
798.49999999999886
 11
234.91999999999655
 21
878.49999999999886
  0
LINE
  8
_0-5_寸法線
  6
CONTINUOUS
 62
    7
 10
206.91999999999652
 20
873.49999999999886
 11
234.91999999999655
 21
873.49999999999886
  0
TEXT
  8
_0-5_寸法線
 62
    7
 10
208.97582977349208
 20
873.49999999999886
 40
15
 41
1
 50
0
  1
3
  0
LINE
  8
_0-5_寸法線
  6
CONTINUOUS
 62
    7
 10
234.91999999999655
 20
873.49999999999886
 11
244.57925826288729
 21
876.08819045102393
  0
LINE
  8
_0-5_寸法線
  6
CONTINUOUS
 62
    7
 10
234.91999999999655
 20
873.49999999999886
 11
244.57925826288721
 21
870.91180954897357
  0
LINE
  8
_0-5_寸法線
  6
CONTINUOUS
 62
    7
 10
638.91999999999587
 20
798.49999999999886
 11
638.91999999999598
 21
878.49999999999886
  0
LINE
  8
_0-5_寸法線
  6
CONTINUOUS
 62
    7
 10
638.91999999999598
 20
873.49999999999886
 11
629.26074173710526
 21
870.91180954897368
  0
LINE
  8
_0-5_寸法線
  6
CONTINUOUS
 62
    7
 10
638.91999999999598
 20
873.49999999999886
 11
629.26074173710526
 21
876.08819045102393
  0
LINE
  8
_0-5_寸法線
  6
CONTINUOUS
 62
    7
 10
234.91999999999655
 20
873.49999999999886
 11
638.91999999999598
 21
873.49999999999886
  0
TEXT
  8
_0-5_寸法線
 62
    7
 10
421.91999999999621
 20
873.49999999999886
 40
15
 41
1
 50
0
  1
Ｗ-6
  0
LINE
  8
_0-5_寸法線
  6
CONTINUOUS
 62
    7
 10
641.91999999999564
 20
798.49999999999886
 11
641.91999999999575
 21
878.49999999999886
  0
LINE
  8
_0-5_寸法線
  6
CONTINUOUS
 62
    7
 10
641.91999999999575
 20
873.49999999999886
 11
651.57925826288647
 21
876.08819045102393
  0
LINE
  8
_0-5_寸法線
  6
CONTINUOUS
 62
    7
 10
641.91999999999575
 20
873.49999999999886
 11
651.57925826288647
 21
870.91180954897357
  0
LINE
  8
_0-5_寸法線
  6
CONTINUOUS
 62
    7
 10
638.91999999999598
 20
873.49999999999886
 11
666.91999999999575
 21
873.49999999999886
  0
TEXT
  8
_0-5_寸法線
 62
    7
 10
657.48545480346252
 20
873.49999999999886
 40
15
 41
1
 50
0
  1
3
  0
LINE
  8
_0-5_寸法線
  6
CONTINUOUS
 62
    7
 10
221.91999999999643
 20
378.49999999999932
 11
141.91999999999643
 21
378.49999999999955
  0
LINE
  8
_0-5_寸法線
  6
CONTINUOUS
 62
    7
 10
146.91999999999643
 20
378.49999999999955
 11
149.50819045102156
 21
368.84074173710877
  0
LINE
  8
_0-5_寸法線
  6
CONTINUOUS
 62
    7
 10
146.91999999999643
 20
378.49999999999955
 11
144.33180954897119
 21
368.84074173710883
  0
LINE
  8
_0-5_寸法線
  6
CONTINUOUS
 62
    7
 10
221.91999999999643
 20
381.49999999999977
 11
141.91999999999643
 21
381.5
  0
LINE
  8
_0-5_寸法線
  6
CONTINUOUS
 62
    7
 10
146.91999999999643
 20
353.49999999999955
 11
146.91999999999643
 21
381.5
  0
TEXT
  8
_0-5_寸法線
 62
    7
 10
146.91999999999643
 20
357.26423080498967
 40
15
 41
1
 50
90
  1
3
  0
LINE
  8
_0-5_寸法線
  6
CONTINUOUS
 62
    7
 10
146.91999999999643
 20
381.5
 11
144.33180954897125
 21
391.15925826289072
  0
LINE
  8
_0-5_寸法線
  6
CONTINUOUS
 62
    7
 10
146.91999999999643
 20
381.5
 11
149.50819045102165
 21
391.15925826289072
  0
LINE
  8
_0-5_寸法線
  6
CONTINUOUS
 62
    7
 10
221.91999999999643
 20
785.49999999999886
 11
141.91999999999643
 21
785.49999999999898
  0
LINE
  8
_0-5_寸法線
  6
CONTINUOUS
 62
    7
 10
146.91999999999643
 20
785.49999999999898
 11
149.50819045102165
 21
775.84074173710837
  0
LINE
  8
_0-5_寸法線
  6
CONTINUOUS
 62
    7
 10
146.91999999999643
 20
785.49999999999898
 11
144.33180954897125
 21
775.84074173710837
  0
LINE
  8
_0-5_寸法線
  6
CONTINUOUS
 62
    7
 10
146.91999999999643
 20
381.5
 11
146.91999999999643
 21
785.49999999999898
  0
TEXT
  8
_0-5_寸法線
 62
    7
 10
146.91999999999638
 20
568.49999999999943
 40
15
 41
1
 50
89.999999999999872
  1
Ｗ-6
  0
LINE
  8
_0-5_寸法線
  6
CONTINUOUS
 62
    7
 10
221.91999999999643
 20
788.49999999999886
 11
141.91999999999643
 21
788.49999999999909
  0
LINE
  8
_0-5_寸法線
  6
CONTINUOUS
 62
    7
 10
146.91999999999643
 20
788.49999999999909
 11
144.33180954897125
 21
798.15925826288981
  0
LINE
  8
_0-5_寸法線
  6
CONTINUOUS
 62
    7
 10
146.91999999999643
 20
788.49999999999909
 11
149.50819045102165
 21
798.15925826288981
  0
LINE
  8
_0-5_寸法線
  6
CONTINUOUS
 62
    7
 10
146.91999999999643
 20
785.49999999999898
 11
146.91999999999643
 21
813.49999999999909
  0
TEXT
  8
_0-5_寸法線
 62
    7
 10
146.91999999999643
 20
801.95509950431301
 40
15
 41
1
 50
90
  1
3
  0
LINE
  8
_0-5_寸法線
  6
CONTINUOUS
 62
    7
 10
937.96638807976922
 20
821.68143390274736
 11
928.30712981687839
 21
819.09324345172206
  0
LINE
  8
_0-5_寸法線
  6
CONTINUOUS
 62
    7
 10
937.96638807976922
 20
821.68143390274736
 11
928.30712981687839
 21
824.26962435377254
  0
LINE
  8
_0-5_寸法線
  6
CONTINUOUS
 62
    7
 10
940.9663880797691
 20
711.1814339027477
 11
940.9663880797691
 21
826.68143390274736
  0
LINE
  8
_0-5_寸法線
  6
CONTINUOUS
 62
    7
 10
912.96638807976922
 20
821.68143390274736
 11
940.9663880797691
 21
821.68143390274736
  0
TEXT
  8
_0-5_寸法線
 62
    7
 10
916.79702294446543
 20
821.68143390274736
 40
15
 41
1
 50
0
  1
3
  0
LINE
  8
_0-5_寸法線
  6
CONTINUOUS
 62
    7
 10
940.9663880797691
 20
821.68143390274736
 11
950.62564634265982
 21
824.26962435377254
  0
LINE
  8
_0-5_寸法線
  6
CONTINUOUS
 62
    7
 10
940.9663880797691
 20
821.68143390274736
 11
950.62564634265982
 21
819.09324345172195
  0
LINE
  8
_0-5_寸法線
  6
CONTINUOUS
 62
    7
 10
1344.9663880797696
 20
711.1814339027477
 11
1344.96638807977
 21
826.68143390274736
  0
LINE
  8
_0-5_寸法線
  6
CONTINUOUS
 62
    7
 10
1344.96638807977
 20
821.68143390274736
 11
1335.3071298168793
 21
819.09324345172206
  0
LINE
  8
_0-5_寸法線
  6
CONTINUOUS
 62
    7
 10
1344.96638807977
 20
821.68143390274736
 11
1335.3071298168793
 21
824.26962435377254
  0
LINE
  8
_0-5_寸法線
  6
CONTINUOUS
 62
    7
 10
940.9663880797691
 20
821.68143390274736
 11
1344.96638807977
 21
821.68143390274736
  0
TEXT
  8
_0-5_寸法線
 62
    7
 10
1127.9663880797696
 20
821.68143390274736
 40
15
 41
1
 50
0
  1
Ｗ-6
  0
LINE
  8
_0-5_寸法線
  6
CONTINUOUS
 62
    7
 10
1347.9663880797702
 20
821.68143390274736
 11
1357.6256463426607
 21
824.26962435377254
  0
LINE
  8
_0-5_寸法線
  6
CONTINUOUS
 62
    7
 10
1347.9663880797702
 20
821.68143390274736
 11
1357.6256463426607
 21
819.09324345172195
  0
LINE
  8
_0-5_寸法線
  6
CONTINUOUS
 62
    7
 10
1344.96638807977
 20
821.68143390274736
 11
1372.9663880797702
 21
821.68143390274736
  0
TEXT
  8
_0-5_寸法線
 62
    7
 10
1361.5885091724024
 20
821.68143390274736
 40
15
 41
1
 50
0
  1
3
  0
TEXT
  8
_0-7_枠細線
 62
    5
 10
1185.9999999999973
 20
329.9640132030197
 40
12.000000000000002
 41
1
 50
0
  1
端125×2
  0
TEXT
  8
_0-7_枠細線
 62
    5
 10
1185.9999999999973
 20
354.96401320301982
 40
12.000000000000002
 41
1
 50
0
  1
端100×2
  0
ENDSEC
  0
EOF
