  0
SECTION
  2
HEADER
  9
$ACADVER
  1
AC1009
  9
$INSBASE
 10
0
 20
0
 30
0
  9
$EXTMIN
 10
0
 20
0
  9
$EXTMAX
 10
1485
 20
1050
  9
$LIMMIN
 10
0
 20
0
  9
$LIMMAX
 10
1485
 20
1050
  9
$LTSCALE
 40
5
  0
ENDSEC
  0
SECTION
  2
TABLES
  0
TABLE
  2
LTYPE
 70
     9
  0
LTYPE
  2
CONTINUOUS
 70
    64
  3
実線
 72
    65
 73
     0
 40
0.0
  0
LTYPE
  2
DASHED1
 70
    64
  3
--  --  --  --  --  --  --  --  
 72
    65
 73
     2
 40
2.5
 49
1.25
 49
-1.25
  0
LTYPE
  2
DASHED2
 70
    64
  3
----    ----    ----    ----    
 72
    65
 73
     2
 40
5.0
 49
2.5
 49
-2.5
  0
LTYPE
  2
DASHED3
 70
    64
  3
------  ------  ------  ------  
 72
    65
 73
     2
 40
5.0
 49
3.75
 49
-1.25
  0
LTYPE
  2
CENTER1
 70
    64
  3
----- - ----- - ----- - ----- - 
 72
    65
 73
     4
 40
10.0
 49
6.25
 49
-1.25
 49
1.25
 49
-1.25
  0
LTYPE
  2
CENTER2
 70
    64
  3
----------  --  ----------  --  
 72
    65
 73
     4
 40
20.0
 49
12.5
 49
-2.5
 49
2.5
 49
-2.5
  0
LTYPE
  2
PHANTOM1
 70
    64
  3
--- - - --- - - --- - - --- - - 
 72
    65
 73
     6
 40
10.0
 49
3.25
 49
-1.25
 49
1.25
 49
-1.25
 49
1.25
 49
-1.25
  0
LTYPE
  2
PHANTOM2
 70
    64
  3
--------  -  -  --------  -  -  
 72
    65
 73
     6
 40
20.0
 49
10.0
 49
-2.5
 49
1.25
 49
-2.5
 49
1.25
 49
-2.5
  0
LTYPE
  2
DOT
 70
    64
  3
-   -   -   -   -   -   -   -   
 72
    65
 73
     2
 40
2.5
 49
0.625
 49
-1.875
  0
LTYPE
  2
DUMMY
 70
    64
  3
ダミー
 72
    65
 73
     0
 40
0.0
  0
LTYPE
  2
RAND1
 70
    64
  3
ランダム線1
 72
    65
 73
     4
 40
10.0
 49
1.0
 49
-2.0
 49
3.0
 49
-4.0
  0
LTYPE
  2
RAND2
 70
    64
  3
ランダム線2
 72
    65
 73
     4
 40
14.0
 49
2.0
 49
-3.0
 49
4.0
 49
-5.0
  0
LTYPE
  2
RAND3
 70
    64
  3
ランダム線3
 72
    65
 73
     4
 40
18.0
 49
3.0
 49
-4.0
 49
5.0
 49
-6.0
  0
LTYPE
  2
RAND4
 70
    64
  3
ランダム線4
 72
    65
 73
     4
 40
22.0
 49
4.0
 49
-5.0
 49
6.0
 49
-7.0
  0
LTYPE
  2
RAND5
 70
    64
  3
ランダム線5
 72
    65
 73
     4
 40
26.0
 49
5.0
 49
-6.0
 49
7.0
 49
-8.0
  0
LTYPE
  2
LONG1
 70
    64
  3
----------  --  ----------  --  
 72
    65
 73
     4
 40
40.0
 49
32.5
 49
-2.5
 49
2.5
 49
-2.5
  0
LTYPE
  2
LONG2
 70
    64
  3
--------  -  -  --------  -  -  
 72
    65
 73
     6
 40
40.0
 49
30.0
 49
-2.5
 49
1.25
 49
-2.5
 49
1.25
 49
-2.5
  0
LTYPE
  2
LONG3
 70
    64
  3
+++++++++++++++..+++++++++++++++
 72
    65
 73
     2
 40
40.0
 49
37.5
 49
-2.5
  0
LTYPE
  2
LONG4
 70
    64
  3
+++++++++++++++..+++++++++++++++
 72
    65
 73
     2
 40
80.0
 49
75.0
 49
-5.0
  0
LTYPE
  2
LONG5
 70
    64
  3
----------  --  ----------  --  
 72
    65
 73
     4
 40
60.0
 49
37.5
 49
-7.5
 49
7.5
 49
-7.5
  0
LTYPE
  2
dashed
 70
   64
  3
-------   -------------   ------
 72
   65
 73
    2
 40
7.5
 49
6
 49
-1.5
  0
LTYPE
  2
dashed_spaced
 70
   64
  3
----        --------        ----
 72
   65
 73
    2
 40
12
 49
6
 49
-6
  0
LTYPE
  2
long_dashed_dotted
 70
   64
  3
------------- --- --------------
 72
   65
 73
    4
 40
15.25
 49
12
 49
-1.5
 49
0.25
 49
-1.5
  0
LTYPE
  2
long_dashed_double-dotted
 70
   64
  3
----------- --- --- ------------
 72
   65
 73
    6
 40
17
 49
12
 49
-1.5
 49
0.25
 49
-1.5
 49
0.25
 49
-1.5
  0
LTYPE
  2
long_dashed_triplicate-dotted
 70
   64
  3
--------- --- --- --- ----------
 72
   65
 73
    8
 40
18.75
 49
12
 49
-1.5
 49
0.25
 49
-1.5
 49
0.25
 49
-1.5
 49
0.25
 49
-1.5
  0
LTYPE
  2
dotted
 70
   64
  3
   -       -       -       -    
 72
   65
 73
    2
 40
1.75
 49
0.25
 49
-1.5
  0
LTYPE
  2
chain
 70
   64
  3
-------------- -- --------------
 72
   65
 73
    4
 40
18.5
 49
12
 49
-1.5
 49
3.5
 49
-1.5
  0
LTYPE
  2
chain_double_dash
 70
   64
  3
------------ -- -- -------------
 72
   65
 73
    6
 40
23.5
 49
12
 49
-1.5
 49
3.5
 49
-1.5
 49
3.5
 49
-1.5
  0
LTYPE
  2
dashed_dotted
 70
   64
  3
-----------     -     ----------
 72
   65
 73
    4
 40
9.25
 49
6
 49
-1.5
 49
0.25
 49
-1.5
  0
LTYPE
  2
double-dashed_dotted
 70
   64
  3
------   -----------   -   -----
 72
   65
 73
    6
 40
16.75
 49
6
 49
-1.5
 49
6
 49
-1.5
 49
0.25
 49
-1.5
  0
LTYPE
  2
dashed_double-dotted
 70
   64
  3
---------    -    -    ---------
 72
   65
 73
    6
 40
11
 49
6
 49
-1.5
 49
0.25
 49
-1.5
 49
0.25
 49
-1.5
  0
LTYPE
  2
double-dashed_double-dotted
 70
   64
  3
-----   ---------   -   -   ----
 72
   65
 73
    8
 40
18.5
 49
6
 49
-1.5
 49
6
 49
-1.5
 49
0.25
 49
-1.5
 49
0.25
 49
-1.5
  0
LTYPE
  2
dashed_triplicate-dotted
 70
   64
  3
-------    -    -    -    ------
 72
   65
 73
    8
 40
12.75
 49
6
 49
-1.5
 49
0.25
 49
-1.5
 49
0.25
 49
-1.5
 49
0.25
 49
-1.5
  0
LTYPE
  2
double-dashed_triplicate-dotted
 70
   64
  3
-----  ---------  -  -  -  -----
 72
   65
 73
   10
 40
20.25
 49
6
 49
-1.5
 49
6
 49
-1.5
 49
0.25
 49
-1.5
 49
0.25
 49
-1.5
 49
0.25
 49
-1.5
  0
LTYPE
  2
undefined
 70
   64
  3
--------------------------------
 72
   65
 73
    0
 40
0
  0
ENDTAB
  0
TABLE
  2
STYLE
  5
3
100
AcDbSymbolTable
 70
     1
  0
STYLE
  5
10
100
AcDbSymbolTableRecord
100
AcDbTextStyleTableRecord
  2
STANDARD
 70
     0
 40
0.0
 41
1.0
 50
0.0
 71
     0
 42
0.2
  3
txt
  4
bigfont.shx
  0
STYLE
  5
26
100
AcDbSymbolTableRecord
100
AcDbTextStyleTableRecord
  2
TATEGAKI
 70
    68
 40
0.0
 41
1.0
 50
0.0
 71
     0
 42
1.0
  3
txt
  4
bigfont.shx
  0
ENDTAB
  0
TABLE
  2
LAYER
 70
   10
  0
LAYER
  2
_0-0_計極細
 70
   64
 62
    7
  6
CONTINUOUS
  0
LAYER
  2
_0-1_計細線
 70
   64
 62
    7
  6
CONTINUOUS
  0
LAYER
  2
_0-5_寸法線
 70
   64
 62
    7
  6
CONTINUOUS
  0
LAYER
  2
_0-7_枠細線
 70
   64
 62
    7
  6
CONTINUOUS
  0
LAYER
  2
_0-8_枠中線
 70
   64
 62
    7
  6
CONTINUOUS
  0
LAYER
  2
_0-9_枠極太
 70
   64
 62
    7
  6
CONTINUOUS
  0
LAYER
  2
_0-a_極細3
 70
   64
 62
    7
  6
CONTINUOUS
  0
LAYER
  2
_0-b_細線3
 70
   64
 62
    7
  6
CONTINUOUS
  0
LAYER
  2
_0-d_寸法3
 70
   64
 62
    7
  6
CONTINUOUS
  0
LAYER
  2
ADD_LINE
 70
   64
 62
    7
  6
CONTINUOUS
  0
ENDTAB
  0
ENDSEC
  0
SECTION
  2
BLOCKS
  0
ENDSEC
  0
SECTION
  2
ENTITIES
  0
LINE
  8
_0-7_枠細線
  6
CONTINUOUS
 62
    5
 10
1425
 20
942.5
 11
890
 21
942.5
  0
TEXT
  8
_0-7_枠細線
 62
    5
 10
895
 20
945
 40
12.5
 41
1
 50
0
  1
記号
  0
TEXT
  8
_0-7_枠細線
 62
    5
 10
996.875
 20
945
 40
12.5
 41
1
 50
0
  1
訂　 正　 記　 事
  0
TEXT
  8
_0-7_枠細線
 62
    5
 10
1181.25
 20
945
 40
12.5
 41
1
 50
0
  1
訂 正 年 月 日
  0
TEXT
  8
_0-7_枠細線
 62
    5
 10
1306.25
 20
945
 40
12.5
 41
1
 50
0
  1
備　　　　　考
  0
LINE
  8
_0-7_枠細線
  6
CONTINUOUS
 62
    5
 10
1185
 20
180
 11
1185
 21
100
  0
TEXT
  8
_0-7_枠細線
 62
    5
 10
937.5
 20
97.5
 40
17.5
 41
1
 50
0
  1
備考
  7
TATEGAKI
  0
TEXT
  8
_0-7_枠細線
 62
    5
 10
937.5
 20
137.5
 40
17.5
 41
1
 50
0
  1
品番
  7
TATEGAKI
  0
TEXT
  8
_0-7_枠細線
 62
    5
 10
937.5
 20
177.5
 40
17.5
 41
1
 50
0
  1
品名
  7
TATEGAKI
  0
LINE
  8
_0-7_枠細線
  6
CONTINUOUS
 62
    5
 10
1185
 20
140
 11
925
 21
140
  0
LINE
  8
_0-7_枠細線
  6
CONTINUOUS
 62
    5
 10
950
 20
180
 11
950
 21
60
  0
LINE
  8
_0-8_枠中線
  6
CONTINUOUS
 62
    5
 10
1425
 20
180
 11
925
 21
180
  0
LINE
  8
_0-8_枠中線
  6
CONTINUOUS
 62
    5
 10
925
 20
180
 11
925
 21
60
  0
LINE
  8
_0-7_枠細線
  6
CONTINUOUS
 62
    5
 10
1245
 20
180
 11
1245
 21
60
  0
TEXT
  8
_0-7_枠細線
 62
    5
 10
1192.5
 20
160
 40
15
 41
1
 50
0
  1
縮　尺
  0
TEXT
  8
_0-7_枠細線
 62
    5
 10
1194
 20
117.5
 40
20
 41
0.7000000000000001
 50
0
  1
１：５
  0
LINE
  8
_0-7_枠細線
  6
CONTINUOUS
 62
    5
 10
1185
 20
155
 11
1245
 21
155
  0
LINE
  8
_0-7_枠細線
  6
CONTINUOUS
 62
    5
 10
1245
 20
100
 11
925
 21
100
  0
LINE
  8
_0-7_枠細線
  6
CONTINUOUS
 62
    5
 10
1425
 20
90
 11
1245
 21
90
  0
LINE
  8
_0-7_枠細線
  6
CONTINUOUS
 62
    5
 10
1245
 20
120
 11
1425
 21
120
  0
LINE
  8
_0-7_枠細線
  6
CONTINUOUS
 62
    5
 10
1425
 20
140
 11
1245
 21
140
  0
TEXT
  8
_0-7_枠細線
 62
    5
 10
1255
 20
147.5
 40
25
 41
0.8
 50
0
  1
株式会社シマブン
  0
TEXT
  8
_0-7_枠細線
 62
    5
 10
1252.5
 20
60
 40
15
 41
1
 50
0
  1
年月日
  0
TEXT
  8
_0-7_枠細線
 62
    5
 10
1252.5
 20
75
 40
15
 41
1
 50
0
  1
作　成
  0
TEXT
  8
_0-7_枠細線
 62
    5
 10
1256.25
 20
122.5
 40
15
 41
1
 50
0
  1
承 認
  0
LINE
  8
_0-7_枠細線
  6
CONTINUOUS
 62
    5
 10
1305
 20
140
 11
1305
 21
60
  0
TEXT
  8
_0-7_枠細線
 62
    5
 10
1316.25
 20
122.5
 40
15
 41
1
 50
0
  1
検 図
  0
LINE
  8
_0-7_枠細線
  6
CONTINUOUS
 62
    5
 10
1365
 20
140
 11
1365
 21
90
  0
TEXT
  8
_0-7_枠細線
 62
    5
 10
1375
 20
95
 40
20
 41
1
 50
0
  1
藤戸
  0
TEXT
  8
_0-7_枠細線
 62
    5
 10
1376.25
 20
122.5
 40
15
 41
1
 50
0
  1
設 計
  0
TEXT
  8
_0-7_枠細線
 62
    5
 10
1255
 20
95
 40
20
 41
1
 50
0
  1
隠塚
  0
TEXT
  8
_0-7_枠細線
 62
    5
 10
1315
 20
95
 40
20
 41
1
 50
0
  1
渋田
  0
TEXT
  8
_0-7_枠細線
 62
    5
 10
965.50000000000011
 20
150
 40
20
 41
0.5
 50
0
  1
Ｔバー ステンレスグレーチング Ｈ２０タイプ
  0
TEXT
  8
_0-7_枠細線
 62
    5
 10
1310
 20
67.5
 40
15
 41
0.6666666666666666
 50
0
  1
２０１２年０２月２９日
  0
LINE
  8
_0-7_枠細線
  6
CONTINUOUS
 62
    5
 10
1425
 20
925
 11
890
 21
925
  0
TEXT
  8
_0-7_枠細線
 62
    5
 10
938.85037037037023
 20
927.5
 40
12.500000000000002
 41
1
 50
0
  1
品番変更
  0
TEXT
  8
_0-7_枠細線
 62
    5
 10
1180
 20
927.5
 40
12.5
 41
0.7199999999999999
 50
0
  1
２０１５．０４．０１
  0
LINE
  8
_0-a_極細3
  6
CENTER1
 62
    7
 10
470.43065977017199
 20
243.71560987248384
 11
470.43065977017199
 21
307.16560987249022
  0
LINE
  8
_0-b_細線3
  6
CONTINUOUS
 62
    7
 10
477.0973264368385
 20
294.56810602460064
 11
477.0973264368385
 21
296.56810602460064
  0
LINE
  8
_0-b_細線3
  6
CONTINUOUS
 62
    7
 10
471.43065977017204
 20
294.56810602460064
 11
477.0973264368385
 21
294.56810602460064
  0
LINE
  8
_0-b_細線3
  6
CONTINUOUS
 62
    7
 10
471.43065977017204
 20
263.23477269126715
 11
471.43065977017204
 21
294.56810602460064
  0
LINE
  8
_0-b_細線3
  6
CONTINUOUS
 62
    7
 10
469.43065977017199
 20
263.23477269126715
 11
471.43065977017204
 21
263.23477269126715
  0
LINE
  8
_0-b_細線3
  6
CONTINUOUS
 62
    7
 10
469.43065977017199
 20
294.56810602460064
 11
469.43065977017199
 21
263.23477269126715
  0
LINE
  8
_0-b_細線3
  6
CONTINUOUS
 62
    7
 10
463.76399310350507
 20
294.56810602460064
 11
469.43065977017199
 21
294.56810602460064
  0
LINE
  8
_0-b_細線3
  6
CONTINUOUS
 62
    7
 10
463.76399310350507
 20
296.56810602460064
 11
463.76399310350507
 21
294.56810602460064
  0
LINE
  8
_0-b_細線3
  6
CONTINUOUS
 62
    7
 10
477.0973264368385
 20
296.56810602460064
 11
463.76399310350507
 21
296.56810602460064
  0
ARC
  8
_0-b_細線3
  6
CONTINUOUS
 62
    7
 10
528.76399310350507
 20
317.70421713571159
 40
46.136111111111113
 50
256.63227178393225
 51
283.36772821606758
  0
ARC
  8
_0-b_細線3
  6
CONTINUOUS
 62
    7
 10
528.76399310350507
 20
242.0986615801562
 40
46.136111111111113
 50
76.632271783932026
 51
103.36772821606742
  0
LINE
  8
_0-b_細線3
  6
CONTINUOUS
 62
    7
 10
547.09732643683856
 20
294.56810602460064
 11
547.09732643683856
 21
296.56810602460064
  0
LINE
  8
_0-b_細線3
  6
CONTINUOUS
 62
    7
 10
541.43065977017159
 20
294.56810602460064
 11
547.09732643683856
 21
294.56810602460064
  0
LINE
  8
_0-b_細線3
  6
CONTINUOUS
 62
    7
 10
541.43065977017159
 20
263.23477269126715
 11
541.43065977017159
 21
294.56810602460064
  0
LINE
  8
_0-b_細線3
  6
CONTINUOUS
 62
    7
 10
539.43065977017204
 20
263.23477269126715
 11
541.43065977017159
 21
263.23477269126715
  0
LINE
  8
_0-b_細線3
  6
CONTINUOUS
 62
    7
 10
539.43065977017204
 20
294.56810602460064
 11
539.43065977017204
 21
263.23477269126715
  0
LINE
  8
_0-b_細線3
  6
CONTINUOUS
 62
    7
 10
533.76399310350507
 20
294.56810602460064
 11
539.43065977017204
 21
294.56810602460064
  0
LINE
  8
_0-b_細線3
  6
CONTINUOUS
 62
    7
 10
533.76399310350507
 20
296.56810602460064
 11
533.76399310350507
 21
294.56810602460064
  0
LINE
  8
_0-b_細線3
  6
CONTINUOUS
 62
    7
 10
547.09732643683856
 20
296.56810602460064
 11
533.76399310350507
 21
296.56810602460064
  0
ARC
  8
_0-b_細線3
  6
CONTINUOUS
 62
    7
 10
505.4306597701725
 20
317.70421713571159
 40
46.136111111111113
 50
256.63227178393225
 51
283.36772821606769
  0
ARC
  8
_0-b_細線3
  6
CONTINUOUS
 62
    7
 10
505.4306597701725
 20
242.0986615801562
 40
46.136111111111113
 50
76.632271783931969
 51
103.36772821606742
  0
LINE
  8
_0-b_細線3
  6
CONTINUOUS
 62
    7
 10
523.76399310350598
 20
294.56810602460064
 11
523.76399310350598
 21
296.56810602460064
  0
LINE
  8
_0-b_細線3
  6
CONTINUOUS
 62
    7
 10
518.09732643683901
 20
294.56810602460064
 11
523.76399310350598
 21
294.56810602460064
  0
LINE
  8
_0-b_細線3
  6
CONTINUOUS
 62
    7
 10
518.09732643683901
 20
263.23477269126715
 11
518.09732643683901
 21
294.56810602460064
  0
LINE
  8
_0-b_細線3
  6
CONTINUOUS
 62
    7
 10
516.09732643683947
 20
263.23477269126715
 11
518.09732643683901
 21
263.23477269126715
  0
LINE
  8
_0-b_細線3
  6
CONTINUOUS
 62
    7
 10
516.09732643683947
 20
294.56810602460064
 11
516.09732643683947
 21
263.23477269126715
  0
LINE
  8
_0-b_細線3
  6
CONTINUOUS
 62
    7
 10
510.4306597701725
 20
294.56810602460064
 11
516.09732643683947
 21
294.56810602460064
  0
LINE
  8
_0-b_細線3
  6
CONTINUOUS
 62
    7
 10
510.4306597701725
 20
296.56810602460064
 11
510.4306597701725
 21
294.56810602460064
  0
LINE
  8
_0-b_細線3
  6
CONTINUOUS
 62
    7
 10
523.76399310350598
 20
296.56810602460064
 11
510.4306597701725
 21
296.56810602460064
  0
ARC
  8
_0-b_細線3
  6
CONTINUOUS
 62
    7
 10
482.09732643683992
 20
317.70421713571159
 40
46.136111111111113
 50
256.63227178393225
 51
283.36772821606758
  0
ARC
  8
_0-b_細線3
  6
CONTINUOUS
 62
    7
 10
482.09732643683992
 20
242.0986615801562
 40
46.136111111111113
 50
76.632271783932026
 51
103.36772821606742
  0
LINE
  8
_0-b_細線3
  6
CONTINUOUS
 62
    7
 10
500.43065977017335
 20
294.56810602460064
 11
500.43065977017335
 21
296.56810602460064
  0
LINE
  8
_0-b_細線3
  6
CONTINUOUS
 62
    7
 10
494.76399310350644
 20
294.56810602460064
 11
500.43065977017335
 21
294.56810602460064
  0
LINE
  8
_0-b_細線3
  6
CONTINUOUS
 62
    7
 10
494.76399310350644
 20
263.23477269126715
 11
494.76399310350644
 21
294.56810602460064
  0
LINE
  8
_0-b_細線3
  6
CONTINUOUS
 62
    7
 10
492.76399310350683
 20
263.23477269126715
 11
494.76399310350644
 21
263.23477269126715
  0
LINE
  8
_0-b_細線3
  6
CONTINUOUS
 62
    7
 10
492.76399310350683
 20
294.56810602460064
 11
492.76399310350683
 21
263.23477269126715
  0
LINE
  8
_0-b_細線3
  6
CONTINUOUS
 62
    7
 10
487.09732643683992
 20
294.56810602460064
 11
492.76399310350683
 21
294.56810602460064
  0
LINE
  8
_0-b_細線3
  6
CONTINUOUS
 62
    7
 10
487.09732643683992
 20
296.56810602460064
 11
487.09732643683992
 21
294.56810602460064
  0
LINE
  8
_0-b_細線3
  6
CONTINUOUS
 62
    7
 10
500.43065977017335
 20
296.56810602460064
 11
487.09732643683992
 21
296.56810602460064
  0
CIRCLE
  8
_0-a_極細3
  6
CONTINUOUS
 62
    7
 10
278.71423256698915
 20
281.52707199681572
 40
0.5530864197530718
  0
LINE
  8
_0-a_極細3
  6
CONTINUOUS
 62
    7
 10
283.76399310350507
 20
296.56810602460064
 11
283.76399310350507
 21
284.90143935793367
  0
LINE
  8
_0-a_極細3
  6
CONTINUOUS
 62
    7
 10
292.0973264368385
 20
284.90143935793367
 11
194.58624595839041
 21
284.90143935793367
  0
LINE
  8
_0-a_極細3
  6
CONTINUOUS
 62
    7
 10
292.0973264368385
 20
295.73477269126715
 11
292.0973264368385
 21
296.56810602460064
  0
LINE
  8
_0-a_極細3
  6
CONTINUOUS
 62
    7
 10
291.89923618047891
 20
284.90143935793367
 11
292.0973264368381
 21
285.09952961429326
  0
LINE
  8
_0-a_極細3
  6
CONTINUOUS
 62
    7
 10
287.65659549335976
 20
284.90143935793367
 11
292.0973264368385
 21
289.34217030141235
  0
LINE
  8
_0-a_極細3
  6
CONTINUOUS
 62
    7
 10
283.76399310350507
 20
285.25147765519841
 11
292.0973264368385
 21
293.58481098853144
  0
LINE
  8
_0-a_極細3
  6
CONTINUOUS
 62
    7
 10
283.76399310350507
 20
289.49411834231751
 11
290.83798078578764
 21
296.56810602460064
  0
LINE
  8
_0-a_極細3
  6
CONTINUOUS
 62
    7
 10
283.76399310350507
 20
293.73675902943705
 11
286.5953400986686
 21
296.56810602460064
  0
LINE
  8
_0-a_極細3
  6
CONTINUOUS
 62
    7
 10
292.0973264368385
 20
294.28713915234175
 11
289.81635956458007
 21
296.56810602460064
  0
LINE
  8
_0-a_極細3
  6
CONTINUOUS
 62
    7
 10
292.0973264368385
 20
290.04449846522266
 11
285.57371887746058
 21
296.56810602460064
  0
LINE
  8
_0-a_極細3
  6
CONTINUOUS
 62
    7
 10
283.76399310350507
 20
294.1351911114366
 11
292.0973264368385
 21
285.80185777810357
  0
LINE
  8
_0-a_極細3
  6
CONTINUOUS
 62
    7
 10
283.76399310350507
 20
289.89255042431751
 11
288.75510416988845
 21
284.90143935793367
  0
LINE
  8
_0-a_極細3
  6
CONTINUOUS
 62
    7
 10
283.76399310350507
 20
285.64990973719796
 11
284.51246348276931
 21
284.90143935793367
  0
LINE
  8
_0-a_極細3
  6
CONTINUOUS
 62
    7
 10
274.92867342587436
 20
284.9014393518064
 11
283.76399310350507
 21
293.73675902943705
  0
LINE
  8
_0-a_極細3
  6
CONTINUOUS
 62
    7
 10
253.71546997556692
 20
284.90143933709533
 11
265.38213666307229
 21
296.56810602460018
  0
LINE
  8
_0-a_極細3
  6
CONTINUOUS
 62
    7
 10
232.50226652525902
 20
284.90143932238379
 11
244.16893322747541
 21
296.56810602460064
  0
LINE
  8
_0-a_極細3
  6
CONTINUOUS
 62
    7
 10
211.28906307495114
 20
284.90143930767272
 11
222.95572979187909
 21
296.56810602460064
  0
LINE
  8
_0-a_極細3
  6
CONTINUOUS
 62
    7
 10
194.58624595839041
 20
289.41182562670792
 11
201.74252635628264
 21
296.56810602460018
  0
LINE
  8
_0-a_極細3
  6
DASHED2
 62
    7
 10
264.32207170072058
 20
284.90143934445086
 11
275.98873838087047
 21
296.56810602460064
  0
LINE
  8
_0-a_極細3
  6
DASHED2
 62
    7
 10
243.1088682504128
 20
284.90143932973933
 11
254.77553494527405
 21
296.56810602460064
  0
LINE
  8
_0-a_極細3
  6
DASHED2
 62
    7
 10
221.89566480010527
 20
284.90143931502826
 11
233.56233150967725
 21
296.56810602460064
  0
LINE
  8
_0-a_極細3
  6
DASHED2
 62
    7
 10
200.68246134979745
 20
284.90143930031718
 11
212.34912807408085
 21
296.56810602460064
  0
CIRCLE
  8
_0-a_極細3
  6
CONTINUOUS
 62
    7
 10
212.48213380155761
 20
275.10484977459373
 40
0.5530864197530718
  0
CIRCLE
  8
_0-a_極細3
  6
CONTINUOUS
 62
    7
 10
253.82534367810052
 20
279.90484977459391
 40
0.5530864197530718
  0
CIRCLE
  8
_0-a_極細3
  6
CONTINUOUS
 62
    7
 10
222.81877953222093
 20
280.71100725916813
 40
1.825531472681392
  0
CIRCLE
  8
_0-a_極細3
  6
CONTINUOUS
 62
    7
 10
202.62169999114164
 20
281.60361520669267
 40
1.825531472681392
  0
LINE
  8
_0-a_極細3
  6
CONTINUOUS
 62
    7
 10
292.0973264368385
 20
296.56810602460064
 11
194.58624595839041
 21
296.56810602460064
  0
LINE
  8
_0-a_極細3
  6
CONTINUOUS
 62
    7
 10
225.4306597701715
 20
251.56810602460041
 11
225.4306597701715
 21
183.23477269126712
  0
LINE
  8
_0-a_極細3
  6
CONTINUOUS
 62
    7
 10
308.76399310350507
 20
183.23477269126712
 11
225.4306597701715
 21
183.23477269126712
  0
LINE
  8
_0-a_極細3
  6
CONTINUOUS
 62
    7
 10
225.4306597701715
 20
251.56810602460041
 11
194.58624595839041
 21
251.56810602460041
  0
LINE
  8
_0-a_極細3
  6
CONTINUOUS
 62
    7
 10
308.76399310350507
 20
183.23477269126712
 11
308.76399310350507
 21
156.99317239648806
  0
LINE
  8
_0-a_極細3
  6
CONTINUOUS
 62
    7
 10
271.34201853851522
 20
156.99317251292499
 11
297.58361871685793
 21
183.23477269126712
  0
LINE
  8
_0-a_極細3
  6
CONTINUOUS
 62
    7
 10
200.63134063987391
 20
156.99317273293809
 11
226.87294059820303
 21
183.23477269126712
  0
LINE
  8
_0-a_極細3
  6
CONTINUOUS
 62
    7
 10
194.58624595839041
 20
221.65875617010943
 11
224.49559581288162
 21
251.56810602460041
  0
LINE
  8
_0-a_極細3
  6
CONTINUOUS
 62
    7
 10
264.2709507486511
 20
156.99317253492632
 11
290.51255090499211
 21
183.23477269126712
  0
LINE
  8
_0-a_極細3
  6
CONTINUOUS
 62
    7
 10
194.58624595839041
 20
158.01914586332009
 11
225.4306597701715
 21
188.86355967510141
  0
LINE
  8
_0-a_極細3
  6
CONTINUOUS
 62
    7
 10
194.58624595839041
 20
228.72982398197496
 11
217.42452800101589
 21
251.56810602460041
  0
LINE
  8
_0-a_極細3
  6
CONTINUOUS
 62
    7
 10
257.19988295878738
 20
156.99317255692768
 11
283.44148309312686
 21
183.23477269126712
  0
LINE
  8
_0-a_極細3
  6
CONTINUOUS
 62
    7
 10
194.58624595839041
 20
165.09021367518562
 11
225.4306597701715
 21
195.93462748696695
  0
LINE
  8
_0-a_極細3
  6
CONTINUOUS
 62
    7
 10
194.58624595839041
 20
235.80089179384029
 11
210.35346018915055
 21
251.56810602460041
  0
CIRCLE
  8
_0-a_極細3
  6
CONTINUOUS
 62
    7
 10
202.15126960402714
 20
256.81596088570495
 40
0.5530864197530718
  0
CIRCLE
  8
_0-a_極細3
  6
CONTINUOUS
 62
    7
 10
212.7586770114344
 20
257.88262755237156
 40
0.5530864197530718
  0
CIRCLE
  8
_0-a_極細3
  6
CONTINUOUS
 62
    7
 10
225.38089923365661
 20
259.83818310792708
 40
0.5530864197530718
  0
CIRCLE
  8
_0-a_極細3
  6
CONTINUOUS
 62
    7
 10
284.40312145587814
 20
265.34929421903826
 40
0.5530864197530718
  0
CIRCLE
  8
_0-a_極細3
  6
CONTINUOUS
 62
    7
 10
259.51423256698945
 20
264.81596088570495
 40
0.5530864197530718
  0
CIRCLE
  8
_0-a_極細3
  6
CONTINUOUS
 62
    7
 10
232.32534367810104
 20
252.5826275523716
 40
0.5530864197530718
  0
CIRCLE
  8
_0-a_極細3
  6
CONTINUOUS
 62
    7
 10
252.76978812254484
 20
251.33818310792708
 40
0.5530864197530718
  0
CIRCLE
  8
_0-a_極細3
  6
CONTINUOUS
 62
    7
 10
277.83645478921142
 20
247.60484977459399
 40
0.5530864197530718
  0
CIRCLE
  8
_0-a_極細3
  6
CONTINUOUS
 62
    7
 10
265.21423256698927
 20
241.91596088570509
 40
0.5530864197530718
  0
CIRCLE
  8
_0-a_極細3
  6
CONTINUOUS
 62
    7
 10
250.45867701143422
 20
228.40484977459394
 40
0.5530864197530718
  0
CIRCLE
  8
_0-a_極細3
  6
CONTINUOUS
 62
    7
 10
277.83645478921142
 20
235.69373866348292
 40
0.5530864197530718
  0
CIRCLE
  8
_0-a_極細3
  6
CONTINUOUS
 62
    7
 10
236.72534367810059
 20
208.58262755237206
 40
0.5530864197530718
  0
CIRCLE
  8
_0-a_極細3
  6
CONTINUOUS
 62
    7
 10
231.0364547892118
 20
190.62707199681654
 40
0.5530864197530718
  0
CIRCLE
  8
_0-a_極細3
  6
CONTINUOUS
 62
    7
 10
239.747565900323
 20
197.38262755237201
 40
0.5530864197530718
  0
CIRCLE
  8
_0-a_極細3
  6
CONTINUOUS
 62
    7
 10
245.9697881225452
 20
188.84929421903877
 40
0.5530864197530718
  0
CIRCLE
  8
_0-a_極細3
  6
CONTINUOUS
 62
    7
 10
285.26978812254481
 20
206.73818310792765
 40
0.5530864197530718
  0
CIRCLE
  8
_0-a_極細3
  6
CONTINUOUS
 62
    7
 10
274.06978812254511
 20
201.22707199681642
 40
0.5530864197530718
  0
CIRCLE
  8
_0-a_極細3
  6
CONTINUOUS
 62
    7
 10
280.29201034476728
 20
198.73818310792763
 40
0.5530864197530718
  0
CIRCLE
  8
_0-a_極細3
  6
CONTINUOUS
 62
    7
 10
276.73645478921162
 20
189.49373866348338
 40
0.5530864197530718
  0
CIRCLE
  8
_0-a_極細3
  6
CONTINUOUS
 62
    7
 10
296.6475659003226
 20
190.56040533014993
 40
0.5530864197530718
  0
CIRCLE
  8
_0-a_極細3
  6
CONTINUOUS
 62
    7
 10
309.62534367810019
 20
193.76040533015001
 40
0.5530864197530718
  0
CIRCLE
  8
_0-a_極細3
  6
CONTINUOUS
 62
    7
 10
323.31423256698912
 20
178.82707199681681
 40
0.5530864197530718
  0
CIRCLE
  8
_0-a_極細3
  6
CONTINUOUS
 62
    7
 10
316.38089923365567
 20
163.89373866348342
 40
0.5530864197530718
  0
CIRCLE
  8
_0-a_極細3
  6
CONTINUOUS
 62
    7
 10
299.71423256698927
 20
207.50855347829796
 40
0.5530864197530718
  0
CIRCLE
  8
_0-a_極細3
  6
CONTINUOUS
 62
    7
 10
314.46978812254474
 20
241.64188681163114
 40
0.5530864197530718
  0
CIRCLE
  8
_0-a_極細3
  6
CONTINUOUS
 62
    7
 10
329.58089923365554
 20
231.68633125607562
 40
0.5530864197530718
  0
CIRCLE
  8
_0-a_極細3
  6
CONTINUOUS
 62
    7
 10
330.11423256698885
 20
213.7307757005201
 40
0.5530864197530718
  0
CIRCLE
  8
_0-a_極細3
  6
CONTINUOUS
 62
    7
 10
294.86978812254478
 20
243.46410903385322
 40
0.5530864197530718
  0
CIRCLE
  8
_0-a_極細3
  6
CONTINUOUS
 62
    7
 10
274.58089923365606
 20
265.4480596511371
 40
1.825531472681392
  0
CIRCLE
  8
_0-a_極細3
  6
CONTINUOUS
 62
    7
 10
249.3586770114338
 20
242.64805965113715
 40
1.825531472681392
  0
CIRCLE
  8
_0-a_極細3
  6
CONTINUOUS
 62
    7
 10
229.75867701143392
 20
204.6480596511376
 40
1.825531472681392
  0
CIRCLE
  8
_0-a_極細3
  6
CONTINUOUS
 62
    7
 10
282.95867701143328
 20
191.84805965113787
 40
1.825531472681392
  0
CIRCLE
  8
_0-a_極細3
  6
CONTINUOUS
 62
    7
 10
318.93645478921093
 20
188.24805965113796
 40
1.825531472681392
  0
CIRCLE
  8
_0-a_極細3
  6
CONTINUOUS
 62
    7
 10
323.73645478921071
 20
169.58139298447151
 40
1.825531472681392
  0
LINE
  8
_0-a_極細3
  6
CONTINUOUS
 62
    7
 10
341.26399310350502
 20
258.23477269126715
 11
342.0973264368385
 21
258.23477269126715
  0
LINE
  8
_0-a_極細3
  6
CONTINUOUS
 62
    7
 10
342.0973264368385
 20
258.23477269126715
 11
342.0973264368385
 21
156.99317239648806
  0
CIRCLE
  8
_0-a_極細3
  6
CONTINUOUS
 62
    7
 10
335.20989228920962
 20
242.24805965113774
 40
1.825531472681392
  0
CIRCLE
  8
_0-a_極細3
  6
CONTINUOUS
 62
    7
 10
334.21793627069241
 20
187.53818310792781
 40
0.5530864197530718
  0
CIRCLE
  8
_0-a_極細3
  6
CONTINUOUS
 62
    7
 10
335.5512696040264
 20
164.882112074758
 40
0.5530864197530718
  0
CIRCLE
  8
_0-a_極細3
  6
CONTINUOUS
 62
    7
 10
323.18089923365136
 20
223.13694854002691
 40
1.825531472681392
  0
LINE
  8
_0-a_極細3
  6
CONTINUOUS
 62
    7
 10
248.45725821635318
 20
208.11647385377071
 11
243.32695606646794
 21
222.21186316555918
  0
LINE
  8
_0-a_極細3
  6
CONTINUOUS
 62
    7
 10
298.45130089014964
 20
242.27548386480547
 11
303.58160304003439
 21
228.18009455301694
  0
LINE
  8
_0-a_極細3
  6
CONTINUOUS
 62
    7
 10
243.32695606646794
 20
222.21186316555918
 11
298.45130089014964
 21
242.27548386480547
  0
LINE
  8
_0-a_極細3
  6
CONTINUOUS
 62
    7
 10
248.45725821635318
 20
208.11647385377071
 11
303.58160304003439
 21
228.18009455301694
  0
LINE
  8
_0-a_極細3
  6
CENTER1
 62
    7
 10
240.93667374941788
 20
213.360538469635
 11
304.96769423198361
 21
236.66592395467049
  0
LINE
  8
_0-a_極細3
  6
CONTINUOUS
 62
    7
 10
267.0973264368385
 20
183.23477269126712
 11
267.0973264368385
 21
227.32033403958326
  0
LINE
  8
_0-a_極細3
  6
CONTINUOUS
 62
    7
 10
267.0973264368385
 20
227.32033403958326
 11
252.0973264368385
 21
227.32033403958326
  0
LINE
  8
_0-a_極細3
  6
CONTINUOUS
 62
    7
 10
252.0973264368385
 20
227.32033403958326
 11
252.0973264368385
 21
183.23477269126712
  0
CIRCLE
  8
_0-a_極細3
  6
CONTINUOUS
 62
    7
 10
281.47719552995238
 20
213.15670162644597
 40
1.825531472681392
  0
CIRCLE
  8
_0-a_極細3
  6
CONTINUOUS
 62
    7
 10
303.18583750526108
 20
219.37892384866839
 40
1.825531472681392
  0
LINE
  8
_0-a_極細3
  6
CENTER1
 62
    7
 10
259.5973264368385
 20
174.95803240681425
 11
259.5973264368385
 21
231.59605420419282
  0
LINE
  8
_0-d_寸法3
  6
CONTINUOUS
 62
    7
 10
282.0973264368385
 20
296.5681060246007
 11
236.14729535824878
 21
296.56810602460064
  0
LINE
  8
_0-d_寸法3
  6
CONTINUOUS
 62
    7
 10
241.14729535824878
 20
296.56810602460064
 11
243.73548580927391
 21
286.90884776170992
  0
LINE
  8
_0-d_寸法3
  6
CONTINUOUS
 62
    7
 10
241.14729535824878
 20
296.56810602460064
 11
238.55910490722351
 21
286.90884776170998
  0
LINE
  8
_0-d_寸法3
  6
CONTINUOUS
 62
    7
 10
280.09732643683844
 20
258.23477269126721
 11
236.14729535824921
 21
258.23477269126715
  0
LINE
  8
_0-d_寸法3
  6
CONTINUOUS
 62
    7
 10
241.14729535824921
 20
258.23477269126715
 11
238.55910490722394
 21
267.89403095415781
  0
LINE
  8
_0-d_寸法3
  6
CONTINUOUS
 62
    7
 10
241.14729535824921
 20
258.23477269126715
 11
243.73548580927439
 21
267.89403095415787
  0
LINE
  8
_0-d_寸法3
  6
CONTINUOUS
 62
    7
 10
241.14729535824878
 20
296.56810602460064
 11
241.14729535824921
 21
258.23477269126715
  0
TEXT
  8
_0-d_寸法3
 62
    7
 10
241.14729535824921
 20
269.9014393579339
 40
15
 41
1
 50
90
  1
23
  0
LINE
  8
_0-d_寸法3
  6
CONTINUOUS
 62
    7
 10
282.0973264368385
 20
258.23477269126698
 11
236.14729535824921
 21
258.23477269126693
  0
LINE
  8
_0-d_寸法3
  6
CONTINUOUS
 62
    7
 10
241.14729535824921
 20
258.23477269126693
 11
243.73548580927434
 21
248.57551442837627
  0
LINE
  8
_0-d_寸法3
  6
CONTINUOUS
 62
    7
 10
241.14729535824921
 20
258.23477269126693
 11
238.55910490722394
 21
248.57551442837629
  0
LINE
  8
_0-d_寸法3
  6
CONTINUOUS
 62
    7
 10
280.09732643683844
 20
219.9014393579337
 11
236.14729535824921
 21
219.9014393579337
  0
LINE
  8
_0-d_寸法3
  6
CONTINUOUS
 62
    7
 10
241.14729535824921
 20
219.9014393579337
 11
238.55910490722394
 21
229.56069762082436
  0
LINE
  8
_0-d_寸法3
  6
CONTINUOUS
 62
    7
 10
241.14729535824921
 20
219.9014393579337
 11
243.73548580927439
 21
229.56069762082436
  0
LINE
  8
_0-d_寸法3
  6
CONTINUOUS
 62
    7
 10
241.14729535824921
 20
258.23477269126693
 11
241.14729535824921
 21
219.9014393579337
  0
TEXT
  8
_0-d_寸法3
 62
    7
 10
241.14729535824921
 20
231.56810602460041
 40
15
 41
1
 50
90
  1
23
  0
LINE
  8
_0-d_寸法3
  6
CONTINUOUS
 62
    7
 10
292.09732643683833
 20
209.9014393579339
 11
292.09732643683822
 21
192.7567474570285
  0
LINE
  8
_0-d_寸法3
  6
CONTINUOUS
 62
    7
 10
292.09732643683827
 20
197.7567474570285
 11
301.75658469972893
 21
200.34493790805371
  0
LINE
  8
_0-d_寸法3
  6
CONTINUOUS
 62
    7
 10
292.09732643683827
 20
197.7567474570285
 11
301.75658469972893
 21
195.16855700600331
  0
LINE
  8
_0-d_寸法3
  6
CONTINUOUS
 62
    7
 10
342.09732643683833
 20
248.23477269126715
 11
342.09732643683759
 21
192.7567474570285
  0
LINE
  8
_0-d_寸法3
  6
CONTINUOUS
 62
    7
 10
342.09732643683759
 20
197.7567474570285
 11
332.43806817394693
 21
195.16855700600331
  0
LINE
  8
_0-d_寸法3
  6
CONTINUOUS
 62
    7
 10
342.09732643683759
 20
197.7567474570285
 11
332.43806817394693
 21
200.34493790805371
  0
LINE
  8
_0-d_寸法3
  6
CONTINUOUS
 62
    7
 10
292.09732643683827
 20
197.7567474570285
 11
342.09732643683759
 21
197.7567474570285
  0
TEXT
  8
_0-d_寸法3
 62
    7
 10
309.5973264368381
 20
197.7567474570285
 40
15
 41
1
 50
0
  1
30
  0
ARC
  8
_0-b_細線3
  6
CONTINUOUS
 62
    7
 10
297.0973264368385
 20
263.23477269126715
 40
5
 50
179.99999999999983
 51
269.99999999999977
  0
LINE
  8
_0-b_細線3
  6
CONTINUOUS
 62
    7
 10
292.0973264368385
 20
263.23477269126715
 11
292.0973264368385
 21
295.73477269126715
  0
LINE
  8
_0-b_細線3
  6
CONTINUOUS
 62
    7
 10
297.0973264368385
 20
258.23477269126715
 11
341.26399310350502
 21
258.23477269126715
  0
LINE
  8
_0-b_細線3
  6
CONTINUOUS
 62
    7
 10
342.0973264368385
 20
259.06810602460041
 11
341.26399310350502
 21
258.23477269126715
  0
LINE
  8
_0-b_細線3
  6
CONTINUOUS
 62
    7
 10
342.0973264368385
 20
262.4014393579339
 11
342.0973264368385
 21
259.06810602460041
  0
LINE
  8
_0-b_細線3
  6
CONTINUOUS
 62
    7
 10
341.26399310350502
 20
263.23477269126715
 11
342.0973264368385
 21
262.4014393579339
  0
LINE
  8
_0-b_細線3
  6
CONTINUOUS
 62
    7
 10
297.0973264368385
 20
263.23477269126715
 11
341.26399310350502
 21
263.23477269126715
  0
LINE
  8
_0-b_細線3
  6
CONTINUOUS
 62
    7
 10
292.93065977017147
 20
296.56810602460064
 11
292.0973264368385
 21
295.73477269126715
  0
LINE
  8
_0-b_細線3
  6
CONTINUOUS
 62
    7
 10
296.26399310350507
 20
296.56810602460064
 11
292.93065977017147
 21
296.56810602460064
  0
LINE
  8
_0-b_細線3
  6
CONTINUOUS
 62
    7
 10
297.0973264368385
 20
295.73477269126715
 11
296.26399310350507
 21
296.56810602460064
  0
LINE
  8
_0-b_細線3
  6
CONTINUOUS
 62
    7
 10
297.0973264368385
 20
263.23477269126715
 11
297.0973264368385
 21
295.73477269126715
  0
ARC
  8
_0-b_細線3
  6
CONTINUOUS
 62
    7
 10
365.43065977017199
 20
317.70421713571159
 40
46.136111111111113
 50
256.63227178393169
 51
283.36772821606706
  0
ARC
  8
_0-b_細線3
  6
CONTINUOUS
 62
    7
 10
365.43065977017199
 20
242.0986615801562
 40
46.136111111111113
 50
76.63227178393258
 51
103.36772821606797
  0
LINE
  8
_0-b_細線3
  6
CONTINUOUS
 62
    7
 10
360.43065977017159
 20
294.56810602460064
 11
360.43065977017159
 21
296.56810602460064
  0
LINE
  8
_0-b_細線3
  6
CONTINUOUS
 62
    7
 10
354.76399310350502
 20
294.56810602460064
 11
360.43065977017159
 21
294.56810602460064
  0
LINE
  8
_0-b_細線3
  6
CONTINUOUS
 62
    7
 10
354.76399310350502
 20
263.23477269126715
 11
354.76399310350502
 21
294.56810602460064
  0
LINE
  8
_0-b_細線3
  6
CONTINUOUS
 62
    7
 10
352.76399310350507
 20
263.23477269126715
 11
354.76399310350502
 21
263.23477269126715
  0
LINE
  8
_0-b_細線3
  6
CONTINUOUS
 62
    7
 10
352.76399310350507
 20
294.56810602460064
 11
352.76399310350507
 21
263.23477269126715
  0
LINE
  8
_0-b_細線3
  6
CONTINUOUS
 62
    7
 10
347.0973264368385
 20
294.56810602460064
 11
352.76399310350507
 21
294.56810602460064
  0
LINE
  8
_0-b_細線3
  6
CONTINUOUS
 62
    7
 10
347.0973264368385
 20
296.56810602460064
 11
347.0973264368385
 21
294.56810602460064
  0
LINE
  8
_0-b_細線3
  6
CONTINUOUS
 62
    7
 10
360.43065977017159
 20
296.56810602460064
 11
347.0973264368385
 21
296.56810602460064
  0
ARC
  8
_0-b_細線3
  6
CONTINUOUS
 62
    7
 10
342.0973264368381
 20
317.70421713571159
 40
46.136111111111113
 50
256.63227178393225
 51
283.36772821606758
  0
ARC
  8
_0-b_細線3
  6
CONTINUOUS
 62
    7
 10
342.0973264368381
 20
242.0986615801562
 40
46.136111111111113
 50
76.632271783932026
 51
103.36772821606742
  0
LINE
  8
_0-b_細線3
  6
CONTINUOUS
 62
    7
 10
337.0973264368381
 20
294.56810602460064
 11
337.0973264368381
 21
296.56810602460064
  0
LINE
  8
_0-b_細線3
  6
CONTINUOUS
 62
    7
 10
331.43065977017204
 20
294.56810602460064
 11
337.0973264368381
 21
294.56810602460064
  0
LINE
  8
_0-b_細線3
  6
CONTINUOUS
 62
    7
 10
331.43065977017204
 20
263.23477269126715
 11
331.43065977017204
 21
294.56810602460064
  0
LINE
  8
_0-b_細線3
  6
CONTINUOUS
 62
    7
 10
329.43065977017199
 20
263.23477269126715
 11
331.43065977017204
 21
263.23477269126715
  0
LINE
  8
_0-b_細線3
  6
CONTINUOUS
 62
    7
 10
329.43065977017199
 20
294.56810602460064
 11
329.43065977017199
 21
263.23477269126715
  0
LINE
  8
_0-b_細線3
  6
CONTINUOUS
 62
    7
 10
323.76399310350502
 20
294.56810602460064
 11
329.43065977017199
 21
294.56810602460064
  0
LINE
  8
_0-b_細線3
  6
CONTINUOUS
 62
    7
 10
323.76399310350502
 20
296.56810602460064
 11
323.76399310350502
 21
294.56810602460064
  0
LINE
  8
_0-b_細線3
  6
CONTINUOUS
 62
    7
 10
337.0973264368381
 20
296.56810602460064
 11
323.76399310350502
 21
296.56810602460064
  0
ARC
  8
_0-b_細線3
  6
CONTINUOUS
 62
    7
 10
318.76399310350507
 20
317.70421713571159
 40
46.136111111111113
 50
256.63227178393197
 51
283.36772821606706
  0
ARC
  8
_0-b_細線3
  6
CONTINUOUS
 62
    7
 10
318.76399310350507
 20
242.0986615801562
 40
46.136111111111113
 50
76.63227178393258
 51
103.36772821606769
  0
LINE
  8
_0-b_細線3
  6
CONTINUOUS
 62
    7
 10
313.76399310350479
 20
294.56810602460064
 11
313.76399310350479
 21
296.56810602460064
  0
LINE
  8
_0-b_細線3
  6
CONTINUOUS
 62
    7
 10
308.09732643683833
 20
294.56810602460064
 11
313.76399310350479
 21
294.56810602460064
  0
LINE
  8
_0-b_細線3
  6
CONTINUOUS
 62
    7
 10
308.09732643683833
 20
263.23477269126715
 11
308.09732643683833
 21
294.56810602460064
  0
LINE
  8
_0-b_細線3
  6
CONTINUOUS
 62
    7
 10
306.09732643683827
 20
263.23477269126715
 11
308.09732643683833
 21
263.23477269126715
  0
LINE
  8
_0-b_細線3
  6
CONTINUOUS
 62
    7
 10
306.09732643683827
 20
294.56810602460064
 11
306.09732643683827
 21
263.23477269126715
  0
LINE
  8
_0-b_細線3
  6
CONTINUOUS
 62
    7
 10
300.43065977017181
 20
294.56810602460064
 11
306.09732643683827
 21
294.56810602460064
  0
LINE
  8
_0-b_細線3
  6
CONTINUOUS
 62
    7
 10
300.43065977017181
 20
296.56810602460064
 11
300.43065977017181
 21
294.56810602460064
  0
LINE
  8
_0-b_細線3
  6
CONTINUOUS
 62
    7
 10
313.76399310350479
 20
296.56810602460064
 11
300.43065977017181
 21
296.56810602460064
  0
ARC
  8
_0-b_細線3
  6
CONTINUOUS
 62
    7
 10
388.76399310350456
 20
317.70421713571159
 40
46.136111111111113
 50
256.63227178393169
 51
283.36772821606706
  0
ARC
  8
_0-b_細線3
  6
CONTINUOUS
 62
    7
 10
388.76399310350456
 20
242.0986615801562
 40
46.136111111111113
 50
76.63227178393258
 51
103.36772821606797
  0
LINE
  8
_0-b_細線3
  6
CONTINUOUS
 62
    7
 10
383.76399310350416
 20
294.56810602460064
 11
383.76399310350416
 21
296.56810602460064
  0
LINE
  8
_0-b_細線3
  6
CONTINUOUS
 62
    7
 10
378.0973264368381
 20
294.56810602460064
 11
383.76399310350416
 21
294.56810602460064
  0
LINE
  8
_0-b_細線3
  6
CONTINUOUS
 62
    7
 10
378.0973264368381
 20
263.23477269126715
 11
378.0973264368381
 21
294.56810602460064
  0
LINE
  8
_0-b_細線3
  6
CONTINUOUS
 62
    7
 10
376.09732643683805
 20
263.23477269126715
 11
378.0973264368381
 21
263.23477269126715
  0
LINE
  8
_0-b_細線3
  6
CONTINUOUS
 62
    7
 10
376.09732643683805
 20
294.56810602460064
 11
376.09732643683805
 21
263.23477269126715
  0
LINE
  8
_0-b_細線3
  6
CONTINUOUS
 62
    7
 10
370.43065977017108
 20
294.56810602460064
 11
376.09732643683805
 21
294.56810602460064
  0
LINE
  8
_0-b_細線3
  6
CONTINUOUS
 62
    7
 10
370.43065977017108
 20
296.56810602460064
 11
370.43065977017108
 21
294.56810602460064
  0
LINE
  8
_0-b_細線3
  6
CONTINUOUS
 62
    7
 10
383.76399310350416
 20
296.56810602460064
 11
370.43065977017108
 21
296.56810602460064
  0
ARC
  8
_0-b_細線3
  6
CONTINUOUS
 62
    7
 10
412.09732643683714
 20
317.70421713571159
 40
46.136111111111113
 50
256.63227178393225
 51
283.36772821606758
  0
ARC
  8
_0-b_細線3
  6
CONTINUOUS
 62
    7
 10
412.09732643683714
 20
242.0986615801562
 40
46.136111111111113
 50
76.632271783932026
 51
103.36772821606742
  0
LINE
  8
_0-b_細線3
  6
CONTINUOUS
 62
    7
 10
407.09732643683714
 20
294.56810602460064
 11
407.09732643683714
 21
296.56810602460064
  0
LINE
  8
_0-b_細線3
  6
CONTINUOUS
 62
    7
 10
401.43065977017068
 20
294.56810602460064
 11
407.09732643683714
 21
294.56810602460064
  0
LINE
  8
_0-b_細線3
  6
CONTINUOUS
 62
    7
 10
401.43065977017068
 20
263.23477269126715
 11
401.43065977017068
 21
294.56810602460064
  0
LINE
  8
_0-b_細線3
  6
CONTINUOUS
 62
    7
 10
399.43065977017062
 20
263.23477269126715
 11
401.43065977017068
 21
263.23477269126715
  0
LINE
  8
_0-b_細線3
  6
CONTINUOUS
 62
    7
 10
399.43065977017062
 20
294.56810602460064
 11
399.43065977017062
 21
263.23477269126715
  0
LINE
  8
_0-b_細線3
  6
CONTINUOUS
 62
    7
 10
393.76399310350416
 20
294.56810602460064
 11
399.43065977017062
 21
294.56810602460064
  0
LINE
  8
_0-b_細線3
  6
CONTINUOUS
 62
    7
 10
393.76399310350416
 20
296.56810602460064
 11
393.76399310350416
 21
294.56810602460064
  0
LINE
  8
_0-b_細線3
  6
CONTINUOUS
 62
    7
 10
407.09732643683714
 20
296.56810602460064
 11
393.76399310350416
 21
296.56810602460064
  0
CIRCLE
  8
_0-a_極細3
  6
CONTINUOUS
 62
    7
 10
720.75867701143
 20
281.83355347829729
 40
0.5530864197530718
  0
CIRCLE
  8
_0-a_極細3
  6
CONTINUOUS
 62
    7
 10
668.75867701143034
 20
282.76688681163068
 40
0.5530864197530718
  0
LINE
  8
_0-a_極細3
  6
CONTINUOUS
 62
    7
 10
657.0973264368381
 20
296.56810602460064
 11
657.0973264368381
 21
284.90143935793367
  0
LINE
  8
_0-a_極細3
  6
CONTINUOUS
 62
    7
 10
648.76399310350462
 20
284.90143935793367
 11
746.27507358195271
 21
284.90143935793367
  0
LINE
  8
_0-a_極細3
  6
CONTINUOUS
 62
    7
 10
648.76399310350462
 20
295.73477269126715
 11
648.76399310350462
 21
296.56810602460064
  0
LINE
  8
_0-a_極細3
  6
CONTINUOUS
 62
    7
 10
657.0973264368381
 20
288.57052563865864
 11
653.42824015611313
 21
284.90143935793367
  0
LINE
  8
_0-a_極細3
  6
CONTINUOUS
 62
    7
 10
657.0973264368381
 20
292.81316632577773
 11
649.18559946899404
 21
284.90143935793367
  0
LINE
  8
_0-a_極細3
  6
CONTINUOUS
 62
    7
 10
648.76399310350462
 20
288.72247367956379
 11
656.60962544854146
 21
296.56810602460064
  0
LINE
  8
_0-a_極細3
  6
CONTINUOUS
 62
    7
 10
648.76399310350462
 20
292.96511436668288
 11
652.36698476142192
 21
296.56810602460018
  0
LINE
  8
_0-a_極細3
  6
CONTINUOUS
 62
    7
 10
657.0973264368381
 20
295.05878381509501
 11
655.58800422733259
 21
296.56810602460064
  0
LINE
  8
_0-a_極細3
  6
CONTINUOUS
 62
    7
 10
657.0973264368381
 20
290.81614312797547
 11
651.34536354021338
 21
296.56810602460064
  0
LINE
  8
_0-a_極細3
  6
CONTINUOUS
 62
    7
 10
657.0973264368381
 20
286.57350244085637
 11
648.76399310350462
 21
294.90683577418986
  0
LINE
  8
_0-a_極細3
  6
CONTINUOUS
 62
    7
 10
654.52674883264126
 20
284.90143935793367
 11
648.76399310350462
 21
290.66419508707031
  0
LINE
  8
_0-a_極細3
  6
CONTINUOUS
 62
    7
 10
650.28410814552217
 20
284.90143935793367
 11
648.76399310350462
 21
286.42155439995122
  0
LINE
  8
_0-a_極細3
  6
CONTINUOUS
 62
    7
 10
725.55313183714088
 20
284.90143935793367
 11
737.21979787701866
 21
296.56810539781145
  0
LINE
  8
_0-a_極細3
  6
CONTINUOUS
 62
    7
 10
704.33992840154463
 20
284.90143935793367
 11
716.00659460737108
 21
296.56810556376013
  0
LINE
  8
_0-a_極細3
  6
CONTINUOUS
 62
    7
 10
683.12672496594814
 20
284.90143935793367
 11
694.79339133772282
 21
296.56810572970835
  0
LINE
  8
_0-a_極細3
  6
CONTINUOUS
 62
    7
 10
661.91352153035177
 20
284.90143935793367
 11
673.58018806807524
 21
296.56810589565703
  0
LINE
  8
_0-a_極細3
  6
DASHED2
 62
    7
 10
736.15973355493952
 20
284.90143935793367
 11
746.27507358195271
 21
295.01677938494731
  0
LINE
  8
_0-a_極細3
  6
DASHED2
 62
    7
 10
714.9465301193427
 20
284.90143935793367
 11
726.61319624219459
 21
296.56810548078556
  0
LINE
  8
_0-a_極細3
  6
DASHED2
 62
    7
 10
693.73332668374633
 20
284.90143935793367
 11
705.3999929725469
 21
296.56810564673424
  0
LINE
  8
_0-a_極細3
  6
DASHED2
 62
    7
 10
672.52012324814996
 20
284.90143935793367
 11
684.18678970289875
 21
296.56810581268246
  0
LINE
  8
_0-a_極細3
  6
DASHED2
 62
    7
 10
657.0973264368381
 20
290.69184598221818
 11
662.97358643325106
 21
296.56810597863114
  0
CIRCLE
  8
_0-a_極細3
  6
CONTINUOUS
 62
    7
 10
728.75867701142954
 20
282.20361520669258
 40
1.825531472681392
  0
CIRCLE
  8
_0-a_極細3
  6
CONTINUOUS
 62
    7
 10
690.09201034476337
 20
278.78139298447059
 40
1.825531472681392
  0
LINE
  8
_0-a_極細3
  6
CONTINUOUS
 62
    7
 10
648.76399310350462
 20
296.56810602460064
 11
746.27507358195271
 21
296.56810602460064
  0
LINE
  8
_0-a_極細3
  6
CONTINUOUS
 62
    7
 10
715.43065977017125
 20
251.56810602460041
 11
715.43065977017125
 21
183.23477269126712
  0
LINE
  8
_0-a_極細3
  6
CONTINUOUS
 62
    7
 10
632.0973264368381
 20
183.23477269126712
 11
715.43065977017125
 21
183.23477269126712
  0
LINE
  8
_0-a_極細3
  6
CONTINUOUS
 62
    7
 10
715.43065977017125
 20
251.56810602460041
 11
746.27507358195271
 21
251.56810602460041
  0
LINE
  8
_0-a_極細3
  6
CONTINUOUS
 62
    7
 10
632.0973264368381
 20
183.23477269126712
 11
632.0973264368381
 21
156.99317239648806
  0
LINE
  8
_0-a_極細3
  6
CONTINUOUS
 62
    7
 10
723.72066218476448
 20
156.99317239648806
 11
746.27507362349343
 21
179.54758383521698
  0
LINE
  8
_0-a_極細3
  6
CONTINUOUS
 62
    7
 10
653.00998406610961
 20
156.99317239648806
 11
679.2515843608885
 21
183.23477269126712
  0
LINE
  8
_0-a_極細3
  6
CONTINUOUS
 62
    7
 10
715.43065977017125
 20
219.41384810054981
 11
746.27507358270805
 21
250.2582619130867
  0
LINE
  8
_0-a_極細3
  6
CONTINUOUS
 62
    7
 10
716.64959437289883
 20
156.99317239648806
 11
746.2750736194148
 21
186.61865164300409
  0
LINE
  8
_0-a_極細3
  6
CONTINUOUS
 62
    7
 10
645.93891625424385
 20
156.99317239648806
 11
672.1805165490232
 21
183.23477269126712
  0
LINE
  8
_0-a_極細3
  6
CONTINUOUS
 62
    7
 10
715.43065977017125
 20
226.48491591241535
 11
740.51384970280606
 21
251.56810584505001
  0
LINE
  8
_0-a_極細3
  6
CONTINUOUS
 62
    7
 10
709.57852656103341
 20
156.99317239648806
 11
746.27507361533617
 21
193.68971945079102
  0
LINE
  8
_0-a_極細3
  6
CONTINUOUS
 62
    7
 10
638.86784844237854
 20
156.99317239648806
 11
665.10944873715789
 21
183.23477269126712
  0
LINE
  8
_0-a_極細3
  6
CONTINUOUS
 62
    7
 10
715.43065977017125
 20
233.55598372428088
 11
733.44278194155686
 21
251.56810589566615
  0
CIRCLE
  8
_0-a_極細3
  6
CONTINUOUS
 62
    7
 10
618.50312145587532
 20
242.08910903385322
 40
0.5530864197530718
  0
CIRCLE
  8
_0-a_極細3
  6
CONTINUOUS
 62
    7
 10
628.45867701143061
 20
246.8891090338532
 40
0.5530864197530718
  0
CIRCLE
  8
_0-a_極細3
  6
CONTINUOUS
 62
    7
 10
624.3697881225421
 20
221.91133125607578
 40
0.5530864197530718
  0
CIRCLE
  8
_0-a_極細3
  6
CONTINUOUS
 62
    7
 10
641.90312145587541
 20
204.8891090338536
 40
0.5530864197530718
  0
CIRCLE
  8
_0-a_極細3
  6
CONTINUOUS
 62
    7
 10
624.06978812254192
 20
181.5891090338539
 40
0.5530864197530718
  0
CIRCLE
  8
_0-a_極細3
  6
CONTINUOUS
 62
    7
 10
614.73645478920889
 20
163.72244236718734
 40
0.5530864197530718
  0
CIRCLE
  8
_0-a_極細3
  6
CONTINUOUS
 62
    7
 10
626.20312145587513
 20
193.58910903385365
 40
0.5530864197530718
  0
CIRCLE
  8
_0-a_極細3
  6
CONTINUOUS
 62
    7
 10
640.06978812254192
 20
188.78910903385375
 40
0.5530864197530718
  0
CIRCLE
  8
_0-a_極細3
  6
CONTINUOUS
 62
    7
 10
667.00312145587532
 20
189.05577570052037
 40
0.5530864197530718
  0
CIRCLE
  8
_0-a_極細3
  6
CONTINUOUS
 62
    7
 10
655.00312145587532
 20
198.12244236718698
 40
0.5530864197530718
  0
CIRCLE
  8
_0-a_極細3
  6
CONTINUOUS
 62
    7
 10
666.20312145587513
 20
203.72244236718686
 40
0.5530864197530718
  0
CIRCLE
  8
_0-a_極細3
  6
CONTINUOUS
 62
    7
 10
654.22534367809703
 20
258.01133125607521
 40
0.5530864197530718
  0
CIRCLE
  8
_0-a_極細3
  6
CONTINUOUS
 62
    7
 10
674.75867701143034
 20
257.30022014496421
 40
0.5530864197530718
  0
CIRCLE
  8
_0-a_極細3
  6
CONTINUOUS
 62
    7
 10
663.15867701143043
 20
243.30022014496421
 40
0.5530864197530718
  0
CIRCLE
  8
_0-a_極細3
  6
CONTINUOUS
 62
    7
 10
702.35867701143025
 20
190.10022014496485
 40
0.5530864197530718
  0
CIRCLE
  8
_0-a_極細3
  6
CONTINUOUS
 62
    7
 10
709.55867701143006
 20
204.10022014496491
 40
0.5530864197530718
  0
CIRCLE
  8
_0-a_極細3
  6
CONTINUOUS
 62
    7
 10
707.9586770114297
 20
224.90022014496461
 40
0.5530864197530718
  0
CIRCLE
  8
_0-a_極細3
  6
CONTINUOUS
 62
    7
 10
689.95867701143015
 20
246.1002201449644
 40
0.5530864197530718
  0
CIRCLE
  8
_0-a_極細3
  6
CONTINUOUS
 62
    7
 10
706.75867701142988
 20
265.70022014496408
 40
0.5530864197530718
  0
CIRCLE
  8
_0-a_極細3
  6
CONTINUOUS
 62
    7
 10
703.9586770114297
 20
238.90022014496438
 40
0.5530864197530718
  0
CIRCLE
  8
_0-a_極細3
  6
CONTINUOUS
 62
    7
 10
733.55867701142972
 20
260.10022014496417
 40
0.5530864197530718
  0
CIRCLE
  8
_0-a_極細3
  6
CONTINUOUS
 62
    7
 10
713.11423256698527
 20
258.40361520669262
 40
1.825531472681392
  0
CIRCLE
  8
_0-a_極細3
  6
CONTINUOUS
 62
    7
 10
657.69201034476384
 20
264.9813929844704
 40
1.825531472681392
  0
CIRCLE
  8
_0-a_極細3
  6
CONTINUOUS
 62
    7
 10
689.69201034476328
 20
232.98139298447066
 40
1.825531472681392
  0
CIRCLE
  8
_0-a_極細3
  6
CONTINUOUS
 62
    7
 10
619.29756590032002
 20
188.43139298447113
 40
1.825531472681392
  0
CIRCLE
  8
_0-a_極細3
  6
CONTINUOUS
 62
    7
 10
629.51978812254174
 20
218.29805965113769
 40
1.825531472681392
  0
CIRCLE
  8
_0-a_極細3
  6
CONTINUOUS
 62
    7
 10
664.71978812254167
 20
195.89805965113783
 40
1.825531472681392
  0
CIRCLE
  8
_0-a_極細3
  6
CONTINUOUS
 62
    7
 10
710.98498075782527
 20
185.71100725916835
 40
1.825531472681392
  0
CIRCLE
  8
_0-a_極細3
  6
CONTINUOUS
 62
    7
 10
660.31978812254147
 20
239.09805965113745
 40
1.825531472681392
  0
CIRCLE
  8
_0-a_極細3
  6
CONTINUOUS
 62
    7
 10
612.85373873982599
 20
233.67485424410097
 40
0.5530864197530718
  0
CIRCLE
  8
_0-a_極細3
  6
CONTINUOUS
 62
    7
 10
613.05373873982671
 20
209.71929868854571
 40
0.5530864197530718
  0
LINE
  8
_0-a_極細3
  6
CONTINUOUS
 62
    7
 10
599.59732643683719
 20
258.23477269126715
 11
598.76399310350416
 21
258.23477269126715
  0
LINE
  8
_0-a_極細3
  6
CONTINUOUS
 62
    7
 10
598.76399310350416
 20
258.23477269126715
 11
598.76399310350416
 21
156.99317239648806
  0
CIRCLE
  8
_0-a_極細3
  6
CONTINUOUS
 62
    7
 10
604.74838894558752
 20
218.17799792274243
 40
0.5530864197530718
  0
CIRCLE
  8
_0-a_極細3
  6
CONTINUOUS
 62
    7
 10
606.05497330772732
 20
178.92244236718716
 40
0.5530864197530718
  0
CIRCLE
  8
_0-a_極細3
  6
CONTINUOUS
 62
    7
 10
605.41608441883773
 20
244.87583742891573
 40
1.825531472681392
  0
CIRCLE
  8
_0-a_極細3
  6
CONTINUOUS
 62
    7
 10
608.36423256698572
 20
172.25361520669324
 40
1.825531472681392
  0
LINE
  8
_0-a_極細3
  6
CONTINUOUS
 62
    7
 10
692.40406132399005
 20
208.11647385377071
 11
697.53436347387515
 21
222.21186316555918
  0
LINE
  8
_0-a_極細3
  6
CONTINUOUS
 62
    7
 10
642.41001865019371
 20
242.27548386480547
 11
637.27971650030895
 21
228.18009455301694
  0
LINE
  8
_0-a_極細3
  6
CONTINUOUS
 62
    7
 10
697.53436347387515
 20
222.21186316555918
 11
642.41001865019371
 21
242.27548386480547
  0
LINE
  8
_0-a_極細3
  6
CONTINUOUS
 62
    7
 10
692.40406132399005
 20
208.11647385377071
 11
637.27971650030895
 21
228.18009455301694
  0
LINE
  8
_0-a_極細3
  6
CENTER1
 62
    7
 10
699.9246457909253
 20
213.360538469635
 11
635.89362530835979
 21
236.66592395467049
  0
LINE
  8
_0-a_極細3
  6
CONTINUOUS
 62
    7
 10
673.76399310350462
 20
183.23477269126712
 11
673.76399310350462
 21
227.32033403958326
  0
LINE
  8
_0-a_極細3
  6
CONTINUOUS
 62
    7
 10
673.76399310350462
 20
227.32033403958326
 11
688.76399310350462
 21
227.32033403958326
  0
LINE
  8
_0-a_極細3
  6
CONTINUOUS
 62
    7
 10
688.76399310350462
 20
227.32033403958326
 11
688.76399310350462
 21
183.23477269126712
  0
LINE
  8
_0-a_極細3
  6
CENTER1
 62
    7
 10
681.26399310350462
 20
174.95803240681425
 11
681.26399310350462
 21
231.59605420419282
  0
CIRCLE
  8
_0-a_極細3
  6
CONTINUOUS
 62
    7
 10
675.38089923365305
 20
240.3965164412607
 40
0.5530864197530718
  0
CIRCLE
  8
_0-a_極細3
  6
CONTINUOUS
 62
    7
 10
697.59708579057997
 20
227.05330656471779
 40
0.5530864197530718
  0
LINE
  8
_0-d_寸法3
  6
CONTINUOUS
 62
    7
 10
648.76399310350507
 20
209.9014393579339
 11
648.76399310350507
 21
192.7567474570285
  0
LINE
  8
_0-d_寸法3
  6
CONTINUOUS
 62
    7
 10
648.76399310350507
 20
197.7567474570285
 11
639.10473484061436
 21
195.16855700600331
  0
LINE
  8
_0-d_寸法3
  6
CONTINUOUS
 62
    7
 10
648.76399310350507
 20
197.7567474570285
 11
639.10473484061436
 21
200.34493790805371
  0
LINE
  8
_0-d_寸法3
  6
CONTINUOUS
 62
    7
 10
598.76399310350507
 20
248.23477269126715
 11
598.76399310350507
 21
192.7567474570285
  0
LINE
  8
_0-d_寸法3
  6
CONTINUOUS
 62
    7
 10
598.76399310350507
 20
197.7567474570285
 11
608.42325136639579
 21
200.34493790805371
  0
LINE
  8
_0-d_寸法3
  6
CONTINUOUS
 62
    7
 10
598.76399310350507
 20
197.7567474570285
 11
608.42325136639579
 21
195.16855700600331
  0
LINE
  8
_0-d_寸法3
  6
CONTINUOUS
 62
    7
 10
648.76399310350507
 20
197.7567474570285
 11
598.76399310350507
 21
197.7567474570285
  0
TEXT
  8
_0-d_寸法3
 62
    7
 10
616.26399310350507
 20
197.75674745702844
 40
15
 41
1
 50
0.0000000000005428
  1
30
  0
ARC
  8
_0-b_細線3
  6
CONTINUOUS
 62
    7
 10
643.76399310350462
 20
263.23477269126715
 40
5
 50
269.99999999999977
 51
359.99999999999966
  0
LINE
  8
_0-b_細線3
  6
CONTINUOUS
 62
    7
 10
648.76399310350462
 20
263.23477269126715
 11
648.76399310350462
 21
295.73477269126715
  0
LINE
  8
_0-b_細線3
  6
CONTINUOUS
 62
    7
 10
643.76399310350462
 20
258.23477269126715
 11
599.59732643683719
 21
258.23477269126715
  0
LINE
  8
_0-b_細線3
  6
CONTINUOUS
 62
    7
 10
598.76399310350416
 20
259.06810602460041
 11
599.59732643683719
 21
258.23477269126715
  0
LINE
  8
_0-b_細線3
  6
CONTINUOUS
 62
    7
 10
598.76399310350416
 20
262.4014393579339
 11
598.76399310350416
 21
259.06810602460041
  0
LINE
  8
_0-b_細線3
  6
CONTINUOUS
 62
    7
 10
599.59732643683719
 20
263.23477269126715
 11
598.76399310350416
 21
262.4014393579339
  0
LINE
  8
_0-b_細線3
  6
CONTINUOUS
 62
    7
 10
643.76399310350462
 20
263.23477269126715
 11
599.59732643683719
 21
263.23477269126715
  0
LINE
  8
_0-b_細線3
  6
CONTINUOUS
 62
    7
 10
647.93065977017159
 20
296.56810602460064
 11
648.76399310350462
 21
295.73477269126715
  0
LINE
  8
_0-b_細線3
  6
CONTINUOUS
 62
    7
 10
644.5973264368381
 20
296.56810602460064
 11
647.93065977017159
 21
296.56810602460064
  0
LINE
  8
_0-b_細線3
  6
CONTINUOUS
 62
    7
 10
643.76399310350462
 20
295.73477269126715
 11
644.5973264368381
 21
296.56810602460064
  0
LINE
  8
_0-b_細線3
  6
CONTINUOUS
 62
    7
 10
643.76399310350462
 20
263.23477269126715
 11
643.76399310350462
 21
295.73477269126715
  0
ARC
  8
_0-b_細線3
  6
CONTINUOUS
 62
    7
 10
598.76399310350507
 20
317.70421713571159
 40
46.136111111111113
 50
256.63227178393169
 51
283.36772821606706
  0
ARC
  8
_0-b_細線3
  6
CONTINUOUS
 62
    7
 10
598.76399310350507
 20
242.0986615801562
 40
46.136111111111113
 50
76.63227178393258
 51
103.36772821606742
  0
LINE
  8
_0-b_細線3
  6
CONTINUOUS
 62
    7
 10
617.09732643683856
 20
294.56810602460064
 11
617.09732643683856
 21
296.56810602460064
  0
LINE
  8
_0-b_細線3
  6
CONTINUOUS
 62
    7
 10
611.43065977017159
 20
294.56810602460064
 11
617.09732643683856
 21
294.56810602460064
  0
LINE
  8
_0-b_細線3
  6
CONTINUOUS
 62
    7
 10
611.43065977017159
 20
263.23477269126715
 11
611.43065977017159
 21
294.56810602460064
  0
LINE
  8
_0-b_細線3
  6
CONTINUOUS
 62
    7
 10
609.43065977017159
 20
263.23477269126715
 11
611.43065977017159
 21
263.23477269126715
  0
LINE
  8
_0-b_細線3
  6
CONTINUOUS
 62
    7
 10
609.43065977017159
 20
294.56810602460064
 11
609.43065977017159
 21
263.23477269126715
  0
LINE
  8
_0-b_細線3
  6
CONTINUOUS
 62
    7
 10
603.76399310350507
 20
294.56810602460064
 11
609.43065977017159
 21
294.56810602460064
  0
LINE
  8
_0-b_細線3
  6
CONTINUOUS
 62
    7
 10
603.76399310350507
 20
296.56810602460064
 11
603.76399310350507
 21
294.56810602460064
  0
LINE
  8
_0-b_細線3
  6
CONTINUOUS
 62
    7
 10
617.09732643683856
 20
296.56810602460064
 11
603.76399310350507
 21
296.56810602460064
  0
ARC
  8
_0-b_細線3
  6
CONTINUOUS
 62
    7
 10
622.0973264368381
 20
317.70421713571159
 40
46.136111111111113
 50
256.63227178393169
 51
283.36772821606706
  0
ARC
  8
_0-b_細線3
  6
CONTINUOUS
 62
    7
 10
622.0973264368381
 20
242.0986615801562
 40
46.136111111111113
 50
76.63227178393258
 51
103.36772821606742
  0
LINE
  8
_0-b_細線3
  6
CONTINUOUS
 62
    7
 10
640.43065977017159
 20
294.56810602460064
 11
640.43065977017159
 21
296.56810602460064
  0
LINE
  8
_0-b_細線3
  6
CONTINUOUS
 62
    7
 10
634.76399310350462
 20
294.56810602460064
 11
640.43065977017159
 21
294.56810602460064
  0
LINE
  8
_0-b_細線3
  6
CONTINUOUS
 62
    7
 10
634.76399310350462
 20
263.23477269126715
 11
634.76399310350462
 21
294.56810602460064
  0
LINE
  8
_0-b_細線3
  6
CONTINUOUS
 62
    7
 10
632.76399310350462
 20
263.23477269126715
 11
634.76399310350462
 21
263.23477269126715
  0
LINE
  8
_0-b_細線3
  6
CONTINUOUS
 62
    7
 10
632.76399310350462
 20
294.56810602460064
 11
632.76399310350462
 21
263.23477269126715
  0
LINE
  8
_0-b_細線3
  6
CONTINUOUS
 62
    7
 10
627.0973264368381
 20
294.56810602460064
 11
632.76399310350462
 21
294.56810602460064
  0
LINE
  8
_0-b_細線3
  6
CONTINUOUS
 62
    7
 10
627.0973264368381
 20
296.56810602460064
 11
627.0973264368381
 21
294.56810602460064
  0
LINE
  8
_0-b_細線3
  6
CONTINUOUS
 62
    7
 10
640.43065977017159
 20
296.56810602460064
 11
627.0973264368381
 21
296.56810602460064
  0
LINE
  8
_0-d_寸法3
  6
CONTINUOUS
 62
    7
 10
292.0973264368385
 20
301.56810602460064
 11
292.0973264368385
 21
411.56810435625584
  0
LINE
  8
_0-d_寸法3
  6
CONTINUOUS
 62
    7
 10
292.0973264368385
 20
406.56810435625584
 11
301.75658469972916
 21
409.15629480728109
  0
LINE
  8
_0-d_寸法3
  6
CONTINUOUS
 62
    7
 10
292.0973264368385
 20
406.56810435625584
 11
301.75658469972916
 21
403.97991390523066
  0
LINE
  8
_0-d_寸法3
  6
CONTINUOUS
 62
    7
 10
648.76399310350462
 20
301.56810602460064
 11
648.76399310350507
 21
411.56810435625584
  0
LINE
  8
_0-d_寸法3
  6
CONTINUOUS
 62
    7
 10
648.76399310350507
 20
406.56810435625584
 11
639.10473484061436
 21
403.97991390523066
  0
LINE
  8
_0-d_寸法3
  6
CONTINUOUS
 62
    7
 10
648.76399310350507
 20
406.56810435625584
 11
639.10473484061436
 21
409.15629480728114
  0
LINE
  8
_0-d_寸法3
  6
CONTINUOUS
 62
    7
 10
292.0973264368385
 20
406.56810435625584
 11
648.76399310350507
 21
406.56810435625584
  0
TEXT
  8
_0-d_寸法3
 62
    7
 10
459.18065977017159
 20
406.56810435625584
 40
15
 41
1
 50
0
  1
214
  0
LINE
  8
_0-d_寸法3
  6
CONTINUOUS
 62
    7
 10
342.0973264368385
 20
253.23477269126715
 11
342.0973264368385
 21
192.7567474570285
  0
LINE
  8
_0-d_寸法3
  6
CONTINUOUS
 62
    7
 10
342.0973264368385
 20
197.7567474570285
 11
351.75658469972916
 21
200.34493790805371
  0
LINE
  8
_0-d_寸法3
  6
CONTINUOUS
 62
    7
 10
342.0973264368385
 20
197.7567474570285
 11
351.75658469972916
 21
195.16855700600331
  0
LINE
  8
_0-d_寸法3
  6
CONTINUOUS
 62
    7
 10
598.76399310350416
 20
253.23477269126715
 11
598.76399310350416
 21
192.7567474570285
  0
LINE
  8
_0-d_寸法3
  6
CONTINUOUS
 62
    7
 10
598.76399310350416
 20
197.7567474570285
 11
589.10473484061345
 21
195.16855700600331
  0
LINE
  8
_0-d_寸法3
  6
CONTINUOUS
 62
    7
 10
598.76399310350416
 20
197.7567474570285
 11
589.10473484061345
 21
200.34493790805371
  0
LINE
  8
_0-d_寸法3
  6
CONTINUOUS
 62
    7
 10
342.0973264368385
 20
197.7567474570285
 11
598.76399310350416
 21
197.7567474570285
  0
TEXT
  8
_0-d_寸法3
 62
    7
 10
459.18065977017159
 20
197.7567474570285
 40
15
 41
1
 50
0
  1
154
  0
LINE
  8
_0-a_極細3
  6
CENTER1
 62
    7
 10
651.43074817132674
 20
279.9014393579339
 11
290.44333399229799
 21
279.9014393579339
  0
ARC
  8
_0-b_細線3
  6
CONTINUOUS
 62
    7
 10
435.43065977017022
 20
317.70421713571159
 40
46.136111111111113
 50
256.63227178393225
 51
283.36772821606706
  0
ARC
  8
_0-b_細線3
  6
CONTINUOUS
 62
    7
 10
435.43065977017022
 20
242.0986615801562
 40
46.136111111111113
 50
76.63227178393258
 51
103.36772821606742
  0
LINE
  8
_0-b_細線3
  6
CONTINUOUS
 62
    7
 10
430.43065977017022
 20
294.56810602460064
 11
430.43065977017022
 21
296.56810602460064
  0
LINE
  8
_0-b_細線3
  6
CONTINUOUS
 62
    7
 10
424.76399310350365
 20
294.56810602460064
 11
430.43065977017022
 21
294.56810602460064
  0
LINE
  8
_0-b_細線3
  6
CONTINUOUS
 62
    7
 10
424.76399310350365
 20
263.23477269126715
 11
424.76399310350365
 21
294.56810602460064
  0
LINE
  8
_0-b_細線3
  6
CONTINUOUS
 62
    7
 10
422.76399310350371
 20
263.23477269126715
 11
424.76399310350365
 21
263.23477269126715
  0
LINE
  8
_0-b_細線3
  6
CONTINUOUS
 62
    7
 10
422.76399310350371
 20
294.56810602460064
 11
422.76399310350371
 21
263.23477269126715
  0
LINE
  8
_0-b_細線3
  6
CONTINUOUS
 62
    7
 10
417.09732643683714
 20
294.56810602460064
 11
422.76399310350371
 21
294.56810602460064
  0
LINE
  8
_0-b_細線3
  6
CONTINUOUS
 62
    7
 10
417.09732643683714
 20
296.56810602460064
 11
417.09732643683714
 21
294.56810602460064
  0
LINE
  8
_0-b_細線3
  6
CONTINUOUS
 62
    7
 10
430.43065977017022
 20
296.56810602460064
 11
417.09732643683714
 21
296.56810602460064
  0
ARC
  8
_0-b_細線3
  6
CONTINUOUS
 62
    7
 10
458.76399310350325
 20
317.70421713571159
 40
46.136111111111113
 50
256.63227178393225
 51
283.36772821606706
  0
ARC
  8
_0-b_細線3
  6
CONTINUOUS
 62
    7
 10
458.76399310350325
 20
242.0986615801562
 40
46.136111111111113
 50
76.63227178393258
 51
103.36772821606742
  0
LINE
  8
_0-b_細線3
  6
CONTINUOUS
 62
    7
 10
453.7639931035028
 20
294.56810602460064
 11
453.7639931035028
 21
296.56810602460064
  0
LINE
  8
_0-b_細線3
  6
CONTINUOUS
 62
    7
 10
448.09732643683623
 20
294.56810602460064
 11
453.7639931035028
 21
294.56810602460064
  0
LINE
  8
_0-b_細線3
  6
CONTINUOUS
 62
    7
 10
448.09732643683623
 20
263.23477269126715
 11
448.09732643683623
 21
294.56810602460064
  0
LINE
  8
_0-b_細線3
  6
CONTINUOUS
 62
    7
 10
446.09732643683628
 20
263.23477269126715
 11
448.09732643683623
 21
263.23477269126715
  0
LINE
  8
_0-b_細線3
  6
CONTINUOUS
 62
    7
 10
446.09732643683628
 20
294.56810602460064
 11
446.09732643683628
 21
263.23477269126715
  0
LINE
  8
_0-b_細線3
  6
CONTINUOUS
 62
    7
 10
440.43065977016971
 20
294.56810602460064
 11
446.09732643683628
 21
294.56810602460064
  0
LINE
  8
_0-b_細線3
  6
CONTINUOUS
 62
    7
 10
440.43065977016971
 20
296.56810602460064
 11
440.43065977016971
 21
294.56810602460064
  0
LINE
  8
_0-b_細線3
  6
CONTINUOUS
 62
    7
 10
453.7639931035028
 20
296.56810602460064
 11
440.43065977016971
 21
296.56810602460064
  0
ARC
  8
_0-b_細線3
  6
CONTINUOUS
 62
    7
 10
552.09732643683765
 20
317.70421713571159
 40
46.136111111111113
 50
256.63227178393225
 51
283.36772821606758
  0
ARC
  8
_0-b_細線3
  6
CONTINUOUS
 62
    7
 10
552.09732643683765
 20
242.0986615801562
 40
46.136111111111113
 50
76.632271783932026
 51
103.36772821606742
  0
LINE
  8
_0-b_細線3
  6
CONTINUOUS
 62
    7
 10
570.43065977017113
 20
294.56810602460064
 11
570.43065977017113
 21
296.56810602460064
  0
LINE
  8
_0-b_細線3
  6
CONTINUOUS
 62
    7
 10
564.76399310350416
 20
294.56810602460064
 11
570.43065977017113
 21
294.56810602460064
  0
LINE
  8
_0-b_細線3
  6
CONTINUOUS
 62
    7
 10
564.76399310350416
 20
263.23477269126715
 11
564.76399310350416
 21
294.56810602460064
  0
LINE
  8
_0-b_細線3
  6
CONTINUOUS
 62
    7
 10
562.76399310350462
 20
263.23477269126715
 11
564.76399310350416
 21
263.23477269126715
  0
LINE
  8
_0-b_細線3
  6
CONTINUOUS
 62
    7
 10
562.76399310350462
 20
294.56810602460064
 11
562.76399310350462
 21
263.23477269126715
  0
LINE
  8
_0-b_細線3
  6
CONTINUOUS
 62
    7
 10
557.09732643683765
 20
294.56810602460064
 11
562.76399310350462
 21
294.56810602460064
  0
LINE
  8
_0-b_細線3
  6
CONTINUOUS
 62
    7
 10
557.09732643683765
 20
296.56810602460064
 11
557.09732643683765
 21
294.56810602460064
  0
LINE
  8
_0-b_細線3
  6
CONTINUOUS
 62
    7
 10
570.43065977017113
 20
296.56810602460064
 11
557.09732643683765
 21
296.56810602460064
  0
ARC
  8
_0-b_細線3
  6
CONTINUOUS
 62
    7
 10
575.43065977017022
 20
317.70421713571159
 40
46.136111111111113
 50
256.63227178393225
 51
283.36772821606758
  0
ARC
  8
_0-b_細線3
  6
CONTINUOUS
 62
    7
 10
575.43065977017022
 20
242.0986615801562
 40
46.136111111111113
 50
76.632271783932026
 51
103.36772821606742
  0
LINE
  8
_0-b_細線3
  6
CONTINUOUS
 62
    7
 10
593.76399310350371
 20
294.56810602460064
 11
593.76399310350371
 21
296.56810602460064
  0
LINE
  8
_0-b_細線3
  6
CONTINUOUS
 62
    7
 10
588.09732643683674
 20
294.56810602460064
 11
593.76399310350371
 21
294.56810602460064
  0
LINE
  8
_0-b_細線3
  6
CONTINUOUS
 62
    7
 10
588.09732643683674
 20
263.23477269126715
 11
588.09732643683674
 21
294.56810602460064
  0
LINE
  8
_0-b_細線3
  6
CONTINUOUS
 62
    7
 10
586.09732643683719
 20
263.23477269126715
 11
588.09732643683674
 21
263.23477269126715
  0
LINE
  8
_0-b_細線3
  6
CONTINUOUS
 62
    7
 10
586.09732643683719
 20
294.56810602460064
 11
586.09732643683719
 21
263.23477269126715
  0
LINE
  8
_0-b_細線3
  6
CONTINUOUS
 62
    7
 10
580.43065977017022
 20
294.56810602460064
 11
586.09732643683719
 21
294.56810602460064
  0
LINE
  8
_0-b_細線3
  6
CONTINUOUS
 62
    7
 10
580.43065977017022
 20
296.56810602460064
 11
580.43065977017022
 21
294.56810602460064
  0
LINE
  8
_0-b_細線3
  6
CONTINUOUS
 62
    7
 10
593.76399310350371
 20
296.56810602460064
 11
580.43065977017022
 21
296.56810602460064
  0
LINE
  8
_0-d_寸法3
  6
CONTINUOUS
 62
    7
 10
464.59732643686669
 20
268.56169339576803
 11
449.16649615199589
 21
295.28867545213689
  0
LINE
  8
_0-d_寸法3
  6
CONTINUOUS
 62
    7
 10
451.66649615199589
 20
290.95854843321467
 11
449.07830570097076
 21
300.61780669610533
  0
LINE
  8
_0-d_寸法3
  6
CONTINUOUS
 62
    7
 10
451.66649615199589
 20
290.95854843321467
 11
454.25468660302113
 21
300.61780669610533
  0
LINE
  8
_0-d_寸法3
  6
CONTINUOUS
 62
    7
 10
464.59732643686669
 20
301.89502672911152
 11
449.16649615199589
 21
328.62200878548038
  0
LINE
  8
_0-d_寸法3
  6
CONTINUOUS
 62
    7
 10
451.66649615199589
 20
324.29188176655822
 11
454.25468660302113
 21
314.6326235036675
  0
LINE
  8
_0-d_寸法3
  6
CONTINUOUS
 62
    7
 10
451.66649615199589
 20
324.29188176655822
 11
449.07830570097076
 21
314.6326235036675
  0
LINE
  8
_0-d_寸法3
  6
CONTINUOUS
 62
    7
 10
451.66649615199589
 20
290.95854843321467
 11
451.66649615199589
 21
324.29188176655822
  0
TEXT
  8
_0-d_寸法3
 62
    7
 10
451.66649615199589
 20
300.76456652741354
 40
15
 41
1
 50
90
  1
20
  0
LINE
  8
_0-d_寸法3
  6
CONTINUOUS
 62
    7
 10
393.76399310350325
 20
306.56810602460041
 11
393.76399310350325
 21
348.23477269126761
  0
LINE
  8
_0-d_寸法3
  6
CONTINUOUS
 62
    7
 10
393.76399310350325
 20
343.23477269126761
 11
384.10473484061248
 21
340.64658224024242
  0
LINE
  8
_0-d_寸法3
  6
CONTINUOUS
 62
    7
 10
393.76399310350325
 20
343.23477269126761
 11
384.10473484061254
 21
345.82296314229291
  0
LINE
  8
_0-d_寸法3
  6
CONTINUOUS
 62
    7
 10
407.09732643683674
 20
306.56810602460041
 11
407.09732643683674
 21
348.23477269126761
  0
CIRCLE
  8
_0-d_寸法3
  6
CONTINUOUS
 62
    1
 10
407.09732643683674
 20
343.23477269126761
 40
1.5000000000000002
  0
LINE
  8
_0-d_寸法3
  6
CONTINUOUS
 62
    7
 10
368.76399310350325
 20
343.23477269126761
 11
407.09732643683674
 21
343.23477269126761
  0
TEXT
  8
_0-d_寸法3
 62
    7
 10
376.33997713812681
 20
343.23477269126761
 40
15
 41
1
 50
0
  1
8
  0
LINE
  8
_0-d_寸法3
  6
CONTINUOUS
 62
    7
 10
417.09732643683674
 20
306.56810602460041
 11
417.09732643683674
 21
348.23477269126761
  0
LINE
  8
_0-d_寸法3
  6
CONTINUOUS
 62
    7
 10
417.09732643683674
 20
343.23477269126761
 11
426.75658469972745
 21
345.82296314229274
  0
LINE
  8
_0-d_寸法3
  6
CONTINUOUS
 62
    7
 10
417.09732643683674
 20
343.23477269126761
 11
426.7565846997274
 21
340.64658224024237
  0
LINE
  8
_0-d_寸法3
  6
CONTINUOUS
 62
    7
 10
407.09732643683674
 20
343.23477269126761
 11
442.09732643683674
 21
343.23477269126761
  0
TEXT
  8
_0-d_寸法3
 62
    7
 10
423.38919524512221
 20
343.23477269126761
 40
15
 41
1
 50
0
  1
6
  0
LINE
  8
_0-d_寸法3
  6
CONTINUOUS
 62
    7
 10
517.09732643683992
 20
306.56810602460041
 11
517.09732643683992
 21
348.23477269126761
  0
LINE
  8
_0-d_寸法3
  6
CONTINUOUS
 62
    7
 10
517.09732643683992
 20
343.23477269126761
 11
526.75658469973064
 21
345.82296314229279
  0
LINE
  8
_0-d_寸法3
  6
CONTINUOUS
 62
    7
 10
517.09732643683992
 20
343.23477269126761
 11
526.75658469973064
 21
340.64658224024242
  0
LINE
  8
_0-d_寸法3
  6
CONTINUOUS
 62
    7
 10
540.43065977017295
 20
306.56810602460041
 11
540.43065977017295
 21
348.23477269126761
  0
LINE
  8
_0-d_寸法3
  6
CONTINUOUS
 62
    7
 10
540.43065977017295
 20
343.23477269126761
 11
530.77140150728223
 21
340.64658224024242
  0
LINE
  8
_0-d_寸法3
  6
CONTINUOUS
 62
    7
 10
540.43065977017295
 20
343.23477269126761
 11
530.77140150728223
 21
345.82296314229291
  0
LINE
  8
_0-d_寸法3
  6
CONTINUOUS
 62
    7
 10
517.09732643683992
 20
343.23477269126761
 11
540.43065977017295
 21
343.23477269126761
  0
TEXT
  8
_0-d_寸法3
 62
    7
 10
521.26399310350644
 20
343.23477269126761
 40
15
 41
1
 50
0
  1
14
  0
LINE
  8
_0-d_寸法3
  6
CONTINUOUS
 62
    7
 10
540.43065977017295
 20
343.23477269126761
 11
550.08991803306367
 21
345.82296314229274
  0
LINE
  8
_0-d_寸法3
  6
CONTINUOUS
 62
    7
 10
540.43065977017295
 20
343.23477269126761
 11
550.08991803306367
 21
340.64658224024237
  0
LINE
  8
_0-d_寸法3
  6
CONTINUOUS
 62
    7
 10
563.76399310350644
 20
306.56810602460041
 11
563.76399310350644
 21
348.23477269126761
  0
LINE
  8
_0-d_寸法3
  6
CONTINUOUS
 62
    7
 10
563.76399310350644
 20
343.23477269126761
 11
554.10473484061572
 21
340.64658224024242
  0
LINE
  8
_0-d_寸法3
  6
CONTINUOUS
 62
    7
 10
563.76399310350644
 20
343.23477269126761
 11
554.10473484061572
 21
345.82296314229291
  0
LINE
  8
_0-d_寸法3
  6
CONTINUOUS
 62
    7
 10
540.43065977017295
 20
343.23477269126761
 11
563.76399310350644
 21
343.23477269126761
  0
TEXT
  8
_0-d_寸法3
 62
    7
 10
544.59732643683947
 20
343.23477269126761
 40
15
 41
1
 50
0
  1
14
  0
LINE
  8
_0-7_枠細線
  6
CONTINUOUS
 62
    5
 10
1139.4018171150183
 20
373.42884000293418
 11
1139.4018171150183
 21
453.42884000293418
  0
LINE
  8
_0-7_枠細線
  6
CONTINUOUS
 62
    5
 10
1229.4018171150183
 20
373.42884000293418
 11
1229.4018171150183
 21
453.42884000293418
  0
TEXT
  8
_0-7_枠細線
 62
    5
 10
1251.9018171150183
 20
430.92884000293418
 40
15
 41
1
 50
0
  1
蓋重量
  0
LINE
  8
_0-7_枠細線
  6
CONTINUOUS
 62
    5
 10
1319.4018171150183
 20
373.42884000293418
 11
1319.4018171150183
 21
453.42884000293418
  0
TEXT
  8
_0-7_枠細線
 62
    5
 10
1341.9018171150183
 20
430.92884000293418
 40
15
 41
1
 50
0
  1
枠重量
  0
LINE
  8
_0-7_枠細線
  6
CONTINUOUS
 62
    5
 10
1139.4018171150183
 20
423.42884000293418
 11
1409.4018171150183
 21
423.42884000293418
  0
LINE
  8
_0-7_枠細線
  6
CONTINUOUS
 62
    5
 10
1139.4018171150183
 20
453.42884000293418
 11
1409.4018171150183
 21
453.42884000293418
  0
LINE
  8
_0-7_枠細線
  6
CONTINUOUS
 62
    5
 10
1139.4018171150183
 20
373.42884000293418
 11
1409.4018171150183
 21
373.42884000293418
  0
LINE
  8
_0-7_枠細線
  6
CONTINUOUS
 62
    5
 10
1409.4018171150183
 20
373.42884000293418
 11
1409.4018171150183
 21
453.42884000293418
  0
TEXT
  8
_0-7_枠細線
 62
    5
 10
1154.4018171150183
 20
430.92884000293418
 40
15
 41
1
 50
0
  1
適用荷重
  0
TEXT
  8
_0-7_枠細線
 62
    5
 10
1161.9018171150183
 20
400.92884000293418
 40
15
 41
1
 50
0
  1
歩道用
  0
TEXT
  8
_0-7_枠細線
 62
    5
 10
1139.4018171150183
 20
380.92884000293418
 40
15
 41
1
 50
0
  1
（5.0kN/㎡）
  0
TEXT
  8
_0-7_枠細線
 62
    5
 10
1250.4018171150187
 20
392.17884000293418
 40
15
 41
0.8000000000000001
 50
0
  1
2.2kg/枚
  0
TEXT
  8
_0-7_枠細線
 62
    5
 10
1334.4018171150183
 20
392.17884000293418
 40
15
 41
0.8000000000000001
 50
0
  1
2.4kg/ｍ組
  0
LINE
  8
_0-1_計細線
  6
CONTINUOUS
 62
    3
 10
978.43374986367235
 20
704.68176632391737
 11
978.43374986367235
 21
698.68176632392135
  0
LINE
  8
_0-1_計細線
  6
CONTINUOUS
 62
    3
 10
978.43374986367235
 20
691.68176632391737
 11
978.43374986367235
 21
685.68176632392135
  0
LINE
  8
_0-1_計細線
  6
CONTINUOUS
 62
    3
 10
978.43374986367235
 20
678.68176632391726
 11
978.43374986367235
 21
672.68176632392147
  0
LINE
  8
_0-1_計細線
  6
CONTINUOUS
 62
    3
 10
978.43374986367235
 20
665.68176632391726
 11
978.43374986367235
 21
659.68176632392147
  0
LINE
  8
_0-1_計細線
  6
CONTINUOUS
 62
    3
 10
978.43374986367235
 20
652.68176632391726
 11
978.43374986367235
 21
646.68176632392135
  0
LINE
  8
_0-1_計細線
  6
CONTINUOUS
 62
    3
 10
978.43374986367235
 20
639.68176632391737
 11
978.43374986367235
 21
633.68176632392135
  0
LINE
  8
_0-0_計極細
  6
CENTER2
 62
    2
 10
282.4927670537943
 20
656.18176632391726
 11
1167.3135077945349
 21
656.18176632391726
  0
LINE
  8
_0-1_計細線
  6
CONTINUOUS
 62
    3
 10
471.43374986367286
 20
704.68176632391737
 11
471.43374986367286
 21
698.68176632392135
  0
LINE
  8
_0-1_計細線
  6
CONTINUOUS
 62
    3
 10
471.43374986367286
 20
691.68176632391737
 11
471.43374986367286
 21
685.68176632392135
  0
LINE
  8
_0-1_計細線
  6
CONTINUOUS
 62
    3
 10
471.43374986367286
 20
678.68176632391726
 11
471.43374986367286
 21
672.68176632392147
  0
LINE
  8
_0-1_計細線
  6
CONTINUOUS
 62
    3
 10
471.43374986367286
 20
665.68176632391726
 11
471.43374986367286
 21
659.68176632392147
  0
LINE
  8
_0-1_計細線
  6
CONTINUOUS
 62
    3
 10
471.43374986367286
 20
652.68176632391726
 11
471.43374986367286
 21
646.68176632392135
  0
LINE
  8
_0-1_計細線
  6
CONTINUOUS
 62
    3
 10
471.43374986367286
 20
639.68176632391737
 11
471.43374986367286
 21
633.68176632392135
  0
LINE
  8
_0-1_計細線
  6
CONTINUOUS
 62
    3
 10
1164.9337498636719
 20
763.18176632391726
 11
284.93374986367286
 21
763.18176632391726
  0
ARC
  8
_0-1_計細線
  6
CONTINUOUS
 62
    3
 10
1151.871249863691
 20
755.68176632391908
 40
15.062499999984542
 50
330.13716564368235
 51
29.862834356304496
  0
ARC
  8
_0-1_計細線
  6
CONTINUOUS
 62
    3
 10
1177.996249863691
 20
740.68176632391908
 40
15.062500000017272
 50
150.13716564376668
 51
209.86283435624458
  0
LINE
  8
_0-1_計細線
  6
CONTINUOUS
 62
    3
 10
286.24584224919818
 20
760.18176632391726
 11
1166.2458422491982
 21
760.18176632391726
  0
LINE
  8
_0-5_寸法線
  6
CONTINUOUS
 62
    7
 10
475.4337498636728
 20
773.18176632391601
 11
475.4337498636728
 21
853.18176632391726
  0
LINE
  8
_0-5_寸法線
  6
CONTINUOUS
 62
    7
 10
475.4337498636728
 20
848.18176632391726
 11
485.09300812656352
 21
850.76995677494256
  0
LINE
  8
_0-5_寸法線
  6
CONTINUOUS
 62
    7
 10
475.4337498636728
 20
848.18176632391726
 11
485.09300812656352
 21
845.59357587289219
  0
LINE
  8
_0-5_寸法線
  6
CONTINUOUS
 62
    7
 10
974.43374986367292
 20
773.18176632391601
 11
974.43374986367292
 21
853.18176632391726
  0
LINE
  8
_0-5_寸法線
  6
CONTINUOUS
 62
    7
 10
974.43374986367292
 20
848.18176632391726
 11
964.77449160078208
 21
845.59357587289219
  0
LINE
  8
_0-5_寸法線
  6
CONTINUOUS
 62
    7
 10
974.43374986367292
 20
848.18176632391726
 11
964.77449160078208
 21
850.76995677494256
  0
LINE
  8
_0-5_寸法線
  6
CONTINUOUS
 62
    7
 10
475.4337498636728
 20
848.18176632391726
 11
974.43374986367292
 21
848.18176632391726
  0
TEXT
  8
_0-5_寸法線
 62
    7
 10
713.6837498636728
 20
848.18176632391726
 40
15
 41
1
 50
0
  1
499
  0
LINE
  8
_0-5_寸法線
  6
CONTINUOUS
 62
    7
 10
475.4337498636728
 20
773.18176632391726
 11
475.4337498636728
 21
818.18176632391726
  0
LINE
  8
_0-5_寸法線
  6
CONTINUOUS
 62
    7
 10
475.4337498636728
 20
813.18176632391726
 11
485.09300812656352
 21
815.76995677494256
  0
LINE
  8
_0-5_寸法線
  6
CONTINUOUS
 62
    7
 10
475.4337498636728
 20
813.18176632391726
 11
485.09300812656352
 21
810.59357587289219
  0
LINE
  8
_0-5_寸法線
  6
CONTINUOUS
 62
    7
 10
574.9337498636728
 20
773.18176632391726
 11
574.9337498636728
 21
818.18176632391726
  0
LINE
  8
_0-5_寸法線
  6
CONTINUOUS
 62
    7
 10
574.9337498636728
 20
813.18176632391726
 11
565.27449160078208
 21
810.59357587289219
  0
LINE
  8
_0-5_寸法線
  6
CONTINUOUS
 62
    7
 10
574.9337498636728
 20
813.18176632391726
 11
565.27449160078208
 21
815.76995677494256
  0
LINE
  8
_0-5_寸法線
  6
CONTINUOUS
 62
    7
 10
475.4337498636728
 20
813.18176632391726
 11
574.9337498636728
 21
813.18176632391726
  0
TEXT
  8
_0-5_寸法線
 62
    7
 10
510.18374986367286
 20
813.18176632391726
 40
15
 41
1
 50
0
  1
99.5
  0
LINE
  8
_0-5_寸法線
  6
CONTINUOUS
 62
    7
 10
574.9337498636728
 20
813.18176632391726
 11
584.59300812656352
 21
815.76995677494256
  0
LINE
  8
_0-5_寸法線
  6
CONTINUOUS
 62
    7
 10
574.9337498636728
 20
813.18176632391726
 11
584.59300812656352
 21
810.59357587289196
  0
LINE
  8
_0-5_寸法線
  6
CONTINUOUS
 62
    7
 10
674.9337498636728
 20
773.18176632391726
 11
674.9337498636728
 21
818.18176632391726
  0
LINE
  8
_0-5_寸法線
  6
CONTINUOUS
 62
    7
 10
674.9337498636728
 20
813.18176632391726
 11
665.27449160078208
 21
810.59357587289219
  0
LINE
  8
_0-5_寸法線
  6
CONTINUOUS
 62
    7
 10
674.9337498636728
 20
813.18176632391726
 11
665.27449160078208
 21
815.76995677494256
  0
LINE
  8
_0-5_寸法線
  6
CONTINUOUS
 62
    7
 10
574.9337498636728
 20
813.18176632391726
 11
674.9337498636728
 21
813.18176632391726
  0
TEXT
  8
_0-5_寸法線
 62
    7
 10
613.6837498636728
 20
813.18176632391726
 40
15
 41
1
 50
0
  1
100
  0
LINE
  8
_0-5_寸法線
  6
CONTINUOUS
 62
    7
 10
674.9337498636728
 20
813.18176632391726
 11
684.59300812656352
 21
815.76995677494256
  0
LINE
  8
_0-5_寸法線
  6
CONTINUOUS
 62
    7
 10
674.9337498636728
 20
813.18176632391726
 11
684.59300812656352
 21
810.59357587289196
  0
LINE
  8
_0-5_寸法線
  6
CONTINUOUS
 62
    7
 10
774.93374986367257
 20
773.18176632391726
 11
774.9337498636728
 21
818.18176632391726
  0
LINE
  8
_0-5_寸法線
  6
CONTINUOUS
 62
    7
 10
774.9337498636728
 20
813.18176632391726
 11
765.27449160078208
 21
810.59357587289219
  0
LINE
  8
_0-5_寸法線
  6
CONTINUOUS
 62
    7
 10
774.9337498636728
 20
813.18176632391726
 11
765.27449160078208
 21
815.76995677494256
  0
LINE
  8
_0-5_寸法線
  6
CONTINUOUS
 62
    7
 10
674.9337498636728
 20
813.18176632391726
 11
774.9337498636728
 21
813.18176632391726
  0
TEXT
  8
_0-5_寸法線
 62
    7
 10
713.6837498636728
 20
813.18176632391726
 40
15
 41
1
 50
0
  1
100
  0
LINE
  8
_0-5_寸法線
  6
CONTINUOUS
 62
    7
 10
774.9337498636728
 20
813.18176632391726
 11
784.59300812656352
 21
815.76995677494256
  0
LINE
  8
_0-5_寸法線
  6
CONTINUOUS
 62
    7
 10
774.9337498636728
 20
813.18176632391726
 11
784.59300812656352
 21
810.59357587289196
  0
LINE
  8
_0-5_寸法線
  6
CONTINUOUS
 62
    7
 10
874.93374986367257
 20
773.18176632391726
 11
874.9337498636728
 21
818.18176632391726
  0
LINE
  8
_0-5_寸法線
  6
CONTINUOUS
 62
    7
 10
874.9337498636728
 20
813.18176632391726
 11
865.2744916007822
 21
810.59357587289219
  0
LINE
  8
_0-5_寸法線
  6
CONTINUOUS
 62
    7
 10
874.9337498636728
 20
813.18176632391726
 11
865.2744916007822
 21
815.76995677494256
  0
LINE
  8
_0-5_寸法線
  6
CONTINUOUS
 62
    7
 10
774.9337498636728
 20
813.18176632391726
 11
874.9337498636728
 21
813.18176632391726
  0
TEXT
  8
_0-5_寸法線
 62
    7
 10
813.6837498636728
 20
813.18176632391726
 40
15
 41
1
 50
0
  1
100
  0
LINE
  8
_0-5_寸法線
  6
CONTINUOUS
 62
    7
 10
874.9337498636728
 20
813.18176632391726
 11
884.59300812656352
 21
815.76995677494256
  0
LINE
  8
_0-5_寸法線
  6
CONTINUOUS
 62
    7
 10
874.9337498636728
 20
813.18176632391726
 11
884.59300812656352
 21
810.59357587289196
  0
LINE
  8
_0-5_寸法線
  6
CONTINUOUS
 62
    7
 10
974.43374986367292
 20
773.18176632391726
 11
974.43374986367292
 21
818.18176632391726
  0
LINE
  8
_0-5_寸法線
  6
CONTINUOUS
 62
    7
 10
974.43374986367292
 20
813.18176632391726
 11
964.77449160078208
 21
810.59357587289219
  0
LINE
  8
_0-5_寸法線
  6
CONTINUOUS
 62
    7
 10
974.43374986367292
 20
813.18176632391726
 11
964.77449160078208
 21
815.76995677494256
  0
LINE
  8
_0-5_寸法線
  6
CONTINUOUS
 62
    7
 10
874.9337498636728
 20
813.18176632391726
 11
974.43374986367292
 21
813.18176632391726
  0
TEXT
  8
_0-5_寸法線
 62
    7
 10
909.6837498636728
 20
813.18176632391726
 40
15
 41
1
 50
0
  1
99.5
  0
LINE
  8
_0-1_計細線
  6
CONTINUOUS
 62
    3
 10
978.43374986367235
 20
758.18176632391317
 11
978.43374986367235
 21
752.18176632391737
  0
LINE
  8
_0-1_計細線
  6
CONTINUOUS
 62
    3
 10
978.43374986367235
 20
745.18176632391726
 11
978.43374986367235
 21
739.18176632392124
  0
LINE
  8
_0-1_計細線
  6
CONTINUOUS
 62
    3
 10
978.43374986367235
 20
732.18176632391737
 11
978.43374986367235
 21
726.18176632392124
  0
LINE
  8
_0-1_計細線
  6
CONTINUOUS
 62
    3
 10
978.43374986367235
 20
719.18176632391737
 11
978.43374986367235
 21
713.18176632392112
  0
LINE
  8
_0-0_計極細
  6
CONTINUOUS
 62
    2
 10
1124.9337498636723
 20
656.18176632391726
 11
1125.0288782978134
 21
656.52188143923331
  0
LINE
  8
_0-0_計極細
  6
CONTINUOUS
 62
    2
 10
1125.0288782978134
 20
656.52188143923331
 11
1125.3115821444269
 21
657.53295631532887
  0
LINE
  8
_0-0_計極細
  6
CONTINUOUS
 62
    2
 10
1125.3115821444269
 20
657.53295631532887
 11
1125.7734027768659
 21
659.18747172353937
  0
LINE
  8
_0-0_計極細
  6
CONTINUOUS
 62
    2
 10
1125.7734027768659
 20
659.18747172353937
 11
1126.3990454892116
 21
661.44051433224934
  0
LINE
  8
_0-0_計極細
  6
CONTINUOUS
 62
    2
 10
1126.3990454892116
 20
661.44051433224934
 11
1127.1651749637979
 21
664.2311326103536
  0
LINE
  8
_0-0_計極細
  6
CONTINUOUS
 62
    2
 10
1127.1651749637979
 20
664.2311326103536
 11
1128.0397350956443
 21
667.48410561179696
  0
LINE
  8
_0-0_計極細
  6
CONTINUOUS
 62
    2
 10
1128.0397350956443
 20
667.48410561179696
 11
1128.9824355749677
 21
671.11202608306462
  0
LINE
  8
_0-0_計極細
  6
CONTINUOUS
 62
    2
 10
1128.9824355749677
 20
671.11202608306462
 11
1129.9468189370737
 21
675.01760663784182
  0
LINE
  8
_0-0_計極細
  6
CONTINUOUS
 62
    2
 10
1129.9468189370737
 20
675.01760663784182
 11
1130.883942747641
 21
679.09613874953538
  0
LINE
  8
_0-0_計極細
  6
CONTINUOUS
 62
    2
 10
1130.883942747641
 20
679.09613874953538
 11
1131.7472745025118
 21
683.23806184000546
  0
LINE
  8
_0-0_計極細
  6
CONTINUOUS
 62
    2
 10
1131.7472745025118
 20
683.23806184000546
 11
1132.498013143937
 21
687.33162501372647
  0
LINE
  8
_0-0_計極細
  6
CONTINUOUS
 62
    2
 10
1132.498013143937
 20
687.33162501372647
 11
1133.1098238928992
 21
691.26563884375753
  0
LINE
  8
_0-0_計極細
  6
CONTINUOUS
 62
    2
 10
1133.1098238928992
 20
691.26563884375753
 11
1133.5719710284386
 21
694.93231361694313
  0
LINE
  8
_0-0_計極細
  6
CONTINUOUS
 62
    2
 10
1133.5719710284386
 20
694.93231361694313
 11
1133.8900724972139
 21
698.2301623170215
  0
LINE
  8
_0-0_計極細
  6
CONTINUOUS
 62
    2
 10
1133.8900724972139
 20
698.2301623170215
 11
1134.0841389199309
 21
701.06691471221211
  0
LINE
  8
_0-0_計極細
  6
CONTINUOUS
 62
    2
 10
1134.0841389199309
 20
701.06691471221211
 11
1134.1841060997526
 21
703.36235050902917
  0
LINE
  8
_0-0_計極細
  6
CONTINUOUS
 62
    2
 10
1134.1841060997526
 20
703.36235050902917
 11
1134.2236038196575
 21
705.05092421663733
  0
LINE
  8
_0-0_計極細
  6
CONTINUOUS
 62
    2
 10
1134.2236038196575
 20
705.05092421663733
 11
1134.2331026143156
 21
706.08403175821331
  0
LINE
  8
_0-0_計極細
  6
CONTINUOUS
 62
    2
 10
1134.2331026143156
 20
706.08403175821331
 11
1134.2337498636721
 21
706.43176632391533
  0
LINE
  8
_0-0_計極細
  6
CONTINUOUS
 62
    2
 10
1134.2337498636721
 20
706.43176632391533
 11
1134.2331026143156
 21
706.77960528467463
  0
LINE
  8
_0-0_計極細
  6
CONTINUOUS
 62
    2
 10
1134.2331026143156
 20
706.77960528467463
 11
1134.2236038196575
 21
707.81424488990513
  0
LINE
  8
_0-0_計極細
  6
CONTINUOUS
 62
    2
 10
1134.2236038196575
 20
707.81424488990513
 11
1134.1841060997526
 21
709.50918919749813
  0
LINE
  8
_0-0_計極細
  6
CONTINUOUS
 62
    2
 10
1134.1841060997526
 20
709.50918919749813
 11
1134.0841389199313
 21
711.82074873299598
  0
LINE
  8
_0-0_計極細
  6
CONTINUOUS
 62
    2
 10
1134.0841389199313
 20
711.82074873299598
 11
1133.8900724972139
 21
714.68880216410878
  0
LINE
  8
_0-0_計極細
  6
CONTINUOUS
 62
    2
 10
1133.8900724972139
 20
714.68880216410878
 11
1133.5719710284386
 21
718.03795755269948
  0
LINE
  8
_0-0_計極細
  6
CONTINUOUS
 62
    2
 10
1133.5719710284386
 20
718.03795755269948
 11
1133.1098238928992
 21
721.77917218645621
  0
LINE
  8
_0-0_計極細
  6
CONTINUOUS
 62
    2
 10
1133.1098238928992
 20
721.77917218645621
 11
1132.498013143937
 21
725.81186516954585
  0
LINE
  8
_0-0_計極細
  6
CONTINUOUS
 62
    2
 10
1132.498013143937
 20
725.81186516954585
 11
1131.7472745025118
 21
730.02651522091651
  0
LINE
  8
_0-0_計極細
  6
CONTINUOUS
 62
    2
 10
1131.7472745025118
 20
730.02651522091651
 11
1130.883942747641
 21
734.30768536862433
  0
LINE
  8
_0-0_計極細
  6
CONTINUOUS
 62
    2
 10
1130.883942747641
 20
734.30768536862433
 11
1129.9468189370737
 21
738.53736648202255
  0
LINE
  8
_0-0_計極細
  6
CONTINUOUS
 62
    2
 10
1129.9468189370737
 20
738.53736648202255
 11
1128.9824355749674
 21
742.59849274036583
  0
LINE
  8
_0-0_計極細
  6
CONTINUOUS
 62
    2
 10
1128.9824355749674
 20
742.59849274036583
 11
1128.0397350956443
 21
746.37846167604084
  0
LINE
  8
_0-0_計極細
  6
CONTINUOUS
 62
    2
 10
1128.0397350956443
 20
746.37846167604084
 11
1127.1651749637979
 21
749.77249276326631
  0
LINE
  8
_0-0_計極細
  6
CONTINUOUS
 62
    2
 10
1127.1651749637979
 20
749.77249276326631
 11
1126.3990454892116
 21
752.68668031146535
  0
LINE
  8
_0-0_計極細
  6
CONTINUOUS
 62
    2
 10
1126.3990454892116
 20
752.68668031146535
 11
1125.7734027768659
 21
755.04063303507019
  0
LINE
  8
_0-0_計極細
  6
CONTINUOUS
 62
    2
 10
1125.7734027768659
 20
755.04063303507019
 11
1125.3115821444269
 21
756.7696356420613
  0
LINE
  8
_0-0_計極細
  6
CONTINUOUS
 62
    2
 10
1125.3115821444269
 20
756.7696356420613
 11
1125.0288782978134
 21
757.82630791277211
  0
LINE
  8
_0-0_計極細
  6
CONTINUOUS
 62
    2
 10
1125.0288782978134
 20
757.82630791277211
 11
1124.9337498636723
 21
758.18176632391726
  0
LINE
  8
_0-1_計細線
  6
CONTINUOUS
 62
    3
 10
1164.9337498636719
 20
733.18176632391726
 11
1131.2896022258037
 21
733.18176632391726
  0
ARC
  8
_0-1_計細線
  6
CONTINUOUS
 62
    3
 10
297.99624986365461
 20
755.68176632391908
 40
15.062499999984542
 50
150.13716564369517
 51
209.86283435631606
  0
ARC
  8
_0-1_計細線
  6
CONTINUOUS
 62
    3
 10
271.87124986365461
 20
740.68176632391908
 40
15.062500000017272
 50
330.13716564375386
 51
29.862834356232998
  0
LINE
  8
_0-1_計細線
  6
CONTINUOUS
 62
    3
 10
471.43374986367286
 20
758.18176632391317
 11
471.43374986367286
 21
752.18176632391737
  0
LINE
  8
_0-1_計細線
  6
CONTINUOUS
 62
    3
 10
471.43374986367286
 20
745.18176632391726
 11
471.43374986367286
 21
739.18176632392124
  0
LINE
  8
_0-1_計細線
  6
CONTINUOUS
 62
    3
 10
471.43374986367286
 20
732.18176632391737
 11
471.43374986367286
 21
726.18176632392124
  0
LINE
  8
_0-1_計細線
  6
CONTINUOUS
 62
    3
 10
471.43374986367286
 20
719.18176632391737
 11
471.43374986367286
 21
713.18176632392112
  0
LINE
  8
_0-0_計極細
  6
CONTINUOUS
 62
    2
 10
324.93374986367326
 20
656.18176632391726
 11
324.83862142953222
 21
656.52188143923331
  0
LINE
  8
_0-0_計極細
  6
CONTINUOUS
 62
    2
 10
324.83862142953222
 20
656.52188143923331
 11
324.5559175829186
 21
657.53295631532887
  0
LINE
  8
_0-0_計極細
  6
CONTINUOUS
 62
    2
 10
324.5559175829186
 20
657.53295631532887
 11
324.09409695047964
 21
659.18747172353937
  0
LINE
  8
_0-0_計極細
  6
CONTINUOUS
 62
    2
 10
324.09409695047964
 20
659.18747172353937
 11
323.46845423813392
 21
661.44051433224934
  0
LINE
  8
_0-0_計極細
  6
CONTINUOUS
 62
    2
 10
323.46845423813392
 20
661.44051433224934
 11
322.70232476354778
 21
664.2311326103536
  0
LINE
  8
_0-0_計極細
  6
CONTINUOUS
 62
    2
 10
322.70232476354778
 20
664.2311326103536
 11
321.82776463170109
 21
667.48410561179696
  0
LINE
  8
_0-0_計極細
  6
CONTINUOUS
 62
    2
 10
321.82776463170109
 20
667.48410561179696
 11
320.88506415237782
 21
671.11202608306462
  0
LINE
  8
_0-0_計極細
  6
CONTINUOUS
 62
    2
 10
320.88506415237782
 20
671.11202608306462
 11
319.92068079027177
 21
675.01760663784182
  0
LINE
  8
_0-0_計極細
  6
CONTINUOUS
 62
    2
 10
319.92068079027177
 20
675.01760663784182
 11
318.9835569797043
 21
679.09613874953538
  0
LINE
  8
_0-0_計極細
  6
CONTINUOUS
 62
    2
 10
318.9835569797043
 20
679.09613874953538
 11
318.12022522483346
 21
683.23806184000546
  0
LINE
  8
_0-0_計極細
  6
CONTINUOUS
 62
    2
 10
318.12022522483346
 20
683.23806184000546
 11
317.36948658340822
 21
687.33162501372647
  0
LINE
  8
_0-0_計極細
  6
CONTINUOUS
 62
    2
 10
317.36948658340822
 20
687.33162501372647
 11
316.7576758344461
 21
691.26563884375753
  0
LINE
  8
_0-0_計極細
  6
CONTINUOUS
 62
    2
 10
316.7576758344461
 20
691.26563884375753
 11
316.29552869890665
 21
694.93231361694313
  0
LINE
  8
_0-0_計極細
  6
CONTINUOUS
 62
    2
 10
316.29552869890665
 20
694.93231361694313
 11
315.97742723013113
 21
698.2301623170215
  0
LINE
  8
_0-0_計極細
  6
CONTINUOUS
 62
    2
 10
315.97742723013113
 20
698.2301623170215
 11
315.78336080741423
 21
701.06691471221211
  0
LINE
  8
_0-0_計極細
  6
CONTINUOUS
 62
    2
 10
315.78336080741423
 20
701.06691471221211
 11
315.68339362759264
 21
703.36235050902917
  0
LINE
  8
_0-0_計極細
  6
CONTINUOUS
 62
    2
 10
315.68339362759264
 20
703.36235050902917
 11
315.64389590768769
 21
705.05092421663733
  0
LINE
  8
_0-0_計極細
  6
CONTINUOUS
 62
    2
 10
315.64389590768769
 20
705.05092421663733
 11
315.63439711302965
 21
706.08403175821331
  0
LINE
  8
_0-0_計極細
  6
CONTINUOUS
 62
    2
 10
315.63439711302965
 20
706.08403175821331
 11
315.63374986367307
 21
706.43176632391533
  0
LINE
  8
_0-0_計極細
  6
CONTINUOUS
 62
    2
 10
315.63374986367307
 20
706.43176632391533
 11
315.63439711302965
 21
706.77960528467463
  0
LINE
  8
_0-0_計極細
  6
CONTINUOUS
 62
    2
 10
315.63439711302965
 20
706.77960528467463
 11
315.64389590768769
 21
707.81424488990513
  0
LINE
  8
_0-0_計極細
  6
CONTINUOUS
 62
    2
 10
315.64389590768769
 20
707.81424488990513
 11
315.68339362759275
 21
709.50918919749813
  0
LINE
  8
_0-0_計極細
  6
CONTINUOUS
 62
    2
 10
315.68339362759275
 20
709.50918919749813
 11
315.78336080741423
 21
711.82074873299598
  0
LINE
  8
_0-0_計極細
  6
CONTINUOUS
 62
    2
 10
315.78336080741423
 20
711.82074873299598
 11
315.97742723013113
 21
714.68880216410878
  0
LINE
  8
_0-0_計極細
  6
CONTINUOUS
 62
    2
 10
315.97742723013113
 20
714.68880216410878
 11
316.29552869890659
 21
718.03795755269948
  0
LINE
  8
_0-0_計極細
  6
CONTINUOUS
 62
    2
 10
316.29552869890659
 20
718.03795755269948
 11
316.7576758344461
 21
721.77917218645621
  0
LINE
  8
_0-0_計極細
  6
CONTINUOUS
 62
    2
 10
316.7576758344461
 20
721.77917218645621
 11
317.36948658340822
 21
725.81186516954585
  0
LINE
  8
_0-0_計極細
  6
CONTINUOUS
 62
    2
 10
317.36948658340822
 20
725.81186516954585
 11
318.12022522483346
 21
730.02651522091651
  0
LINE
  8
_0-0_計極細
  6
CONTINUOUS
 62
    2
 10
318.12022522483346
 20
730.02651522091651
 11
318.9835569797043
 21
734.30768536862433
  0
LINE
  8
_0-0_計極細
  6
CONTINUOUS
 62
    2
 10
318.9835569797043
 20
734.30768536862433
 11
319.92068079027177
 21
738.53736648202255
  0
LINE
  8
_0-0_計極細
  6
CONTINUOUS
 62
    2
 10
319.92068079027177
 20
738.53736648202255
 11
320.88506415237782
 21
742.59849274036583
  0
LINE
  8
_0-0_計極細
  6
CONTINUOUS
 62
    2
 10
320.88506415237782
 20
742.59849274036583
 11
321.82776463170109
 21
746.37846167604084
  0
LINE
  8
_0-0_計極細
  6
CONTINUOUS
 62
    2
 10
321.82776463170109
 20
746.37846167604084
 11
322.70232476354778
 21
749.77249276326631
  0
LINE
  8
_0-0_計極細
  6
CONTINUOUS
 62
    2
 10
322.70232476354778
 20
749.77249276326631
 11
323.46845423813386
 21
752.68668031146535
  0
LINE
  8
_0-0_計極細
  6
CONTINUOUS
 62
    2
 10
323.46845423813386
 20
752.68668031146535
 11
324.09409695047964
 21
755.04063303507019
  0
LINE
  8
_0-0_計極細
  6
CONTINUOUS
 62
    2
 10
324.09409695047964
 20
755.04063303507019
 11
324.5559175829186
 21
756.7696356420613
  0
LINE
  8
_0-0_計極細
  6
CONTINUOUS
 62
    2
 10
324.5559175829186
 20
756.7696356420613
 11
324.83862142953222
 21
757.82630791277211
  0
LINE
  8
_0-0_計極細
  6
CONTINUOUS
 62
    2
 10
324.83862142953222
 20
757.82630791277211
 11
324.93374986367326
 21
758.18176632391726
  0
LINE
  8
_0-1_計細線
  6
CONTINUOUS
 62
    3
 10
284.93374986367326
 20
733.18176632391726
 11
318.57789750154188
 21
733.18176632391726
  0
LINE
  8
_0-1_計細線
  6
CONTINUOUS
 62
    3
 10
1163.621657478147
 20
552.18176632391737
 11
283.62165747814743
 21
552.18176632391737
  0
LINE
  8
_0-1_計細線
  6
CONTINUOUS
 62
    3
 10
1164.9337498636719
 20
549.18176632391726
 11
284.93374986367286
 21
549.18176632391726
  0
ARC
  8
_0-1_計細線
  6
CONTINUOUS
 62
    3
 10
1177.9962498636619
 20
556.68176632391908
 40
15.06249999999028
 50
150.13716564371197
 51
209.86283435630014
  0
ARC
  8
_0-1_計細線
  6
CONTINUOUS
 62
    3
 10
1151.8712498637055
 20
571.68176632390771
 40
15.062499999975882
 50
330.13716564369213
 51
29.862834356369991
  0
LINE
  8
_0-5_寸法線
  6
CONTINUOUS
 62
    7
 10
789.91333547298484
 20
595.83756053718764
 11
794.91333547298484
 21
587.17730649934322
  0
LINE
  8
_0-5_寸法線
  6
CONTINUOUS
 62
    7
 10
789.91333547298484
 20
595.83756053718764
 11
789.91333547298484
 21
585.83756053718764
  0
LINE
  8
_0-5_寸法線
  6
CONTINUOUS
 62
    7
 10
789.91333547298484
 20
595.83756053718764
 11
813.27081859303871
 21
508.66624679621293
  0
LINE
  8
_0-5_寸法線
  6
CONTINUOUS
 62
    7
 10
813.27081859303871
 20
508.66624679621293
 11
947.70983080815859
 21
508.66624679621293
  0
TEXT
  8
_0-5_寸法線
 62
    7
 10
815.70983080815859
 20
508.66624679621293
 40
15
 41
0.8000000000000001
 50
0
  1
ステンレスグレーチング
  0
LINE
  8
_0-5_寸法線
  6
CONTINUOUS
 62
    7
 10
582.489070061245
 20
550.39677801545042
 11
587.489070061245
 21
541.73652397760611
  0
LINE
  8
_0-5_寸法線
  6
CONTINUOUS
 62
    7
 10
582.489070061245
 20
550.39677801545042
 11
582.489070061245
 21
540.39677801545042
  0
LINE
  8
_0-5_寸法線
  6
CONTINUOUS
 62
    7
 10
582.489070061245
 20
550.39677801545042
 11
593.67073220116072
 21
508.66624679621293
  0
LINE
  8
_0-5_寸法線
  6
CONTINUOUS
 62
    7
 10
593.67073220116072
 20
508.66624679621293
 11
701.72160541259518
 21
508.66624679621293
  0
TEXT
  8
_0-5_寸法線
 62
    7
 10
593.72160541259518
 20
508.66624679621293
 40
15
 41
0.8000000000000001
 50
0
  1
ＳＵＳアングル受枠
  0
LINE
  8
_0-1_計細線
  6
CONTINUOUS
 62
    3
 10
978.43374986367235
 20
625.18176632391726
 11
978.43374986367235
 21
619.18176632392135
  0
LINE
  8
_0-1_計細線
  6
CONTINUOUS
 62
    3
 10
978.43374986367235
 20
612.18176632391737
 11
978.43374986367235
 21
606.18176632392135
  0
LINE
  8
_0-1_計細線
  6
CONTINUOUS
 62
    3
 10
978.43374986367235
 20
599.18176632391726
 11
978.43374986367235
 21
593.18176632392135
  0
LINE
  8
_0-1_計細線
  6
CONTINUOUS
 62
    3
 10
978.43374986367235
 20
586.18176632391726
 11
978.43374986367235
 21
580.18176632392147
  0
LINE
  8
_0-1_計細線
  6
CONTINUOUS
 62
    3
 10
978.43374986367235
 20
573.18176632391726
 11
978.43374986367235
 21
567.18176632392135
  0
LINE
  8
_0-1_計細線
  6
CONTINUOUS
 62
    3
 10
978.43374986367235
 20
560.18176632391726
 11
978.43374986367235
 21
554.18176632392135
  0
LINE
  8
_0-0_計極細
  6
CONTINUOUS
 62
    2
 10
1124.9337498636723
 20
554.18176632391635
 11
1124.8386214295313
 21
554.52188143923229
  0
LINE
  8
_0-0_計極細
  6
CONTINUOUS
 62
    2
 10
1124.8386214295313
 20
554.52188143923229
 11
1124.5559175829178
 21
555.53295631532797
  0
LINE
  8
_0-0_計極細
  6
CONTINUOUS
 62
    2
 10
1124.5559175829178
 20
555.53295631532797
 11
1124.0940969504788
 21
557.18747172353835
  0
LINE
  8
_0-0_計極細
  6
CONTINUOUS
 62
    2
 10
1124.0940969504788
 20
557.18747172353835
 11
1123.4684542381331
 21
559.44051433224831
  0
LINE
  8
_0-0_計極細
  6
CONTINUOUS
 62
    2
 10
1123.4684542381331
 20
559.44051433224831
 11
1122.702324763547
 21
562.23113261035257
  0
LINE
  8
_0-0_計極細
  6
CONTINUOUS
 62
    2
 10
1122.702324763547
 20
562.23113261035257
 11
1121.8277646317001
 21
565.48410561179605
  0
LINE
  8
_0-0_計極細
  6
CONTINUOUS
 62
    2
 10
1121.8277646317001
 20
565.48410561179605
 11
1120.8850641523768
 21
569.1120260830636
  0
LINE
  8
_0-0_計極細
  6
CONTINUOUS
 62
    2
 10
1120.8850641523768
 20
569.1120260830636
 11
1119.920680790271
 21
573.01760663784091
  0
LINE
  8
_0-0_計極細
  6
CONTINUOUS
 62
    2
 10
1119.920680790271
 20
573.01760663784091
 11
1118.9835569797035
 21
577.09613874953436
  0
LINE
  8
_0-0_計極細
  6
CONTINUOUS
 62
    2
 10
1118.9835569797035
 20
577.09613874953436
 11
1118.1202252248324
 21
581.23806184000455
  0
LINE
  8
_0-0_計極細
  6
CONTINUOUS
 62
    2
 10
1118.1202252248324
 20
581.23806184000455
 11
1117.3694865834073
 21
585.33162501372556
  0
LINE
  8
_0-0_計極細
  6
CONTINUOUS
 62
    2
 10
1117.3694865834073
 20
585.33162501372556
 11
1116.7576758344453
 21
589.26563884375673
  0
LINE
  8
_0-0_計極細
  6
CONTINUOUS
 62
    2
 10
1116.7576758344453
 20
589.26563884375673
 11
1116.2955286989059
 21
592.93231361694222
  0
LINE
  8
_0-0_計極細
  6
CONTINUOUS
 62
    2
 10
1116.2955286989059
 20
592.93231361694222
 11
1115.9774272301302
 21
596.23016231702059
  0
LINE
  8
_0-0_計極細
  6
CONTINUOUS
 62
    2
 10
1115.9774272301302
 20
596.23016231702059
 11
1115.7833608074131
 21
599.0669147122112
  0
LINE
  8
_0-0_計極細
  6
CONTINUOUS
 62
    2
 10
1115.7833608074131
 20
599.0669147122112
 11
1115.6833936275916
 21
601.36235050902815
  0
LINE
  8
_0-0_計極細
  6
CONTINUOUS
 62
    2
 10
1115.6833936275916
 20
601.36235050902815
 11
1115.6438959076868
 21
603.05092421663642
  0
LINE
  8
_0-0_計極細
  6
CONTINUOUS
 62
    2
 10
1115.6438959076868
 20
603.05092421663642
 11
1115.6343971130286
 21
604.0840317582124
  0
LINE
  8
_0-0_計極細
  6
CONTINUOUS
 62
    2
 10
1115.6343971130286
 20
604.0840317582124
 11
1115.6337498636722
 21
604.4317663239143
  0
LINE
  8
_0-0_計極細
  6
CONTINUOUS
 62
    2
 10
1115.6337498636722
 20
604.4317663239143
 11
1115.6343971130286
 21
604.77960528467383
  0
LINE
  8
_0-0_計極細
  6
CONTINUOUS
 62
    2
 10
1115.6343971130286
 20
604.77960528467383
 11
1115.6438959076868
 21
605.8142448899041
  0
LINE
  8
_0-0_計極細
  6
CONTINUOUS
 62
    2
 10
1115.6438959076868
 20
605.8142448899041
 11
1115.6833936275916
 21
607.50918919749722
  0
LINE
  8
_0-0_計極細
  6
CONTINUOUS
 62
    2
 10
1115.6833936275916
 20
607.50918919749722
 11
1115.7833608074131
 21
609.82074873299507
  0
LINE
  8
_0-0_計極細
  6
CONTINUOUS
 62
    2
 10
1115.7833608074131
 20
609.82074873299507
 11
1115.9774272301304
 21
612.68880216410798
  0
LINE
  8
_0-0_計極細
  6
CONTINUOUS
 62
    2
 10
1115.9774272301304
 20
612.68880216410798
 11
1116.2955286989059
 21
616.03795755269846
  0
LINE
  8
_0-0_計極細
  6
CONTINUOUS
 62
    2
 10
1116.2955286989059
 20
616.03795755269846
 11
1116.7576758344453
 21
619.77917218645518
  0
LINE
  8
_0-0_計極細
  6
CONTINUOUS
 62
    2
 10
1116.7576758344453
 20
619.77917218645518
 11
1117.3694865834075
 21
623.81186516954494
  0
LINE
  8
_0-0_計極細
  6
CONTINUOUS
 62
    2
 10
1117.3694865834075
 20
623.81186516954494
 11
1118.1202252248324
 21
628.0265152209156
  0
LINE
  8
_0-0_計極細
  6
CONTINUOUS
 62
    2
 10
1118.1202252248324
 20
628.0265152209156
 11
1118.9835569797035
 21
632.30768536862331
  0
LINE
  8
_0-0_計極細
  6
CONTINUOUS
 62
    2
 10
1118.9835569797035
 20
632.30768536862331
 11
1119.920680790271
 21
636.53736648202175
  0
LINE
  8
_0-0_計極細
  6
CONTINUOUS
 62
    2
 10
1119.920680790271
 20
636.53736648202175
 11
1120.8850641523768
 21
640.59849274036492
  0
LINE
  8
_0-0_計極細
  6
CONTINUOUS
 62
    2
 10
1120.8850641523768
 20
640.59849274036492
 11
1121.8277646317001
 21
644.37846167603982
  0
LINE
  8
_0-0_計極細
  6
CONTINUOUS
 62
    2
 10
1121.8277646317001
 20
644.37846167603982
 11
1122.702324763547
 21
647.7724927632654
  0
LINE
  8
_0-0_計極細
  6
CONTINUOUS
 62
    2
 10
1122.702324763547
 20
647.7724927632654
 11
1123.4684542381331
 21
650.68668031146444
  0
LINE
  8
_0-0_計極細
  6
CONTINUOUS
 62
    2
 10
1123.4684542381331
 20
650.68668031146444
 11
1124.0940969504788
 21
653.04063303506939
  0
LINE
  8
_0-0_計極細
  6
CONTINUOUS
 62
    2
 10
1124.0940969504788
 20
653.04063303506939
 11
1124.5559175829176
 21
654.76963564206039
  0
LINE
  8
_0-0_計極細
  6
CONTINUOUS
 62
    2
 10
1124.5559175829176
 20
654.76963564206039
 11
1124.8386214295313
 21
655.8263079127712
  0
LINE
  8
_0-0_計極細
  6
CONTINUOUS
 62
    2
 10
1124.8386214295313
 20
655.8263079127712
 11
1124.9337498636723
 21
656.18176632391635
  0
LINE
  8
_0-1_計細線
  6
CONTINUOUS
 62
    3
 10
1164.9337498636719
 20
579.18176632391726
 11
1118.5778975015401
 21
579.18176632391726
  0
ARC
  8
_0-1_計細線
  6
CONTINUOUS
 62
    3
 10
271.87124986368372
 20
556.68176632391908
 40
15.06249999999028
 50
330.13716564369918
 51
29.86283435628857
  0
ARC
  8
_0-1_計細線
  6
CONTINUOUS
 62
    3
 10
297.99624986364006
 20
571.68176632390771
 40
15.062499999975882
 50
150.13716564363051
 51
209.8628343563071
  0
LINE
  8
_0-1_計細線
  6
CONTINUOUS
 62
    3
 10
471.43374986367286
 20
625.18176632391726
 11
471.43374986367286
 21
619.18176632392135
  0
LINE
  8
_0-1_計細線
  6
CONTINUOUS
 62
    3
 10
471.43374986367286
 20
612.18176632391737
 11
471.43374986367286
 21
606.18176632392135
  0
LINE
  8
_0-1_計細線
  6
CONTINUOUS
 62
    3
 10
471.43374986367286
 20
599.18176632391726
 11
471.43374986367286
 21
593.18176632392135
  0
LINE
  8
_0-1_計細線
  6
CONTINUOUS
 62
    3
 10
471.43374986367286
 20
586.18176632391726
 11
471.43374986367286
 21
580.18176632392147
  0
LINE
  8
_0-1_計細線
  6
CONTINUOUS
 62
    3
 10
471.43374986367286
 20
573.18176632391726
 11
471.43374986367286
 21
567.18176632392135
  0
LINE
  8
_0-1_計細線
  6
CONTINUOUS
 62
    3
 10
471.43374986367286
 20
560.18176632391726
 11
471.43374986367286
 21
554.18176632392135
  0
LINE
  8
_0-0_計極細
  6
CONTINUOUS
 62
    2
 10
324.93374986367326
 20
554.18176632391635
 11
325.02887829781434
 21
554.52188143923229
  0
LINE
  8
_0-0_計極細
  6
CONTINUOUS
 62
    2
 10
325.02887829781434
 20
554.52188143923229
 11
325.31158214442792
 21
555.53295631532797
  0
LINE
  8
_0-0_計極細
  6
CONTINUOUS
 62
    2
 10
325.31158214442792
 20
555.53295631532797
 11
325.77340277686682
 21
557.18747172353835
  0
LINE
  8
_0-0_計極細
  6
CONTINUOUS
 62
    2
 10
325.77340277686682
 20
557.18747172353835
 11
326.3990454892126
 21
559.44051433224831
  0
LINE
  8
_0-0_計極細
  6
CONTINUOUS
 62
    2
 10
326.3990454892126
 20
559.44051433224831
 11
327.16517496379868
 21
562.23113261035257
  0
LINE
  8
_0-0_計極細
  6
CONTINUOUS
 62
    2
 10
327.16517496379868
 20
562.23113261035257
 11
328.03973509564537
 21
565.48410561179605
  0
LINE
  8
_0-0_計極細
  6
CONTINUOUS
 62
    2
 10
328.03973509564537
 20
565.48410561179605
 11
328.98243557496858
 21
569.1120260830636
  0
LINE
  8
_0-0_計極細
  6
CONTINUOUS
 62
    2
 10
328.98243557496858
 20
569.1120260830636
 11
329.94681893707451
 21
573.01760663784091
  0
LINE
  8
_0-0_計極細
  6
CONTINUOUS
 62
    2
 10
329.94681893707451
 20
573.01760663784091
 11
330.88394274764192
 21
577.09613874953436
  0
LINE
  8
_0-0_計極細
  6
CONTINUOUS
 62
    2
 10
330.88394274764192
 20
577.09613874953436
 11
331.74727450251277
 21
581.23806184000455
  0
LINE
  8
_0-0_計極細
  6
CONTINUOUS
 62
    2
 10
331.74727450251277
 20
581.23806184000455
 11
332.49801314393801
 21
585.33162501372556
  0
LINE
  8
_0-0_計極細
  6
CONTINUOUS
 62
    2
 10
332.49801314393801
 20
585.33162501372556
 11
333.10982389290007
 21
589.26563884375673
  0
LINE
  8
_0-0_計極細
  6
CONTINUOUS
 62
    2
 10
333.10982389290007
 20
589.26563884375673
 11
333.57197102843946
 21
592.93231361694222
  0
LINE
  8
_0-0_計極細
  6
CONTINUOUS
 62
    2
 10
333.57197102843946
 20
592.93231361694222
 11
333.89007249721493
 21
596.23016231702059
  0
LINE
  8
_0-0_計極細
  6
CONTINUOUS
 62
    2
 10
333.89007249721493
 20
596.23016231702059
 11
334.08413891993189
 21
599.0669147122112
  0
LINE
  8
_0-0_計極細
  6
CONTINUOUS
 62
    2
 10
334.08413891993189
 20
599.0669147122112
 11
334.18410609975348
 21
601.36235050902815
  0
LINE
  8
_0-0_計極細
  6
CONTINUOUS
 62
    2
 10
334.18410609975348
 20
601.36235050902815
 11
334.22360381965848
 21
603.05092421663642
  0
LINE
  8
_0-0_計極細
  6
CONTINUOUS
 62
    2
 10
334.22360381965848
 20
603.05092421663642
 11
334.23310261431646
 21
604.0840317582124
  0
LINE
  8
_0-0_計極細
  6
CONTINUOUS
 62
    2
 10
334.23310261431646
 20
604.0840317582124
 11
334.23374986367298
 21
604.4317663239143
  0
LINE
  8
_0-0_計極細
  6
CONTINUOUS
 62
    2
 10
334.23374986367298
 20
604.4317663239143
 11
334.23310261431646
 21
604.77960528467383
  0
LINE
  8
_0-0_計極細
  6
CONTINUOUS
 62
    2
 10
334.23310261431646
 20
604.77960528467383
 11
334.22360381965848
 21
605.8142448899041
  0
LINE
  8
_0-0_計極細
  6
CONTINUOUS
 62
    2
 10
334.22360381965848
 20
605.8142448899041
 11
334.18410609975348
 21
607.50918919749722
  0
LINE
  8
_0-0_計極細
  6
CONTINUOUS
 62
    2
 10
334.18410609975348
 20
607.50918919749722
 11
334.08413891993189
 21
609.82074873299507
  0
LINE
  8
_0-0_計極細
  6
CONTINUOUS
 62
    2
 10
334.08413891993189
 20
609.82074873299507
 11
333.89007249721493
 21
612.68880216410798
  0
LINE
  8
_0-0_計極細
  6
CONTINUOUS
 62
    2
 10
333.89007249721493
 20
612.68880216410798
 11
333.57197102843946
 21
616.03795755269846
  0
LINE
  8
_0-0_計極細
  6
CONTINUOUS
 62
    2
 10
333.57197102843946
 20
616.03795755269846
 11
333.10982389290012
 21
619.77917218645518
  0
LINE
  8
_0-0_計極細
  6
CONTINUOUS
 62
    2
 10
333.10982389290012
 20
619.77917218645518
 11
332.49801314393801
 21
623.81186516954494
  0
LINE
  8
_0-0_計極細
  6
CONTINUOUS
 62
    2
 10
332.49801314393801
 20
623.81186516954494
 11
331.74727450251277
 21
628.0265152209156
  0
LINE
  8
_0-0_計極細
  6
CONTINUOUS
 62
    2
 10
331.74727450251277
 20
628.0265152209156
 11
330.88394274764192
 21
632.30768536862331
  0
LINE
  8
_0-0_計極細
  6
CONTINUOUS
 62
    2
 10
330.88394274764192
 20
632.30768536862331
 11
329.94681893707451
 21
636.53736648202175
  0
LINE
  8
_0-0_計極細
  6
CONTINUOUS
 62
    2
 10
329.94681893707451
 20
636.53736648202175
 11
328.98243557496858
 21
640.59849274036492
  0
LINE
  8
_0-0_計極細
  6
CONTINUOUS
 62
    2
 10
328.98243557496858
 20
640.59849274036492
 11
328.03973509564537
 21
644.37846167603982
  0
LINE
  8
_0-0_計極細
  6
CONTINUOUS
 62
    2
 10
328.03973509564537
 20
644.37846167603982
 11
327.16517496379873
 21
647.7724927632654
  0
LINE
  8
_0-0_計極細
  6
CONTINUOUS
 62
    2
 10
327.16517496379873
 20
647.7724927632654
 11
326.3990454892126
 21
650.68668031146444
  0
LINE
  8
_0-0_計極細
  6
CONTINUOUS
 62
    2
 10
326.3990454892126
 20
650.68668031146444
 11
325.77340277686682
 21
653.04063303506939
  0
LINE
  8
_0-0_計極細
  6
CONTINUOUS
 62
    2
 10
325.77340277686682
 20
653.04063303506939
 11
325.31158214442792
 21
654.76963564206039
  0
LINE
  8
_0-0_計極細
  6
CONTINUOUS
 62
    2
 10
325.31158214442792
 20
654.76963564206039
 11
325.02887829781434
 21
655.8263079127712
  0
LINE
  8
_0-0_計極細
  6
CONTINUOUS
 62
    2
 10
325.02887829781434
 20
655.8263079127712
 11
324.93374986367326
 21
656.18176632391635
  0
LINE
  8
_0-1_計細線
  6
CONTINUOUS
 62
    3
 10
284.93374986367326
 20
579.18176632391726
 11
331.28960222580508
 21
579.18176632391726
  0
LINE
  8
_0-1_計細線
  6
CONTINUOUS
 62
    3
 10
471.43374986367286
 20
758.18176632391726
 11
474.4337498636728
 21
758.18176632391726
  0
LINE
  8
_0-1_計細線
  6
CONTINUOUS
 62
    3
 10
474.4337498636728
 20
758.18176632391726
 11
474.4337498636728
 21
554.18176632391726
  0
LINE
  8
_0-1_計細線
  6
CONTINUOUS
 62
    3
 10
474.4337498636728
 20
554.18176632391726
 11
471.43374986367286
 21
554.18176632391726
  0
LINE
  8
_0-1_計細線
  6
CONTINUOUS
 62
    3
 10
471.43374986367286
 20
554.18176632391726
 11
471.43374986367286
 21
758.18176632391726
  0
LINE
  8
_0-1_計細線
  6
CONTINUOUS
 62
    3
 10
978.43374986367235
 20
758.18176632391726
 11
975.4337498636728
 21
758.18176632391726
  0
LINE
  8
_0-1_計細線
  6
CONTINUOUS
 62
    3
 10
975.4337498636728
 20
758.18176632391726
 11
975.4337498636728
 21
554.18176632391726
  0
LINE
  8
_0-1_計細線
  6
CONTINUOUS
 62
    3
 10
975.4337498636728
 20
554.18176632391726
 11
978.43374986367235
 21
554.18176632391726
  0
LINE
  8
_0-1_計細線
  6
CONTINUOUS
 62
    3
 10
978.43374986367235
 20
554.18176632391726
 11
978.43374986367235
 21
758.18176632391726
  0
LINE
  8
_0-1_計細線
  6
CONTINUOUS
 62
    3
 10
974.43374986367292
 20
758.18176632391726
 11
971.43374986367235
 21
758.18176632391726
  0
LINE
  8
_0-1_計細線
  6
CONTINUOUS
 62
    3
 10
971.43374986367235
 20
758.18176632391726
 11
971.43374986367235
 21
554.18176632391726
  0
LINE
  8
_0-1_計細線
  6
CONTINUOUS
 62
    3
 10
971.43374986367235
 20
554.18176632391726
 11
974.43374986367292
 21
554.18176632391726
  0
LINE
  8
_0-1_計細線
  6
CONTINUOUS
 62
    3
 10
974.43374986367292
 20
554.18176632391726
 11
974.43374986367292
 21
758.18176632391726
  0
LINE
  8
_0-1_計細線
  6
CONTINUOUS
 62
    3
 10
478.4337498636728
 20
758.18176632391726
 11
475.4337498636728
 21
758.18176632391726
  0
LINE
  8
_0-1_計細線
  6
CONTINUOUS
 62
    3
 10
475.4337498636728
 20
758.18176632391726
 11
475.4337498636728
 21
554.18176632391726
  0
LINE
  8
_0-1_計細線
  6
CONTINUOUS
 62
    3
 10
475.4337498636728
 20
554.18176632391726
 11
478.4337498636728
 21
554.18176632391726
  0
LINE
  8
_0-1_計細線
  6
CONTINUOUS
 62
    3
 10
478.4337498636728
 20
554.18176632391726
 11
478.4337498636728
 21
758.18176632391726
  0
LINE
  8
_0-0_計極細
  6
CENTER2
 62
    2
 10
1074.9337498636728
 20
752.18176632391737
 11
1074.9337498636728
 21
560.18176632391726
  0
LINE
  8
_0-0_計極細
  6
CENTER2
 62
    2
 10
874.93374986367246
 20
752.18176632391737
 11
874.93374986367246
 21
560.18176632391726
  0
LINE
  8
_0-0_計極細
  6
CENTER2
 62
    2
 10
774.93374986367246
 20
752.18176632391737
 11
774.93374986367246
 21
560.18176632391726
  0
LINE
  8
_0-0_計極細
  6
CENTER2
 62
    2
 10
674.9337498636728
 20
752.18176632391737
 11
674.9337498636728
 21
560.18176632391726
  0
LINE
  8
_0-0_計極細
  6
CENTER2
 62
    2
 10
574.9337498636728
 20
752.18176632391737
 11
574.9337498636728
 21
560.18176632391726
  0
LINE
  8
_0-5_寸法線
  6
CONTINUOUS
 62
    7
 10
272.93374986367053
 20
549.18176632391589
 11
227.93374986367056
 21
549.18176632391589
  0
LINE
  8
_0-5_寸法線
  6
CONTINUOUS
 62
    7
 10
232.93374986367056
 20
549.18176632391589
 11
230.34555941264534
 21
558.84102458680661
  0
LINE
  8
_0-5_寸法線
  6
CONTINUOUS
 62
    7
 10
232.93374986367056
 20
549.18176632391589
 11
235.52194031469577
 21
558.84102458680661
  0
LINE
  8
_0-5_寸法線
  6
CONTINUOUS
 62
    7
 10
272.93374986367053
 20
579.18176632391726
 11
227.93374986367056
 21
579.18176632391726
  0
LINE
  8
_0-5_寸法線
  6
CONTINUOUS
 62
    7
 10
232.93374986367056
 20
579.18176632391726
 11
235.52194031469568
 21
569.52250806102654
  0
LINE
  8
_0-5_寸法線
  6
CONTINUOUS
 62
    7
 10
232.93374986367056
 20
579.18176632391726
 11
230.34555941264529
 21
569.52250806102654
  0
LINE
  8
_0-5_寸法線
  6
CONTINUOUS
 62
    7
 10
232.93374986367056
 20
549.18176632391589
 11
232.93374986367056
 21
579.18176632391726
  0
TEXT
  8
_0-5_寸法線
 62
    7
 10
232.93374986367056
 20
556.6817663239168
 40
15
 41
1
 50
90
  1
30
  0
LINE
  8
_0-5_寸法線
  6
CONTINUOUS
 62
    7
 10
232.93374986367056
 20
579.18176632391726
 11
230.34555941264534
 21
588.84102458680798
  0
LINE
  8
_0-5_寸法線
  6
CONTINUOUS
 62
    7
 10
232.93374986367056
 20
579.18176632391726
 11
235.52194031469577
 21
588.84102458680798
  0
LINE
  8
_0-5_寸法線
  6
CONTINUOUS
 62
    7
 10
272.93374986367053
 20
733.18176632391726
 11
227.93374986367056
 21
733.18176632391726
  0
LINE
  8
_0-5_寸法線
  6
CONTINUOUS
 62
    7
 10
232.93374986367056
 20
733.18176632391726
 11
235.52194031469568
 21
723.52250806102666
  0
LINE
  8
_0-5_寸法線
  6
CONTINUOUS
 62
    7
 10
232.93374986367056
 20
733.18176632391726
 11
230.34555941264529
 21
723.52250806102666
  0
LINE
  8
_0-5_寸法線
  6
CONTINUOUS
 62
    7
 10
232.93374986367056
 20
579.18176632391726
 11
232.93374986367056
 21
733.18176632391726
  0
TEXT
  8
_0-5_寸法線
 62
    7
 10
232.93374986367056
 20
644.93176632391726
 40
15
 41
1
 50
90
  1
154
  0
LINE
  8
_0-5_寸法線
  6
CONTINUOUS
 62
    7
 10
232.93374986367056
 20
733.18176632391726
 11
230.34555941264534
 21
742.84102458680809
  0
LINE
  8
_0-5_寸法線
  6
CONTINUOUS
 62
    7
 10
232.93374986367056
 20
733.18176632391726
 11
235.52194031469577
 21
742.84102458680809
  0
LINE
  8
_0-5_寸法線
  6
CONTINUOUS
 62
    7
 10
272.93374986367053
 20
763.18176632391601
 11
227.93374986367056
 21
763.18176632391601
  0
LINE
  8
_0-5_寸法線
  6
CONTINUOUS
 62
    7
 10
232.93374986367056
 20
763.18176632391601
 11
235.52194031469568
 21
753.52250806102518
  0
LINE
  8
_0-5_寸法線
  6
CONTINUOUS
 62
    7
 10
232.93374986367056
 20
763.18176632391601
 11
230.34555941264529
 21
753.52250806102518
  0
LINE
  8
_0-5_寸法線
  6
CONTINUOUS
 62
    7
 10
232.93374986367056
 20
733.18176632391726
 11
232.93374986367056
 21
763.18176632391601
  0
TEXT
  8
_0-5_寸法線
 62
    7
 10
232.93374986367056
 20
740.68176632391658
 40
15
 41
1
 50
90
  1
30
  0
LINE
  8
_0-5_寸法線
  6
CONTINUOUS
 62
    7
 10
1176.9337498636755
 20
549.18176632391589
 11
1256.9337498636755
 21
549.18176632391555
  0
LINE
  8
_0-5_寸法線
  6
CONTINUOUS
 62
    7
 10
1251.9337498636755
 20
549.18176632391555
 11
1249.3455594126503
 21
558.84102458680616
  0
LINE
  8
_0-5_寸法線
  6
CONTINUOUS
 62
    7
 10
1251.9337498636755
 20
549.18176632391555
 11
1254.5219403147007
 21
558.84102458680616
  0
LINE
  8
_0-5_寸法線
  6
CONTINUOUS
 62
    7
 10
1176.9337498636755
 20
763.18176632391601
 11
1256.9337498636755
 21
763.18176632391544
  0
LINE
  8
_0-5_寸法線
  6
CONTINUOUS
 62
    7
 10
1251.9337498636755
 20
763.18176632391544
 11
1254.5219403147007
 21
753.52250806102472
  0
LINE
  8
_0-5_寸法線
  6
CONTINUOUS
 62
    7
 10
1251.9337498636755
 20
763.18176632391544
 11
1249.3455594126503
 21
753.52250806102472
  0
LINE
  8
_0-5_寸法線
  6
CONTINUOUS
 62
    7
 10
1251.9337498636755
 20
549.18176632391555
 11
1251.9337498636755
 21
763.18176632391544
  0
TEXT
  8
_0-5_寸法線
 62
    7
 10
1251.9337498636755
 20
644.93176632391555
 40
15
 41
1
 50
90
  1
214
  0
LINE
  8
_0-0_計極細
  6
CENTER2
 62
    2
 10
374.9337498636728
 20
752.18176632391737
 11
374.9337498636728
 21
560.18176632391726
  0
LINE
  8
_0-1_計細線
  6
CONTINUOUS
 62
    3
 10
478.4337498636728
 20
758.18176632391726
 11
478.4337498636728
 21
750.18176632391726
  0
LINE
  8
_0-1_計細線
  6
CONTINUOUS
 62
    3
 10
478.4337498636728
 20
750.18176632391726
 11
971.43374986367235
 21
750.18176632391726
  0
LINE
  8
_0-1_計細線
  6
CONTINUOUS
 62
    3
 10
971.43374986367235
 20
750.18176632391726
 11
971.43374986367235
 21
758.18176632391726
  0
LINE
  8
_0-1_計細線
  6
CONTINUOUS
 62
    3
 10
971.43374986367235
 20
758.18176632391726
 11
478.4337498636728
 21
758.18176632391726
  0
LINE
  8
_0-1_計細線
  6
CONTINUOUS
 62
    3
 10
478.4337498636728
 20
744.18176632391737
 11
478.4337498636728
 21
736.18176632391726
  0
LINE
  8
_0-1_計細線
  6
CONTINUOUS
 62
    3
 10
478.4337498636728
 20
736.18176632391726
 11
971.43374986367235
 21
736.18176632391726
  0
LINE
  8
_0-1_計細線
  6
CONTINUOUS
 62
    3
 10
971.43374986367235
 20
736.18176632391726
 11
971.43374986367235
 21
744.18176632391737
  0
LINE
  8
_0-1_計細線
  6
CONTINUOUS
 62
    3
 10
971.43374986367235
 20
744.18176632391737
 11
478.4337498636728
 21
744.18176632391737
  0
LINE
  8
_0-1_計細線
  6
CONTINUOUS
 62
    3
 10
478.4337498636728
 20
730.18176632391726
 11
478.4337498636728
 21
722.18176632391771
  0
LINE
  8
_0-1_計細線
  6
CONTINUOUS
 62
    3
 10
478.4337498636728
 20
722.18176632391771
 11
971.43374986367235
 21
722.18176632391771
  0
LINE
  8
_0-1_計細線
  6
CONTINUOUS
 62
    3
 10
971.43374986367235
 20
722.18176632391771
 11
971.43374986367235
 21
730.18176632391726
  0
LINE
  8
_0-1_計細線
  6
CONTINUOUS
 62
    3
 10
971.43374986367235
 20
730.18176632391726
 11
478.4337498636728
 21
730.18176632391726
  0
LINE
  8
_0-1_計細線
  6
CONTINUOUS
 62
    3
 10
478.4337498636728
 20
716.18176632391726
 11
478.4337498636728
 21
708.18176632391771
  0
LINE
  8
_0-1_計細線
  6
CONTINUOUS
 62
    3
 10
478.4337498636728
 20
708.18176632391771
 11
971.43374986367235
 21
708.18176632391771
  0
LINE
  8
_0-1_計細線
  6
CONTINUOUS
 62
    3
 10
971.43374986367235
 20
708.18176632391771
 11
971.43374986367235
 21
716.18176632391726
  0
LINE
  8
_0-1_計細線
  6
CONTINUOUS
 62
    3
 10
971.43374986367235
 20
716.18176632391726
 11
478.4337498636728
 21
716.18176632391726
  0
LINE
  8
_0-1_計細線
  6
CONTINUOUS
 62
    3
 10
478.4337498636728
 20
702.18176632391737
 11
478.4337498636728
 21
694.18176632391783
  0
LINE
  8
_0-1_計細線
  6
CONTINUOUS
 62
    3
 10
478.4337498636728
 20
694.18176632391783
 11
971.43374986367235
 21
694.18176632391783
  0
LINE
  8
_0-1_計細線
  6
CONTINUOUS
 62
    3
 10
971.43374986367235
 20
694.18176632391783
 11
971.43374986367235
 21
702.18176632391737
  0
LINE
  8
_0-1_計細線
  6
CONTINUOUS
 62
    3
 10
971.43374986367235
 20
702.18176632391737
 11
478.4337498636728
 21
702.18176632391737
  0
LINE
  8
_0-1_計細線
  6
CONTINUOUS
 62
    3
 10
478.4337498636728
 20
688.18176632391726
 11
478.4337498636728
 21
680.18176632391726
  0
LINE
  8
_0-1_計細線
  6
CONTINUOUS
 62
    3
 10
478.4337498636728
 20
680.18176632391726
 11
971.43374986367235
 21
680.18176632391726
  0
LINE
  8
_0-1_計細線
  6
CONTINUOUS
 62
    3
 10
971.43374986367235
 20
680.18176632391726
 11
971.43374986367235
 21
688.18176632391726
  0
LINE
  8
_0-1_計細線
  6
CONTINUOUS
 62
    3
 10
971.43374986367235
 20
688.18176632391726
 11
478.4337498636728
 21
688.18176632391726
  0
LINE
  8
_0-1_計細線
  6
CONTINUOUS
 62
    3
 10
478.4337498636728
 20
674.18176632391737
 11
478.4337498636728
 21
666.18176632391726
  0
LINE
  8
_0-1_計細線
  6
CONTINUOUS
 62
    3
 10
478.4337498636728
 20
666.18176632391726
 11
971.43374986367235
 21
666.18176632391726
  0
LINE
  8
_0-1_計細線
  6
CONTINUOUS
 62
    3
 10
971.43374986367235
 20
666.18176632391726
 11
971.43374986367235
 21
674.18176632391737
  0
LINE
  8
_0-1_計細線
  6
CONTINUOUS
 62
    3
 10
971.43374986367235
 20
674.18176632391737
 11
478.4337498636728
 21
674.18176632391737
  0
LINE
  8
_0-0_計極細
  6
CONTINUOUS
 62
    2
 10
577.4337498636728
 20
750.18176632391726
 11
577.4337498636728
 21
744.18176632391737
  0
LINE
  8
_0-0_計極細
  6
CONTINUOUS
 62
    2
 10
572.4337498636728
 20
744.1817663239168
 11
572.4337498636728
 21
750.18176632391726
  0
LINE
  8
_0-0_計極細
  6
CONTINUOUS
 62
    2
 10
577.4337498636728
 20
736.18176632391726
 11
577.4337498636728
 21
730.18176632391692
  0
LINE
  8
_0-0_計極細
  6
CONTINUOUS
 62
    2
 10
572.4337498636728
 20
730.18176632391692
 11
572.4337498636728
 21
736.18176632391726
  0
LINE
  8
_0-0_計極細
  6
CONTINUOUS
 62
    2
 10
577.4337498636728
 20
722.18176632391737
 11
577.4337498636728
 21
716.1817663239168
  0
LINE
  8
_0-0_計極細
  6
CONTINUOUS
 62
    2
 10
572.4337498636728
 20
716.1817663239168
 11
572.4337498636728
 21
722.18176632391737
  0
LINE
  8
_0-0_計極細
  6
CONTINUOUS
 62
    2
 10
577.4337498636728
 20
708.1817663239168
 11
577.4337498636728
 21
702.18176632391692
  0
LINE
  8
_0-0_計極細
  6
CONTINUOUS
 62
    2
 10
572.4337498636728
 20
702.18176632391635
 11
572.4337498636728
 21
708.1817663239168
  0
LINE
  8
_0-0_計極細
  6
CONTINUOUS
 62
    2
 10
577.4337498636728
 20
694.1817663239168
 11
577.4337498636728
 21
688.1817663239168
  0
LINE
  8
_0-0_計極細
  6
CONTINUOUS
 62
    2
 10
572.4337498636728
 20
688.18176632391646
 11
572.4337498636728
 21
694.1817663239168
  0
LINE
  8
_0-0_計極細
  6
CONTINUOUS
 62
    2
 10
577.4337498636728
 20
680.18176632391692
 11
577.4337498636728
 21
674.1817663239168
  0
LINE
  8
_0-0_計極細
  6
CONTINUOUS
 62
    2
 10
572.4337498636728
 20
674.18176632391635
 11
572.4337498636728
 21
680.18176632391692
  0
LINE
  8
_0-0_計極細
  6
CONTINUOUS
 62
    2
 10
677.4337498636728
 20
750.18176632391726
 11
677.4337498636728
 21
744.18176632391737
  0
LINE
  8
_0-0_計極細
  6
CONTINUOUS
 62
    2
 10
672.4337498636728
 20
744.1817663239168
 11
672.4337498636728
 21
750.18176632391726
  0
LINE
  8
_0-0_計極細
  6
CONTINUOUS
 62
    2
 10
677.4337498636728
 20
736.18176632391726
 11
677.4337498636728
 21
730.18176632391692
  0
LINE
  8
_0-0_計極細
  6
CONTINUOUS
 62
    2
 10
672.4337498636728
 20
730.18176632391692
 11
672.4337498636728
 21
736.18176632391726
  0
LINE
  8
_0-0_計極細
  6
CONTINUOUS
 62
    2
 10
677.4337498636728
 20
722.18176632391737
 11
677.4337498636728
 21
716.1817663239168
  0
LINE
  8
_0-0_計極細
  6
CONTINUOUS
 62
    2
 10
672.4337498636728
 20
716.1817663239168
 11
672.4337498636728
 21
722.18176632391737
  0
LINE
  8
_0-0_計極細
  6
CONTINUOUS
 62
    2
 10
677.4337498636728
 20
708.1817663239168
 11
677.4337498636728
 21
702.18176632391692
  0
LINE
  8
_0-0_計極細
  6
CONTINUOUS
 62
    2
 10
672.4337498636728
 20
702.18176632391635
 11
672.4337498636728
 21
708.1817663239168
  0
LINE
  8
_0-0_計極細
  6
CONTINUOUS
 62
    2
 10
677.4337498636728
 20
694.1817663239168
 11
677.4337498636728
 21
688.1817663239168
  0
LINE
  8
_0-0_計極細
  6
CONTINUOUS
 62
    2
 10
672.4337498636728
 20
688.18176632391646
 11
672.4337498636728
 21
694.1817663239168
  0
LINE
  8
_0-0_計極細
  6
CONTINUOUS
 62
    2
 10
677.4337498636728
 20
680.18176632391692
 11
677.4337498636728
 21
674.1817663239168
  0
LINE
  8
_0-0_計極細
  6
CONTINUOUS
 62
    2
 10
672.4337498636728
 20
674.18176632391635
 11
672.4337498636728
 21
680.18176632391692
  0
LINE
  8
_0-0_計極細
  6
CONTINUOUS
 62
    2
 10
777.43374986367246
 20
750.18176632391726
 11
777.43374986367246
 21
744.18176632391737
  0
LINE
  8
_0-0_計極細
  6
CONTINUOUS
 62
    2
 10
772.43374986367246
 20
744.1817663239168
 11
772.43374986367246
 21
750.18176632391726
  0
LINE
  8
_0-0_計極細
  6
CONTINUOUS
 62
    2
 10
777.43374986367246
 20
736.18176632391726
 11
777.43374986367246
 21
730.18176632391692
  0
LINE
  8
_0-0_計極細
  6
CONTINUOUS
 62
    2
 10
772.43374986367246
 20
730.18176632391692
 11
772.43374986367246
 21
736.18176632391726
  0
LINE
  8
_0-0_計極細
  6
CONTINUOUS
 62
    2
 10
777.43374986367246
 20
722.18176632391737
 11
777.43374986367246
 21
716.1817663239168
  0
LINE
  8
_0-0_計極細
  6
CONTINUOUS
 62
    2
 10
772.43374986367246
 20
716.1817663239168
 11
772.43374986367246
 21
722.18176632391737
  0
LINE
  8
_0-0_計極細
  6
CONTINUOUS
 62
    2
 10
777.43374986367246
 20
708.1817663239168
 11
777.43374986367246
 21
702.18176632391692
  0
LINE
  8
_0-0_計極細
  6
CONTINUOUS
 62
    2
 10
772.43374986367246
 20
702.18176632391635
 11
772.43374986367246
 21
708.1817663239168
  0
LINE
  8
_0-0_計極細
  6
CONTINUOUS
 62
    2
 10
777.43374986367246
 20
694.1817663239168
 11
777.43374986367246
 21
688.1817663239168
  0
LINE
  8
_0-0_計極細
  6
CONTINUOUS
 62
    2
 10
772.43374986367246
 20
688.18176632391646
 11
772.43374986367246
 21
694.1817663239168
  0
LINE
  8
_0-0_計極細
  6
CONTINUOUS
 62
    2
 10
777.43374986367246
 20
680.18176632391692
 11
777.43374986367246
 21
674.1817663239168
  0
LINE
  8
_0-0_計極細
  6
CONTINUOUS
 62
    2
 10
772.43374986367246
 20
674.18176632391635
 11
772.43374986367246
 21
680.18176632391692
  0
LINE
  8
_0-0_計極細
  6
CONTINUOUS
 62
    2
 10
877.43374986367246
 20
750.18176632391726
 11
877.43374986367246
 21
744.18176632391737
  0
LINE
  8
_0-0_計極細
  6
CONTINUOUS
 62
    2
 10
872.43374986367246
 20
744.1817663239168
 11
872.43374986367246
 21
750.18176632391726
  0
LINE
  8
_0-0_計極細
  6
CONTINUOUS
 62
    2
 10
877.43374986367246
 20
736.18176632391726
 11
877.43374986367246
 21
730.18176632391692
  0
LINE
  8
_0-0_計極細
  6
CONTINUOUS
 62
    2
 10
872.43374986367246
 20
730.18176632391692
 11
872.43374986367246
 21
736.18176632391726
  0
LINE
  8
_0-0_計極細
  6
CONTINUOUS
 62
    2
 10
877.43374986367246
 20
722.18176632391737
 11
877.43374986367246
 21
716.1817663239168
  0
LINE
  8
_0-0_計極細
  6
CONTINUOUS
 62
    2
 10
872.43374986367246
 20
716.1817663239168
 11
872.43374986367246
 21
722.18176632391737
  0
LINE
  8
_0-0_計極細
  6
CONTINUOUS
 62
    2
 10
877.43374986367246
 20
708.1817663239168
 11
877.43374986367246
 21
702.18176632391692
  0
LINE
  8
_0-0_計極細
  6
CONTINUOUS
 62
    2
 10
872.43374986367246
 20
702.18176632391635
 11
872.43374986367246
 21
708.1817663239168
  0
LINE
  8
_0-0_計極細
  6
CONTINUOUS
 62
    2
 10
877.43374986367246
 20
694.1817663239168
 11
877.43374986367246
 21
688.1817663239168
  0
LINE
  8
_0-0_計極細
  6
CONTINUOUS
 62
    2
 10
872.43374986367246
 20
688.18176632391646
 11
872.43374986367246
 21
694.1817663239168
  0
LINE
  8
_0-0_計極細
  6
CONTINUOUS
 62
    2
 10
877.43374986367246
 20
680.18176632391692
 11
877.43374986367246
 21
674.1817663239168
  0
LINE
  8
_0-0_計極細
  6
CONTINUOUS
 62
    2
 10
872.43374986367246
 20
674.18176632391635
 11
872.43374986367246
 21
680.18176632391692
  0
LINE
  8
_0-1_計細線
  6
CONTINUOUS
 62
    3
 10
478.4337498636728
 20
660.18176632391726
 11
478.4337498636728
 21
652.18176632391737
  0
LINE
  8
_0-1_計細線
  6
CONTINUOUS
 62
    3
 10
478.4337498636728
 20
652.18176632391737
 11
971.43374986367235
 21
652.18176632391737
  0
LINE
  8
_0-1_計細線
  6
CONTINUOUS
 62
    3
 10
971.43374986367235
 20
652.18176632391737
 11
971.43374986367235
 21
660.18176632391726
  0
LINE
  8
_0-1_計細線
  6
CONTINUOUS
 62
    3
 10
971.43374986367235
 20
660.18176632391726
 11
478.4337498636728
 21
660.18176632391726
  0
LINE
  8
_0-0_計極細
  6
CONTINUOUS
 62
    2
 10
577.4337498636728
 20
666.1817663239168
 11
577.4337498636728
 21
660.18176632391692
  0
LINE
  8
_0-0_計極細
  6
CONTINUOUS
 62
    2
 10
572.4337498636728
 20
660.18176632391646
 11
572.4337498636728
 21
666.1817663239168
  0
LINE
  8
_0-0_計極細
  6
CONTINUOUS
 62
    2
 10
677.4337498636728
 20
666.1817663239168
 11
677.4337498636728
 21
660.18176632391692
  0
LINE
  8
_0-0_計極細
  6
CONTINUOUS
 62
    2
 10
672.4337498636728
 20
660.18176632391646
 11
672.4337498636728
 21
666.1817663239168
  0
LINE
  8
_0-0_計極細
  6
CONTINUOUS
 62
    2
 10
777.43374986367246
 20
666.1817663239168
 11
777.43374986367246
 21
660.18176632391692
  0
LINE
  8
_0-0_計極細
  6
CONTINUOUS
 62
    2
 10
772.43374986367246
 20
660.18176632391646
 11
772.43374986367246
 21
666.1817663239168
  0
LINE
  8
_0-0_計極細
  6
CONTINUOUS
 62
    2
 10
877.43374986367246
 20
666.1817663239168
 11
877.43374986367246
 21
660.18176632391692
  0
LINE
  8
_0-0_計極細
  6
CONTINUOUS
 62
    2
 10
872.43374986367246
 20
660.18176632391646
 11
872.43374986367246
 21
666.1817663239168
  0
LINE
  8
_0-1_計細線
  6
CONTINUOUS
 62
    3
 10
478.4337498636728
 20
646.18176632391726
 11
478.4337498636728
 21
638.18176632391726
  0
LINE
  8
_0-1_計細線
  6
CONTINUOUS
 62
    3
 10
478.4337498636728
 20
638.18176632391726
 11
971.43374986367235
 21
638.18176632391726
  0
LINE
  8
_0-1_計細線
  6
CONTINUOUS
 62
    3
 10
971.43374986367235
 20
638.18176632391726
 11
971.43374986367235
 21
646.18176632391726
  0
LINE
  8
_0-1_計細線
  6
CONTINUOUS
 62
    3
 10
971.43374986367235
 20
646.18176632391726
 11
478.4337498636728
 21
646.18176632391726
  0
LINE
  8
_0-0_計極細
  6
CONTINUOUS
 62
    2
 10
577.4337498636728
 20
652.18176632391692
 11
577.4337498636728
 21
646.1817663239168
  0
LINE
  8
_0-0_計極細
  6
CONTINUOUS
 62
    2
 10
572.4337498636728
 20
646.18176632391635
 11
572.4337498636728
 21
652.18176632391692
  0
LINE
  8
_0-0_計極細
  6
CONTINUOUS
 62
    2
 10
677.4337498636728
 20
652.18176632391692
 11
677.4337498636728
 21
646.1817663239168
  0
LINE
  8
_0-0_計極細
  6
CONTINUOUS
 62
    2
 10
672.4337498636728
 20
646.18176632391635
 11
672.4337498636728
 21
652.18176632391692
  0
LINE
  8
_0-0_計極細
  6
CONTINUOUS
 62
    2
 10
777.43374986367246
 20
652.18176632391692
 11
777.43374986367246
 21
646.1817663239168
  0
LINE
  8
_0-0_計極細
  6
CONTINUOUS
 62
    2
 10
772.43374986367246
 20
646.18176632391635
 11
772.43374986367246
 21
652.18176632391692
  0
LINE
  8
_0-0_計極細
  6
CONTINUOUS
 62
    2
 10
877.43374986367246
 20
652.18176632391692
 11
877.43374986367246
 21
646.1817663239168
  0
LINE
  8
_0-0_計極細
  6
CONTINUOUS
 62
    2
 10
872.43374986367246
 20
646.18176632391635
 11
872.43374986367246
 21
652.18176632391692
  0
LINE
  8
_0-1_計細線
  6
CONTINUOUS
 62
    3
 10
478.4337498636728
 20
632.18176632391737
 11
478.4337498636728
 21
624.18176632391726
  0
LINE
  8
_0-1_計細線
  6
CONTINUOUS
 62
    3
 10
478.4337498636728
 20
624.18176632391726
 11
971.43374986367235
 21
624.18176632391726
  0
LINE
  8
_0-1_計細線
  6
CONTINUOUS
 62
    3
 10
971.43374986367235
 20
624.18176632391726
 11
971.43374986367235
 21
632.18176632391737
  0
LINE
  8
_0-1_計細線
  6
CONTINUOUS
 62
    3
 10
971.43374986367235
 20
632.18176632391737
 11
478.4337498636728
 21
632.18176632391737
  0
LINE
  8
_0-0_計極細
  6
CONTINUOUS
 62
    2
 10
577.4337498636728
 20
638.1817663239168
 11
577.4337498636728
 21
632.1817663239168
  0
LINE
  8
_0-0_計極細
  6
CONTINUOUS
 62
    2
 10
572.4337498636728
 20
632.18176632391635
 11
572.4337498636728
 21
638.1817663239168
  0
LINE
  8
_0-0_計極細
  6
CONTINUOUS
 62
    2
 10
677.4337498636728
 20
638.1817663239168
 11
677.4337498636728
 21
632.1817663239168
  0
LINE
  8
_0-0_計極細
  6
CONTINUOUS
 62
    2
 10
672.4337498636728
 20
632.18176632391635
 11
672.4337498636728
 21
638.1817663239168
  0
LINE
  8
_0-0_計極細
  6
CONTINUOUS
 62
    2
 10
777.43374986367246
 20
638.1817663239168
 11
777.43374986367246
 21
632.1817663239168
  0
LINE
  8
_0-0_計極細
  6
CONTINUOUS
 62
    2
 10
772.43374986367246
 20
632.18176632391635
 11
772.43374986367246
 21
638.1817663239168
  0
LINE
  8
_0-0_計極細
  6
CONTINUOUS
 62
    2
 10
877.43374986367246
 20
638.1817663239168
 11
877.43374986367246
 21
632.1817663239168
  0
LINE
  8
_0-0_計極細
  6
CONTINUOUS
 62
    2
 10
872.43374986367246
 20
632.18176632391635
 11
872.43374986367246
 21
638.1817663239168
  0
LINE
  8
_0-1_計細線
  6
CONTINUOUS
 62
    3
 10
478.4337498636728
 20
618.18176632391726
 11
478.4337498636728
 21
610.18176632391726
  0
LINE
  8
_0-1_計細線
  6
CONTINUOUS
 62
    3
 10
478.4337498636728
 20
610.18176632391726
 11
971.43374986367235
 21
610.18176632391726
  0
LINE
  8
_0-1_計細線
  6
CONTINUOUS
 62
    3
 10
971.43374986367235
 20
610.18176632391726
 11
971.43374986367235
 21
618.18176632391726
  0
LINE
  8
_0-1_計細線
  6
CONTINUOUS
 62
    3
 10
971.43374986367235
 20
618.18176632391726
 11
478.4337498636728
 21
618.18176632391726
  0
LINE
  8
_0-0_計極細
  6
CONTINUOUS
 62
    2
 10
577.4337498636728
 20
624.1817663239168
 11
577.4337498636728
 21
618.1817663239168
  0
LINE
  8
_0-0_計極細
  6
CONTINUOUS
 62
    2
 10
572.4337498636728
 20
618.18176632391646
 11
572.4337498636728
 21
624.1817663239168
  0
LINE
  8
_0-0_計極細
  6
CONTINUOUS
 62
    2
 10
677.4337498636728
 20
624.1817663239168
 11
677.4337498636728
 21
618.1817663239168
  0
LINE
  8
_0-0_計極細
  6
CONTINUOUS
 62
    2
 10
672.4337498636728
 20
618.18176632391646
 11
672.4337498636728
 21
624.1817663239168
  0
LINE
  8
_0-0_計極細
  6
CONTINUOUS
 62
    2
 10
777.43374986367246
 20
624.1817663239168
 11
777.43374986367246
 21
618.1817663239168
  0
LINE
  8
_0-0_計極細
  6
CONTINUOUS
 62
    2
 10
772.43374986367246
 20
618.18176632391646
 11
772.43374986367246
 21
624.1817663239168
  0
LINE
  8
_0-0_計極細
  6
CONTINUOUS
 62
    2
 10
877.43374986367246
 20
624.1817663239168
 11
877.43374986367246
 21
618.1817663239168
  0
LINE
  8
_0-0_計極細
  6
CONTINUOUS
 62
    2
 10
872.43374986367246
 20
618.18176632391646
 11
872.43374986367246
 21
624.1817663239168
  0
LINE
  8
_0-1_計細線
  6
CONTINUOUS
 62
    3
 10
478.4337498636728
 20
604.18176632391726
 11
478.4337498636728
 21
596.18176632391726
  0
LINE
  8
_0-1_計細線
  6
CONTINUOUS
 62
    3
 10
478.4337498636728
 20
596.18176632391726
 11
971.43374986367235
 21
596.18176632391726
  0
LINE
  8
_0-1_計細線
  6
CONTINUOUS
 62
    3
 10
971.43374986367235
 20
596.18176632391726
 11
971.43374986367235
 21
604.18176632391726
  0
LINE
  8
_0-1_計細線
  6
CONTINUOUS
 62
    3
 10
971.43374986367235
 20
604.18176632391726
 11
478.4337498636728
 21
604.18176632391726
  0
LINE
  8
_0-0_計極細
  6
CONTINUOUS
 62
    2
 10
577.4337498636728
 20
610.18176632391692
 11
577.4337498636728
 21
604.1817663239168
  0
LINE
  8
_0-0_計極細
  6
CONTINUOUS
 62
    2
 10
572.4337498636728
 20
604.18176632391635
 11
572.4337498636728
 21
610.18176632391692
  0
LINE
  8
_0-0_計極細
  6
CONTINUOUS
 62
    2
 10
677.4337498636728
 20
610.18176632391692
 11
677.4337498636728
 21
604.1817663239168
  0
LINE
  8
_0-0_計極細
  6
CONTINUOUS
 62
    2
 10
672.4337498636728
 20
604.18176632391635
 11
672.4337498636728
 21
610.18176632391692
  0
LINE
  8
_0-0_計極細
  6
CONTINUOUS
 62
    2
 10
777.43374986367246
 20
610.18176632391692
 11
777.43374986367246
 21
604.1817663239168
  0
LINE
  8
_0-0_計極細
  6
CONTINUOUS
 62
    2
 10
772.43374986367246
 20
604.18176632391635
 11
772.43374986367246
 21
610.18176632391692
  0
LINE
  8
_0-0_計極細
  6
CONTINUOUS
 62
    2
 10
877.43374986367246
 20
610.18176632391692
 11
877.43374986367246
 21
604.1817663239168
  0
LINE
  8
_0-0_計極細
  6
CONTINUOUS
 62
    2
 10
872.43374986367246
 20
604.18176632391635
 11
872.43374986367246
 21
610.18176632391692
  0
LINE
  8
_0-1_計細線
  6
CONTINUOUS
 62
    3
 10
478.4337498636728
 20
590.18176632391726
 11
478.4337498636728
 21
582.18176632391737
  0
LINE
  8
_0-1_計細線
  6
CONTINUOUS
 62
    3
 10
478.4337498636728
 20
582.18176632391737
 11
971.43374986367235
 21
582.18176632391737
  0
LINE
  8
_0-1_計細線
  6
CONTINUOUS
 62
    3
 10
971.43374986367235
 20
582.18176632391737
 11
971.43374986367235
 21
590.18176632391726
  0
LINE
  8
_0-1_計細線
  6
CONTINUOUS
 62
    3
 10
971.43374986367235
 20
590.18176632391726
 11
478.4337498636728
 21
590.18176632391726
  0
LINE
  8
_0-0_計極細
  6
CONTINUOUS
 62
    2
 10
577.4337498636728
 20
596.1817663239168
 11
577.4337498636728
 21
590.18176632391692
  0
LINE
  8
_0-0_計極細
  6
CONTINUOUS
 62
    2
 10
572.4337498636728
 20
590.18176632391635
 11
572.4337498636728
 21
596.1817663239168
  0
LINE
  8
_0-0_計極細
  6
CONTINUOUS
 62
    2
 10
677.4337498636728
 20
596.1817663239168
 11
677.4337498636728
 21
590.18176632391692
  0
LINE
  8
_0-0_計極細
  6
CONTINUOUS
 62
    2
 10
672.4337498636728
 20
590.18176632391635
 11
672.4337498636728
 21
596.1817663239168
  0
LINE
  8
_0-0_計極細
  6
CONTINUOUS
 62
    2
 10
777.43374986367246
 20
596.1817663239168
 11
777.43374986367246
 21
590.18176632391692
  0
LINE
  8
_0-0_計極細
  6
CONTINUOUS
 62
    2
 10
772.43374986367246
 20
590.18176632391635
 11
772.43374986367246
 21
596.1817663239168
  0
LINE
  8
_0-0_計極細
  6
CONTINUOUS
 62
    2
 10
877.43374986367246
 20
596.1817663239168
 11
877.43374986367246
 21
590.18176632391692
  0
LINE
  8
_0-0_計極細
  6
CONTINUOUS
 62
    2
 10
872.43374986367246
 20
590.18176632391635
 11
872.43374986367246
 21
596.1817663239168
  0
LINE
  8
_0-1_計細線
  6
CONTINUOUS
 62
    3
 10
478.4337498636728
 20
576.18176632391726
 11
478.4337498636728
 21
568.18176632391726
  0
LINE
  8
_0-1_計細線
  6
CONTINUOUS
 62
    3
 10
478.4337498636728
 20
568.18176632391726
 11
971.43374986367235
 21
568.18176632391726
  0
LINE
  8
_0-1_計細線
  6
CONTINUOUS
 62
    3
 10
971.43374986367235
 20
568.18176632391726
 11
971.43374986367235
 21
576.18176632391726
  0
LINE
  8
_0-1_計細線
  6
CONTINUOUS
 62
    3
 10
971.43374986367235
 20
576.18176632391726
 11
478.4337498636728
 21
576.18176632391726
  0
LINE
  8
_0-0_計極細
  6
CONTINUOUS
 62
    2
 10
577.4337498636728
 20
582.1817663239168
 11
577.4337498636728
 21
576.1817663239168
  0
LINE
  8
_0-0_計極細
  6
CONTINUOUS
 62
    2
 10
572.4337498636728
 20
576.18176632391635
 11
572.4337498636728
 21
582.1817663239168
  0
LINE
  8
_0-0_計極細
  6
CONTINUOUS
 62
    2
 10
677.4337498636728
 20
582.1817663239168
 11
677.4337498636728
 21
576.1817663239168
  0
LINE
  8
_0-0_計極細
  6
CONTINUOUS
 62
    2
 10
672.4337498636728
 20
576.18176632391635
 11
672.4337498636728
 21
582.1817663239168
  0
LINE
  8
_0-0_計極細
  6
CONTINUOUS
 62
    2
 10
777.43374986367246
 20
582.1817663239168
 11
777.43374986367246
 21
576.1817663239168
  0
LINE
  8
_0-0_計極細
  6
CONTINUOUS
 62
    2
 10
772.43374986367246
 20
576.18176632391635
 11
772.43374986367246
 21
582.1817663239168
  0
LINE
  8
_0-0_計極細
  6
CONTINUOUS
 62
    2
 10
877.43374986367246
 20
582.1817663239168
 11
877.43374986367246
 21
576.1817663239168
  0
LINE
  8
_0-0_計極細
  6
CONTINUOUS
 62
    2
 10
872.43374986367246
 20
576.18176632391635
 11
872.43374986367246
 21
582.1817663239168
  0
LINE
  8
_0-1_計細線
  6
CONTINUOUS
 62
    3
 10
478.4337498636728
 20
562.18176632391737
 11
478.4337498636728
 21
554.18176632391726
  0
LINE
  8
_0-1_計細線
  6
CONTINUOUS
 62
    3
 10
478.4337498636728
 20
554.18176632391726
 11
971.43374986367235
 21
554.18176632391726
  0
LINE
  8
_0-1_計細線
  6
CONTINUOUS
 62
    3
 10
971.43374986367235
 20
554.18176632391726
 11
971.43374986367235
 21
562.18176632391737
  0
LINE
  8
_0-1_計細線
  6
CONTINUOUS
 62
    3
 10
971.43374986367235
 20
562.18176632391737
 11
478.4337498636728
 21
562.18176632391737
  0
LINE
  8
_0-0_計極細
  6
CONTINUOUS
 62
    2
 10
577.4337498636728
 20
568.1817663239168
 11
577.4337498636728
 21
562.1817663239168
  0
LINE
  8
_0-0_計極細
  6
CONTINUOUS
 62
    2
 10
572.4337498636728
 20
562.18176632391635
 11
572.4337498636728
 21
568.1817663239168
  0
LINE
  8
_0-0_計極細
  6
CONTINUOUS
 62
    2
 10
677.4337498636728
 20
568.1817663239168
 11
677.4337498636728
 21
562.1817663239168
  0
LINE
  8
_0-0_計極細
  6
CONTINUOUS
 62
    2
 10
672.4337498636728
 20
562.18176632391635
 11
672.4337498636728
 21
568.1817663239168
  0
LINE
  8
_0-0_計極細
  6
CONTINUOUS
 62
    2
 10
777.43374986367246
 20
568.1817663239168
 11
777.43374986367246
 21
562.1817663239168
  0
LINE
  8
_0-0_計極細
  6
CONTINUOUS
 62
    2
 10
772.43374986367246
 20
562.18176632391635
 11
772.43374986367246
 21
568.1817663239168
  0
LINE
  8
_0-0_計極細
  6
CONTINUOUS
 62
    2
 10
877.43374986367246
 20
568.1817663239168
 11
877.43374986367246
 21
562.1817663239168
  0
LINE
  8
_0-0_計極細
  6
CONTINUOUS
 62
    2
 10
872.43374986367246
 20
562.18176632391635
 11
872.43374986367246
 21
568.1817663239168
  0
LINE
  8
_0-0_計極細
  6
CONTINUOUS
 62
    2
 10
377.43374986367235
 20
750.18176632391726
 11
377.43374986367235
 21
744.18176632391737
  0
LINE
  8
_0-0_計極細
  6
CONTINUOUS
 62
    2
 10
372.43374986367235
 20
744.1817663239168
 11
372.43374986367235
 21
750.18176632391726
  0
LINE
  8
_0-0_計極細
  6
CONTINUOUS
 62
    2
 10
377.43374986367235
 20
736.18176632391726
 11
377.43374986367235
 21
730.18176632391692
  0
LINE
  8
_0-0_計極細
  6
CONTINUOUS
 62
    2
 10
372.43374986367235
 20
730.18176632391692
 11
372.43374986367235
 21
736.18176632391726
  0
LINE
  8
_0-0_計極細
  6
CONTINUOUS
 62
    2
 10
377.43374986367235
 20
722.18176632391737
 11
377.43374986367235
 21
716.1817663239168
  0
LINE
  8
_0-0_計極細
  6
CONTINUOUS
 62
    2
 10
372.43374986367235
 20
716.1817663239168
 11
372.43374986367235
 21
722.18176632391737
  0
LINE
  8
_0-0_計極細
  6
CONTINUOUS
 62
    2
 10
377.43374986367235
 20
708.1817663239168
 11
377.43374986367235
 21
702.18176632391692
  0
LINE
  8
_0-0_計極細
  6
CONTINUOUS
 62
    2
 10
372.43374986367235
 20
702.18176632391635
 11
372.43374986367235
 21
708.1817663239168
  0
LINE
  8
_0-0_計極細
  6
CONTINUOUS
 62
    2
 10
377.43374986367235
 20
694.1817663239168
 11
377.43374986367235
 21
688.1817663239168
  0
LINE
  8
_0-0_計極細
  6
CONTINUOUS
 62
    2
 10
372.43374986367235
 20
688.18176632391646
 11
372.43374986367235
 21
694.1817663239168
  0
LINE
  8
_0-0_計極細
  6
CONTINUOUS
 62
    2
 10
377.43374986367235
 20
680.18176632391692
 11
377.43374986367235
 21
674.1817663239168
  0
LINE
  8
_0-0_計極細
  6
CONTINUOUS
 62
    2
 10
372.43374986367235
 20
674.18176632391635
 11
372.43374986367235
 21
680.18176632391692
  0
LINE
  8
_0-0_計極細
  6
CONTINUOUS
 62
    2
 10
377.43374986367235
 20
666.1817663239168
 11
377.43374986367235
 21
660.18176632391692
  0
LINE
  8
_0-0_計極細
  6
CONTINUOUS
 62
    2
 10
372.43374986367235
 20
660.18176632391646
 11
372.43374986367235
 21
666.1817663239168
  0
LINE
  8
_0-0_計極細
  6
CONTINUOUS
 62
    2
 10
377.43374986367235
 20
652.18176632391692
 11
377.43374986367235
 21
646.1817663239168
  0
LINE
  8
_0-0_計極細
  6
CONTINUOUS
 62
    2
 10
372.43374986367235
 20
646.18176632391635
 11
372.43374986367235
 21
652.18176632391692
  0
LINE
  8
_0-0_計極細
  6
CONTINUOUS
 62
    2
 10
377.43374986367235
 20
638.1817663239168
 11
377.43374986367235
 21
632.1817663239168
  0
LINE
  8
_0-0_計極細
  6
CONTINUOUS
 62
    2
 10
372.43374986367235
 20
632.18176632391635
 11
372.43374986367235
 21
638.1817663239168
  0
LINE
  8
_0-0_計極細
  6
CONTINUOUS
 62
    2
 10
377.43374986367235
 20
624.1817663239168
 11
377.43374986367235
 21
618.1817663239168
  0
LINE
  8
_0-0_計極細
  6
CONTINUOUS
 62
    2
 10
372.43374986367235
 20
618.18176632391646
 11
372.43374986367235
 21
624.1817663239168
  0
LINE
  8
_0-1_計細線
  6
CONTINUOUS
 62
    3
 10
324.93374986367235
 20
758.18176632391726
 11
471.43374986367286
 21
758.18176632391726
  0
LINE
  8
_0-0_計極細
  6
CONTINUOUS
 62
    2
 10
377.43374986367235
 20
610.18176632391692
 11
377.43374986367235
 21
604.1817663239168
  0
LINE
  8
_0-0_計極細
  6
CONTINUOUS
 62
    2
 10
372.43374986367235
 20
604.18176632391635
 11
372.43374986367235
 21
610.18176632391692
  0
LINE
  8
_0-0_計極細
  6
CONTINUOUS
 62
    2
 10
377.43374986367235
 20
596.1817663239168
 11
377.43374986367235
 21
590.18176632391692
  0
LINE
  8
_0-0_計極細
  6
CONTINUOUS
 62
    2
 10
372.43374986367235
 20
590.18176632391635
 11
372.43374986367235
 21
596.1817663239168
  0
LINE
  8
_0-0_計極細
  6
CONTINUOUS
 62
    2
 10
377.43374986367235
 20
582.1817663239168
 11
377.43374986367235
 21
576.1817663239168
  0
LINE
  8
_0-0_計極細
  6
CONTINUOUS
 62
    2
 10
372.43374986367235
 20
576.18176632391635
 11
372.43374986367235
 21
582.1817663239168
  0
LINE
  8
_0-0_計極細
  6
CONTINUOUS
 62
    2
 10
377.43374986367235
 20
568.1817663239168
 11
377.43374986367235
 21
562.1817663239168
  0
LINE
  8
_0-0_計極細
  6
CONTINUOUS
 62
    2
 10
372.43374986367235
 20
562.18176632391635
 11
372.43374986367235
 21
568.1817663239168
  0
LINE
  8
_0-1_計細線
  6
CONTINUOUS
 62
    3
 10
471.43374986367286
 20
554.18176632391726
 11
324.89539085573733
 21
554.18176632391726
  0
LINE
  8
_0-1_計細線
  6
CONTINUOUS
 62
    3
 10
471.43374986367286
 20
750.18176632391726
 11
322.80992131757836
 21
750.18176632391726
  0
LINE
  8
_0-1_計細線
  6
CONTINUOUS
 62
    3
 10
321.27992262648513
 20
744.18176632391737
 11
471.43374986367286
 21
744.18176632391737
  0
LINE
  8
_0-1_計細線
  6
CONTINUOUS
 62
    3
 10
471.43374986367286
 20
736.18176632391726
 11
319.3987764345643
 21
736.18176632391726
  0
LINE
  8
_0-1_計細線
  6
CONTINUOUS
 62
    3
 10
318.1515328352707
 20
730.18176632391726
 11
471.43374986367286
 21
730.18176632391726
  0
LINE
  8
_0-1_計細線
  6
CONTINUOUS
 62
    3
 10
471.43374986367286
 20
722.18176632391771
 11
316.81875447886614
 21
722.18176632391771
  0
LINE
  8
_0-1_計細線
  6
CONTINUOUS
 62
    3
 10
316.11922838205192
 20
716.18176632391726
 11
471.43374986367286
 21
716.18176632391726
  0
LINE
  8
_0-1_計細線
  6
CONTINUOUS
 62
    3
 10
471.43374986367286
 20
708.18176632391771
 11
315.65246035348991
 21
708.18176632391771
  0
LINE
  8
_0-1_計細線
  6
CONTINUOUS
 62
    3
 10
315.73480855790422
 20
702.18176632391737
 11
471.43374986367286
 21
702.18176632391737
  0
LINE
  8
_0-1_計細線
  6
CONTINUOUS
 62
    3
 10
471.43374986367286
 20
694.18176632391783
 11
316.39012756654984
 21
694.18176632391783
  0
LINE
  8
_0-1_計細線
  6
CONTINUOUS
 62
    3
 10
317.23727413724464
 20
688.18176632391726
 11
471.43374986367286
 21
688.18176632391726
  0
LINE
  8
_0-1_計細線
  6
CONTINUOUS
 62
    3
 10
471.43374986367286
 20
680.18176632391726
 11
318.75727157110168
 21
680.18176632391726
  0
LINE
  8
_0-1_計細線
  6
CONTINUOUS
 62
    3
 10
320.1270702068569
 20
674.18176632391737
 11
471.43374986367286
 21
674.18176632391737
  0
LINE
  8
_0-1_計細線
  6
CONTINUOUS
 62
    3
 10
471.43374986367286
 20
666.18176632391726
 11
322.17789788482429
 21
666.18176632391726
  0
LINE
  8
_0-1_計細線
  6
CONTINUOUS
 62
    3
 10
323.81799335250662
 20
660.18176632391726
 11
471.43374986367286
 21
660.18176632391726
  0
LINE
  8
_0-1_計細線
  6
CONTINUOUS
 62
    3
 10
471.43374986367286
 20
652.18176632391737
 11
326.00167571256316
 21
652.18176632391737
  0
LINE
  8
_0-1_計細線
  6
CONTINUOUS
 62
    3
 10
327.57506688546209
 20
646.18176632391726
 11
471.43374986367286
 21
646.18176632391726
  0
LINE
  8
_0-1_計細線
  6
CONTINUOUS
 62
    3
 10
471.43374986367286
 20
638.18176632391726
 11
329.55632828317857
 21
638.18176632391726
  0
LINE
  8
_0-1_計細線
  6
CONTINUOUS
 62
    3
 10
330.90933531698334
 20
632.18176632391737
 11
471.43374986367286
 21
632.18176632391737
  0
LINE
  8
_0-1_計細線
  6
CONTINUOUS
 62
    3
 10
471.43374986367286
 20
624.18176632391726
 11
332.43212414088657
 21
624.18176632391726
  0
LINE
  8
_0-1_計細線
  6
CONTINUOUS
 62
    3
 10
333.30714925803841
 20
618.18176632391726
 11
471.43374986367286
 21
618.18176632391726
  0
LINE
  8
_0-1_計細線
  6
CONTINUOUS
 62
    3
 10
471.43374986367286
 20
610.18176632391726
 11
334.05971071659087
 21
610.18176632391726
  0
LINE
  8
_0-1_計細線
  6
CONTINUOUS
 62
    3
 10
334.23328453075834
 20
604.18176632391726
 11
471.43374986367286
 21
604.18176632391726
  0
LINE
  8
_0-1_計細線
  6
CONTINUOUS
 62
    3
 10
471.43374986367286
 20
596.18176632391726
 11
333.88540435204231
 21
596.18176632391726
  0
LINE
  8
_0-1_計細線
  6
CONTINUOUS
 62
    3
 10
333.22529246236309
 20
590.18176632391726
 11
471.43374986367286
 21
590.18176632391726
  0
LINE
  8
_0-1_計細線
  6
CONTINUOUS
 62
    3
 10
471.43374986367286
 20
582.18176632391737
 11
331.92034509947058
 21
582.18176632391737
  0
LINE
  8
_0-1_計細線
  6
CONTINUOUS
 62
    3
 10
330.67384751035939
 20
576.18176632391726
 11
471.43374986367286
 21
576.18176632391726
  0
LINE
  8
_0-1_計細線
  6
CONTINUOUS
 62
    3
 10
471.43374986367286
 20
568.18176632391726
 11
328.74071133437701
 21
568.18176632391726
  0
LINE
  8
_0-1_計細線
  6
CONTINUOUS
 62
    3
 10
327.1516220650069
 20
562.18176632391737
 11
471.43374986367286
 21
562.18176632391737
  0
LINE
  8
_0-0_計極細
  6
CONTINUOUS
 62
    2
 10
1077.4337498636728
 20
750.18176632391771
 11
1077.4337498636728
 21
744.18176632391737
  0
LINE
  8
_0-0_計極細
  6
CONTINUOUS
 62
    2
 10
1072.4337498636728
 20
744.18176632391737
 11
1072.4337498636728
 21
750.18176632391771
  0
LINE
  8
_0-0_計極細
  6
CONTINUOUS
 62
    2
 10
1077.4337498636728
 20
736.18176632391783
 11
1077.4337498636728
 21
730.18176632391726
  0
LINE
  8
_0-0_計極細
  6
CONTINUOUS
 62
    2
 10
1072.4337498636728
 20
730.18176632391726
 11
1072.4337498636728
 21
736.18176632391783
  0
LINE
  8
_0-0_計極細
  6
CONTINUOUS
 62
    2
 10
1077.4337498636728
 20
722.18176632391771
 11
1077.4337498636728
 21
716.18176632391726
  0
LINE
  8
_0-0_計極細
  6
CONTINUOUS
 62
    2
 10
1072.4337498636728
 20
716.18176632391726
 11
1072.4337498636728
 21
722.18176632391771
  0
LINE
  8
_0-0_計極細
  6
CONTINUOUS
 62
    2
 10
1077.4337498636728
 20
708.18176632391726
 11
1077.4337498636728
 21
702.18176632391692
  0
LINE
  8
_0-0_計極細
  6
CONTINUOUS
 62
    2
 10
1072.4337498636728
 20
702.18176632391692
 11
1072.4337498636728
 21
708.18176632391726
  0
LINE
  8
_0-0_計極細
  6
CONTINUOUS
 62
    2
 10
1077.4337498636728
 20
694.18176632391737
 11
1077.4337498636728
 21
688.1817663239168
  0
LINE
  8
_0-0_計極細
  6
CONTINUOUS
 62
    2
 10
1072.4337498636728
 20
688.1817663239168
 11
1072.4337498636728
 21
694.18176632391737
  0
LINE
  8
_0-0_計極細
  6
CONTINUOUS
 62
    2
 10
1077.4337498636728
 20
680.18176632391726
 11
1077.4337498636728
 21
674.1817663239168
  0
LINE
  8
_0-0_計極細
  6
CONTINUOUS
 62
    2
 10
1072.4337498636728
 20
674.1817663239168
 11
1072.4337498636728
 21
680.18176632391726
  0
LINE
  8
_0-0_計極細
  6
CONTINUOUS
 62
    2
 10
1077.4337498636728
 20
666.18176632391726
 11
1077.4337498636728
 21
660.18176632391692
  0
LINE
  8
_0-0_計極細
  6
CONTINUOUS
 62
    2
 10
1072.4337498636728
 20
660.18176632391692
 11
1072.4337498636728
 21
666.18176632391726
  0
LINE
  8
_0-0_計極細
  6
CONTINUOUS
 62
    2
 10
1077.4337498636728
 20
652.18176632391737
 11
1077.4337498636728
 21
646.1817663239168
  0
LINE
  8
_0-0_計極細
  6
CONTINUOUS
 62
    2
 10
1072.4337498636728
 20
646.1817663239168
 11
1072.4337498636728
 21
652.18176632391737
  0
LINE
  8
_0-0_計極細
  6
CONTINUOUS
 62
    2
 10
1077.4337498636728
 20
638.18176632391726
 11
1077.4337498636728
 21
632.1817663239168
  0
LINE
  8
_0-0_計極細
  6
CONTINUOUS
 62
    2
 10
1072.4337498636728
 20
632.1817663239168
 11
1072.4337498636728
 21
638.18176632391726
  0
LINE
  8
_0-0_計極細
  6
CONTINUOUS
 62
    2
 10
1077.4337498636728
 20
624.18176632391726
 11
1077.4337498636728
 21
618.1817663239168
  0
LINE
  8
_0-0_計極細
  6
CONTINUOUS
 62
    2
 10
1072.4337498636728
 20
618.1817663239168
 11
1072.4337498636728
 21
624.18176632391726
  0
LINE
  8
_0-1_計細線
  6
CONTINUOUS
 62
    3
 10
1124.9337498636728
 20
758.18176632391726
 11
978.43374986367235
 21
758.18176632391726
  0
LINE
  8
_0-1_計細線
  6
CONTINUOUS
 62
    3
 10
1134.0363351188334
 20
716.18176632391783
 11
978.43374986367235
 21
716.18176632391783
  0
LINE
  8
_0-0_計極細
  6
CONTINUOUS
 62
    2
 10
1077.4337498636728
 20
610.18176632391726
 11
1077.4337498636728
 21
604.1817663239168
  0
LINE
  8
_0-0_計極細
  6
CONTINUOUS
 62
    2
 10
1072.4337498636728
 20
604.1817663239168
 11
1072.4337498636728
 21
610.18176632391726
  0
LINE
  8
_0-0_計極細
  6
CONTINUOUS
 62
    2
 10
1077.4337498636728
 20
596.18176632391726
 11
1077.4337498636728
 21
590.18176632391692
  0
LINE
  8
_0-0_計極細
  6
CONTINUOUS
 62
    2
 10
1072.4337498636728
 20
590.18176632391692
 11
1072.4337498636728
 21
596.18176632391726
  0
LINE
  8
_0-0_計極細
  6
CONTINUOUS
 62
    2
 10
1077.4337498636728
 20
582.18176632391737
 11
1077.4337498636728
 21
576.1817663239168
  0
LINE
  8
_0-0_計極細
  6
CONTINUOUS
 62
    2
 10
1072.4337498636728
 20
576.1817663239168
 11
1072.4337498636728
 21
582.18176632391737
  0
LINE
  8
_0-0_計極細
  6
CONTINUOUS
 62
    2
 10
1077.4337498636728
 20
568.18176632391726
 11
1077.4337498636728
 21
562.1817663239168
  0
LINE
  8
_0-0_計極細
  6
CONTINUOUS
 62
    2
 10
1072.4337498636728
 20
562.1817663239168
 11
1072.4337498636728
 21
568.18176632391726
  0
LINE
  8
_0-1_計細線
  6
CONTINUOUS
 62
    3
 10
978.43374986367235
 20
554.18176632391783
 11
1124.9988901700044
 21
554.18176632391783
  0
LINE
  8
_0-1_計細線
  6
CONTINUOUS
 62
    3
 10
978.43374986367235
 20
750.18176632391771
 11
1127.0575784097678
 21
750.18176632391771
  0
LINE
  8
_0-1_計細線
  6
CONTINUOUS
 62
    3
 10
1128.58757710086
 20
744.18176632391737
 11
978.43374986367235
 21
744.18176632391737
  0
LINE
  8
_0-1_計細線
  6
CONTINUOUS
 62
    3
 10
978.43374986367235
 20
736.18176632391783
 11
1130.4687232927813
 21
736.18176632391783
  0
LINE
  8
_0-1_計細線
  6
CONTINUOUS
 62
    3
 10
1131.7159668920749
 20
730.18176632391771
 11
978.43374986367235
 21
730.18176632391771
  0
LINE
  8
_0-1_計細線
  6
CONTINUOUS
 62
    3
 10
978.43374986367235
 20
722.18176632391817
 11
1133.0487452484795
 21
722.18176632391817
  0
LINE
  8
_0-1_計細線
  6
CONTINUOUS
 62
    3
 10
978.43374986367235
 20
708.18176632391771
 11
1134.2150393738557
 21
708.18176632391771
  0
LINE
  8
_0-1_計細線
  6
CONTINUOUS
 62
    3
 10
1134.1326911694414
 20
702.18176632391771
 11
978.43374986367235
 21
702.18176632391771
  0
LINE
  8
_0-1_計細線
  6
CONTINUOUS
 62
    3
 10
978.43374986367235
 20
694.18176632391783
 11
1133.4773721607953
 21
694.18176632391783
  0
LINE
  8
_0-1_計細線
  6
CONTINUOUS
 62
    3
 10
1132.630225590101
 20
688.18176632391726
 11
978.43374986367235
 21
688.18176632391726
  0
LINE
  8
_0-1_計細線
  6
CONTINUOUS
 62
    3
 10
978.43374986367235
 20
680.18176632391771
 11
1131.1102281562435
 21
680.18176632391771
  0
LINE
  8
_0-1_計細線
  6
CONTINUOUS
 62
    3
 10
1129.7404295204888
 20
674.18176632391737
 11
978.43374986367235
 21
674.18176632391737
  0
LINE
  8
_0-1_計細線
  6
CONTINUOUS
 62
    3
 10
978.43374986367235
 20
666.18176632391783
 11
1127.6896018425214
 21
666.18176632391783
  0
LINE
  8
_0-1_計細線
  6
CONTINUOUS
 62
    3
 10
1126.0495063748385
 20
660.18176632391726
 11
978.43374986367235
 21
660.18176632391726
  0
LINE
  8
_0-1_計細線
  6
CONTINUOUS
 62
    3
 10
978.43374986367235
 20
652.18176632391771
 11
1123.865824014782
 21
652.18176632391771
  0
LINE
  8
_0-1_計細線
  6
CONTINUOUS
 62
    3
 10
1122.2924328418835
 20
646.18176632391726
 11
978.43374986367235
 21
646.18176632391726
  0
LINE
  8
_0-1_計細線
  6
CONTINUOUS
 62
    3
 10
978.43374986367235
 20
638.18176632391771
 11
1120.3111714441666
 21
638.18176632391771
  0
LINE
  8
_0-1_計細線
  6
CONTINUOUS
 62
    3
 10
1118.9581644103619
 20
632.18176632391737
 11
978.43374986367235
 21
632.18176632391737
  0
LINE
  8
_0-1_計細線
  6
CONTINUOUS
 62
    3
 10
978.43374986367235
 20
624.18176632391783
 11
1117.4353755864586
 21
624.18176632391783
  0
LINE
  8
_0-1_計細線
  6
CONTINUOUS
 62
    3
 10
1116.5603504693072
 20
618.18176632391726
 11
978.43374986367235
 21
618.18176632391726
  0
LINE
  8
_0-1_計細線
  6
CONTINUOUS
 62
    3
 10
978.43374986367235
 20
610.18176632391771
 11
1115.8077890107543
 21
610.18176632391771
  0
LINE
  8
_0-1_計細線
  6
CONTINUOUS
 62
    3
 10
1115.6342151965873
 20
604.18176632391726
 11
978.43374986367235
 21
604.18176632391726
  0
LINE
  8
_0-1_計細線
  6
CONTINUOUS
 62
    3
 10
978.43374986367235
 20
596.18176632391771
 11
1115.9820953753028
 21
596.18176632391771
  0
LINE
  8
_0-1_計細線
  6
CONTINUOUS
 62
    3
 10
1116.6422072649825
 20
590.18176632391726
 11
978.43374986367235
 21
590.18176632391726
  0
LINE
  8
_0-1_計細線
  6
CONTINUOUS
 62
    3
 10
978.43374986367235
 20
582.18176632391771
 11
1117.9471546278751
 21
582.18176632391771
  0
LINE
  8
_0-1_計細線
  6
CONTINUOUS
 62
    3
 10
1119.1936522169863
 20
576.18176632391726
 11
978.43374986367235
 21
576.18176632391726
  0
LINE
  8
_0-1_計細線
  6
CONTINUOUS
 62
    3
 10
978.43374986367235
 20
568.18176632391771
 11
1121.1267883929681
 21
568.18176632391771
  0
LINE
  8
_0-1_計細線
  6
CONTINUOUS
 62
    3
 10
1122.7158776623382
 20
562.18176632391737
 11
978.43374986367235
 21
562.18176632391737
  0
TEXT
  8
_0-5_寸法線
 62
    7
 10
593.67073225861441
 20
493.66624679621293
 40
15
 41
0.8000000000000001
 50
0
  1
ＧＳＬ－２０
  0
TEXT
  8
_0-5_寸法線
 62
    7
 10
813.27081859303871
 20
493.66624679621293
 40
15
 41
0.8000000000000001
 50
0
  1
ＧＳＴ－２０Ｗ２０４
  0
TEXT
  8
_0-7_枠細線
 62
    5
 10
965.50000000000011
 20
110
 40
20
 41
0.6
 50
0
  1
ＧＳＴ－２０Ｗ２０４
  0
TEXT
  8
_0-7_枠細線
 62
    5
 10
965.49999999999966
 20
70
 40
20.000000000000004
 41
0.5999999999999997
 50
0
  1
表面形状については記号表参照のこと
  0
LINE
  8
_0-7_枠細線
  6
CONTINUOUS
 62
    5
 10
1409.4018171150183
 20
328.47321710336234
 11
1409.4018171150183
 21
223.47321710336274
  0
TEXT
  8
_0-7_枠細線
 62
    5
 10
1318.4018171150192
 20
308.47321710336234
 40
15.000000000000002
 41
0.8
 50
0
  1
ノンスリップ
  0
TEXT
  8
_0-7_枠細線
 62
    5
 10
1330.4018171150185
 20
283.47321710336234
 40
15.000000000000002
 41
0.8
 50
0
  1
品番－Ｄ
  0
LINE
  8
_0-7_枠細線
  6
CONTINUOUS
 62
    5
 10
1299.4018171150178
 20
328.47321710336234
 11
1299.4018171150178
 21
223.47321710336274
  0
TEXT
  8
_0-7_枠細線
 62
    5
 10
1220.4018171150178
 20
308.4732171033624
 40
15.000000000000002
 41
0.8
 50
0
  1
プレーン
  0
TEXT
  8
_0-7_枠細線
 62
    5
 10
1220.4018171150185
 20
283.47321710336234
 40
15.000000000000002
 41
0.8
 50
0
  1
品番－Ｆ
  0
TEXT
  8
_0-7_枠細線
 62
    5
 10
1140.4018171150183
 20
308.47321710336234
 40
15.000000000000002
 41
0.8
 50
0
  1
タ イ プ
  0
LINE
  8
_0-7_枠細線
  6
CONTINUOUS
 62
    5
 10
1139.4018171150174
 20
278.47321710336234
 11
1409.4018171150183
 21
278.47321710336234
  0
LINE
  8
_0-7_枠細線
  6
CONTINUOUS
 62
    5
 10
1139.4018171150174
 20
303.47321710336234
 11
1409.4018171150183
 21
303.47321710336234
  0
LINE
  8
_0-7_枠細線
  6
CONTINUOUS
 62
    5
 10
1139.4018171150174
 20
328.47321710336234
 11
1409.4018171150183
 21
328.47321710336234
  0
LINE
  8
_0-7_枠細線
  6
CONTINUOUS
 62
    5
 10
1139.4018171150174
 20
223.47321710336274
 11
1409.4018171150183
 21
223.47321710336274
  0
LINE
  8
_0-7_枠細線
  6
CONTINUOUS
 62
    5
 10
1189.4018171150183
 20
328.47321710336234
 11
1189.4018171150183
 21
223.47321710336274
  0
LINE
  8
_0-7_枠細線
  6
CONTINUOUS
 62
    5
 10
1139.4018171150174
 20
328.47321710336234
 11
1139.4018171150174
 21
223.47321710336274
  0
TEXT
  8
_0-7_枠細線
 62
    5
 10
1140.4018171150183
 20
243.47321710336257
 40
15.000000000000002
 41
0.8
 50
0
  1
表面形状
  0
TEXT
  8
_0-7_枠細線
 62
    5
 10
1147.1760284558286
 20
330.9732171033624
 40
17.500000000000004
 41
0.7999999999999996
 50
0
  1
記号表
  0
TEXT
  8
_0-7_枠細線
 62
    5
 10
1140.4018171150183
 20
283.47321710336246
 40
15.000000000000002
 41
0.8
 50
0
  1
記　　号
  0
ARC
  8
_0-7_枠細線
  6
CONTINUOUS
 62
    5
 10
1282.9664605906703
 20
242.85777402966897
 40
12.026499332130607
 50
317.5616290000047
 51
42.438370999994966
  0
ARC
  8
_0-7_枠細線
  6
CONTINUOUS
 62
    5
 10
1300.7176602555628
 20
259.08866002804609
 40
12.026499332130607
 50
137.56162900000001
 51
222.43837100000297
  0
ARC
  8
_0-7_枠細線
  6
CONTINUOUS
 62
    5
 10
1188.0859738141417
 20
242.85777402966897
 40
12.026499332130607
 50
317.5616290000047
 51
42.438370999994966
  0
ARC
  8
_0-7_枠細線
  6
CONTINUOUS
 62
    5
 10
1205.8371734790342
 20
259.08866002804609
 40
12.026499332130607
 50
137.56162900000001
 51
222.43837100000297
  0
LINE
  8
_0-7_枠細線
  6
CONTINUOUS
 62
    5
 10
1194.4553061852557
 20
262.97321702885733
 11
1289.3357929617841
 21
262.97321702885733
  0
LINE
  8
_0-7_枠細線
  6
CONTINUOUS
 62
    5
 10
1294.3483278844485
 20
238.97321702885733
 11
1199.4678411079201
 21
238.97321702885733
  0
ARC
  8
_0-7_枠細線
  6
CONTINUOUS
 62
    5
 10
1392.966460590671
 20
242.85777402966897
 40
12.026499332130607
 50
317.5616290000047
 51
42.438370999994966
  0
ARC
  8
_0-7_枠細線
  6
CONTINUOUS
 62
    5
 10
1410.7176602555635
 20
259.08866002804609
 40
12.026499332130607
 50
137.56162900000001
 51
222.43837100000297
  0
ARC
  8
_0-7_枠細線
  6
CONTINUOUS
 62
    5
 10
1298.0859738141421
 20
242.85777402966897
 40
12.026499332130607
 50
317.5616290000047
 51
42.438370999994966
  0
ARC
  8
_0-7_枠細線
  6
CONTINUOUS
 62
    5
 10
1315.8371734790348
 20
259.08866002804609
 40
12.026499332130607
 50
137.56162900000001
 51
222.43837100000297
  0
LINE
  8
_0-7_枠細線
  6
CONTINUOUS
 62
    5
 10
1304.4553061852562
 20
262.97321702885733
 11
1399.3357929617846
 21
262.97321702885733
  0
LINE
  8
_0-7_枠細線
  6
CONTINUOUS
 62
    5
 10
1404.3483278844492
 20
238.97321702885733
 11
1309.4678411079208
 21
238.97321702885733
  0
LINE
  8
_0-7_枠細線
  6
CONTINUOUS
 62
    5
 10
1310.0055655050667
 20
244.4577803132122
 11
1315.4901287894213
 21
238.9732170288575
  0
LINE
  8
_0-7_枠細線
  6
CONTINUOUS
 62
    5
 10
1304.3960893257238
 20
262.79517855391305
 11
1328.218050850779
 21
238.97321702885748
  0
LINE
  8
_0-7_枠細線
  6
CONTINUOUS
 62
    5
 10
1316.9459729121372
 20
262.97321702885756
 11
1340.9459729121368
 21
238.97321702885748
  0
LINE
  8
_0-7_枠細線
  6
CONTINUOUS
 62
    5
 10
1329.6738949734947
 20
262.97321702885745
 11
1353.6738949734945
 21
238.97321702885748
  0
LINE
  8
_0-7_枠細線
  6
CONTINUOUS
 62
    5
 10
1342.4018170348527
 20
262.97321702885745
 11
1366.4018170348525
 21
238.97321702885745
  0
LINE
  8
_0-7_枠細線
  6
CONTINUOUS
 62
    5
 10
1355.1297390962102
 20
262.97321702885739
 11
1379.12973909621
 21
238.97321702885739
  0
LINE
  8
_0-7_枠細線
  6
CONTINUOUS
 62
    5
 10
1367.8576611575681
 20
262.97321702885739
 11
1391.8576611575677
 21
238.97321702885739
  0
LINE
  8
_0-7_枠細線
  6
CONTINUOUS
 62
    5
 10
1380.5855832189261
 20
262.97321702885739
 11
1404.4075447439814
 21
239.15125550380145
  0
LINE
  8
_0-7_枠細線
  6
CONTINUOUS
 62
    5
 10
1393.3135052802836
 20
262.97321702885733
 11
1398.7980685646389
 21
257.48865374450207
  0
LINE
  8
_0-7_枠細線
  6
CONTINUOUS
 62
    5
 10
1393.3135052802843
 20
238.97321702885739
 11
1403.3188705607763
 21
248.97858230934932
  0
LINE
  8
_0-7_枠細線
  6
CONTINUOUS
 62
    5
 10
1380.5855832189263
 20
238.97321702885739
 11
1398.8365633238182
 21
257.22419713374904
  0
LINE
  8
_0-7_枠細線
  6
CONTINUOUS
 62
    5
 10
1367.8576611575684
 20
238.97321702885745
 11
1391.8576611575686
 21
262.97321702885733
  0
LINE
  8
_0-7_枠細線
  6
CONTINUOUS
 62
    5
 10
1355.1297390962109
 20
238.97321702885748
 11
1379.1297390962106
 21
262.97321702885739
  0
LINE
  8
_0-7_枠細線
  6
CONTINUOUS
 62
    5
 10
1342.4018170348527
 20
238.97321702885748
 11
1366.4018170348527
 21
262.97321702885739
  0
LINE
  8
_0-7_枠細線
  6
CONTINUOUS
 62
    5
 10
1329.673894973495
 20
238.97321702885748
 11
1353.673894973495
 21
262.97321702885739
  0
LINE
  8
_0-7_枠細線
  6
CONTINUOUS
 62
    5
 10
1316.9459729121374
 20
238.9732170288575
 11
1340.9459729121372
 21
262.97321702885745
  0
LINE
  8
_0-7_枠細線
  6
CONTINUOUS
 62
    5
 10
1309.9670707458877
 20
244.72223692396568
 11
1328.2180508507793
 21
262.97321702885745
  0
LINE
  8
_0-7_枠細線
  6
CONTINUOUS
 62
    5
 10
1305.4847635089297
 20
252.96785174836555
 11
1315.4901287894218
 21
262.97321702885756
  0
LINE
  8
_0-9_枠極太
  6
CONTINUOUS
 62
    5
 10
60
 20
60
 11
60
 21
960
  0
LINE
  8
_0-9_枠極太
  6
CONTINUOUS
 62
    5
 10
60
 20
960
 11
1425
 21
960
  0
LINE
  8
_0-9_枠極太
  6
CONTINUOUS
 62
    5
 10
1425
 20
960
 11
1425
 21
60
  0
LINE
  8
_0-9_枠極太
  6
CONTINUOUS
 62
    5
 10
1425
 20
60
 11
60
 21
60
  0
LINE
  8
_0-a_極細3
  6
CONTINUOUS
 62
    7
 10
652.59732643683844
 20
251.56810602460041
 11
648.76399310350507
 21
251.56810602460041
  0
LINE
  8
_0-a_極細3
  6
CONTINUOUS
 62
    7
 10
652.59732643683844
 20
254.9014393579339
 11
648.76399310350507
 21
254.9014393579339
  0
LINE
  8
_0-a_極細3
  6
CONTINUOUS
 62
    7
 10
652.59732643683844
 20
248.23477269126715
 11
648.76399310350507
 21
248.23477269126715
  0
LINE
  8
_0-a_極細3
  6
CONTINUOUS
 62
    7
 10
652.59732643683844
 20
258.23477269126715
 11
648.76399310350507
 21
258.23477269126715
  0
LINE
  8
_0-a_極細3
  6
CONTINUOUS
 62
    7
 10
648.76399310350507
 20
224.9014393579339
 11
652.59732643683844
 21
224.9014393579339
  0
LINE
  8
_0-a_極細3
  6
CONTINUOUS
 62
    7
 10
652.59732643683844
 20
274.9014393579339
 11
648.76399310350507
 21
274.9014393579339
  0
LINE
  8
_0-b_細線3
  6
CONTINUOUS
 62
    7
 10
648.76399310350507
 20
278.23477269126715
 11
648.76399310350507
 21
219.9014393579339
  0
LINE
  8
_0-b_細線3
  6
CONTINUOUS
 62
    7
 10
648.76399310350507
 20
219.9014393579339
 11
652.59732643683844
 21
219.9014393579339
  0
LINE
  8
_0-b_細線3
  6
CONTINUOUS
 62
    7
 10
652.59732643683844
 20
219.9014393579339
 11
652.59732643683844
 21
278.23477269126715
  0
LINE
  8
_0-b_細線3
  6
CONTINUOUS
 62
    7
 10
652.59732643683844
 20
278.23477269126715
 11
648.76399310350507
 21
278.23477269126715
  0
LINE
  8
_0-7_枠細線
  6
CONTINUOUS
 62
    5
 10
671.68319453007803
 20
255.9635226874212
 11
664.18319453007803
 21
270.96352268742118
  0
LINE
  8
_0-7_枠細線
  6
CONTINUOUS
 62
    5
 10
656.68319453007803
 20
255.9635226874212
 11
671.68319453007803
 21
255.9635226874212
  0
LINE
  8
_0-7_枠細線
  6
CONTINUOUS
 62
    5
 10
664.18319453007803
 20
270.96352268742118
 11
656.68319453007803
 21
255.9635226874212
  0
TEXT
  8
_0-7_枠細線
 62
    5
 10
659.04834579822602
 20
255.65652044204063
 40
12.5
 41
0.8
 50
0
  1
１
  0
LINE
  8
_0-a_極細3
  6
CONTINUOUS
 62
    7
 10
288.26399310350524
 20
251.56810602460041
 11
292.0973264368385
 21
251.56810602460041
  0
LINE
  8
_0-a_極細3
  6
CONTINUOUS
 62
    7
 10
288.26399310350524
 20
254.9014393579339
 11
292.0973264368385
 21
254.9014393579339
  0
LINE
  8
_0-a_極細3
  6
CONTINUOUS
 62
    7
 10
288.26399310350524
 20
248.23477269126715
 11
292.0973264368385
 21
248.23477269126715
  0
LINE
  8
_0-a_極細3
  6
CONTINUOUS
 62
    7
 10
288.26399310350524
 20
258.23477269126715
 11
292.0973264368385
 21
258.23477269126715
  0
LINE
  8
_0-a_極細3
  6
CONTINUOUS
 62
    7
 10
292.0973264368385
 20
224.9014393579339
 11
288.26399310350524
 21
224.9014393579339
  0
LINE
  8
_0-a_極細3
  6
CONTINUOUS
 62
    7
 10
288.26399310350524
 20
274.9014393579339
 11
292.0973264368385
 21
274.9014393579339
  0
LINE
  8
_0-b_細線3
  6
CONTINUOUS
 62
    7
 10
292.0973264368385
 20
278.23477269126715
 11
292.0973264368385
 21
219.9014393579339
  0
LINE
  8
_0-b_細線3
  6
CONTINUOUS
 62
    7
 10
292.0973264368385
 20
219.9014393579339
 11
288.26399310350524
 21
219.9014393579339
  0
LINE
  8
_0-b_細線3
  6
CONTINUOUS
 62
    7
 10
288.26399310350524
 20
219.9014393579339
 11
288.26399310350524
 21
278.23477269126715
  0
LINE
  8
_0-b_細線3
  6
CONTINUOUS
 62
    7
 10
288.26399310350524
 20
278.23477269126715
 11
292.0973264368385
 21
278.23477269126715
  0
LINE
  8
_0-7_枠細線
  6
CONTINUOUS
 62
    5
 10
1425
 20
907.5
 11
890
 21
907.5
  0
LINE
  8
_0-7_枠細線
  6
CONTINUOUS
 62
    5
 10
915
 20
908.94233397174708
 11
907.5
 21
923.94233397174708
  0
LINE
  8
_0-7_枠細線
  6
CONTINUOUS
 62
    5
 10
900
 20
908.94233397174708
 11
915
 21
908.94233397174708
  0
LINE
  8
_0-7_枠細線
  6
CONTINUOUS
 62
    5
 10
907.5
 20
923.94233397174708
 11
900
 21
908.94233397174708
  0
TEXT
  8
_0-7_枠細線
 62
    5
 10
902.36515126814822
 20
908.63533172636653
 40
12.5
 41
0.8
 50
0
  1
１
  0
TEXT
  8
_0-7_枠細線
 62
    5
 10
1180
 20
910
 40
12.5
 41
0.7199999999999999
 50
0
  1
２０１９．０９．０１
  0
TEXT
  8
_0-7_枠細線
 62
    5
 10
938.85037037037023
 20
910
 40
12.500000000000002
 41
1
 50
0
  1
アンカー材質･厚み変更
  0
LINE
  8
_0-7_枠細線
  6
CONTINUOUS
 62
    5
 10
890
 20
907.5
 11
890
 21
959.99999999999909
  0
LINE
  8
_0-7_枠細線
  6
CONTINUOUS
 62
    5
 10
925
 20
907.5
 11
925
 21
959.99999999999943
  0
LINE
  8
_0-7_枠細線
  6
CONTINUOUS
 62
    5
 10
1175
 20
907.5
 11
1175
 21
959.99999999999943
  0
LINE
  8
_0-7_枠細線
  6
CONTINUOUS
 62
    5
 10
1275
 20
907.5
 11
1275
 21
959.99999999999943
  0
TEXT
  8
_0-7_枠細線
 62
    5
 10
420.55055954803436
 20
121.56774102292232
 40
25
 41
0.8
 50
0
  1
断面詳細図
  0
TEXT
  8
_0-7_枠細線
 62
    5
 10
544.02619596386853
 20
124.03394087318873
 40
20
 41
0.6
 50
0
  1
Ｓ＝１：３
  0
LINE
  8
_0-5_寸法線
  6
CONTINUOUS
 62
    7
 10
1176.9337498636755
 20
549.18176632391589
 11
1221.9337498636755
 21
549.18176632391567
  0
LINE
  8
_0-5_寸法線
  6
CONTINUOUS
 62
    7
 10
1216.9337498636755
 20
549.18176632391567
 11
1219.5219403147007
 21
539.52250806102495
  0
LINE
  8
_0-5_寸法線
  6
CONTINUOUS
 62
    7
 10
1216.9337498636755
 20
549.18176632391567
 11
1214.3455594126503
 21
539.52250806102495
  0
LINE
  8
_0-5_寸法線
  6
CONTINUOUS
 62
    7
 10
1176.9337498636755
 20
552.18176632391737
 11
1221.9337498636755
 21
552.18176632391737
  0
CIRCLE
  8
_0-5_寸法線
  6
CONTINUOUS
 62
    1
 10
1216.9337498636755
 20
552.18176632391737
 40
1.5000000000000002
  0
LINE
  8
_0-5_寸法線
  6
CONTINUOUS
 62
    7
 10
1216.9337498636755
 20
524.18176632391567
 11
1216.9337498636755
 21
552.18176632391737
  0
TEXT
  8
_0-5_寸法線
 62
    7
 10
1216.9337498636755
 20
527.98123528189171
 40
15
 41
1
 50
90
  1
3
  0
LINE
  8
_0-5_寸法線
  6
CONTINUOUS
 62
    7
 10
1176.9337498636755
 20
554.18176632391703
 11
1221.9337498636755
 21
554.1817663239168
  0
LINE
  8
_0-5_寸法線
  6
CONTINUOUS
 62
    7
 10
1216.9337498636755
 20
552.18176632391737
 11
1216.9337498636755
 21
554.1817663239168
  0
TEXT
  8
_0-5_寸法線
 62
    7
 10
1235.3727354429784
 20
552.18176632391737
 40
15
 41
1
 50
90
  1
2
  0
LINE
  8
_0-5_寸法線
  6
CONTINUOUS
 62
    7
 10
1216.9337498636755
 20
554.1817663239168
 11
1214.3455594126503
 21
563.84102458680763
  0
LINE
  8
_0-5_寸法線
  6
CONTINUOUS
 62
    7
 10
1216.9337498636755
 20
554.1817663239168
 11
1219.5219403147007
 21
563.84102458680763
  0
LINE
  8
_0-5_寸法線
  6
CONTINUOUS
 62
    7
 10
1176.9337498636755
 20
758.18176632391715
 11
1221.9337498636755
 21
758.1817663239168
  0
LINE
  8
_0-5_寸法線
  6
CONTINUOUS
 62
    7
 10
1216.9337498636755
 20
758.1817663239168
 11
1219.5219403147007
 21
748.5225080610262
  0
LINE
  8
_0-5_寸法線
  6
CONTINUOUS
 62
    7
 10
1216.9337498636755
 20
758.1817663239168
 11
1214.3455594126503
 21
748.5225080610262
  0
LINE
  8
_0-5_寸法線
  6
CONTINUOUS
 62
    7
 10
1216.9337498636755
 20
554.1817663239168
 11
1216.9337498636755
 21
758.1817663239168
  0
TEXT
  8
_0-5_寸法線
 62
    7
 10
1216.9337498636755
 20
644.9317663239168
 40
15
 41
1
 50
90
  1
204
  0
LINE
  8
_0-5_寸法線
  6
CONTINUOUS
 62
    7
 10
1176.9337498636755
 20
760.18176632391726
 11
1221.9337498636755
 21
760.18176632391703
  0
CIRCLE
  8
_0-5_寸法線
  6
CONTINUOUS
 62
    1
 10
1216.9337498636755
 20
760.18176632391703
 40
1.5000000000000002
  0
LINE
  8
_0-5_寸法線
  6
CONTINUOUS
 62
    7
 10
1216.9337498636755
 20
758.1817663239168
 11
1216.9337498636755
 21
760.18176632391703
  0
TEXT
  8
_0-5_寸法線
 62
    7
 10
1235.6147883912449
 20
752.68176632391703
 40
15
 41
1
 50
90
  1
2
  0
LINE
  8
_0-5_寸法線
  6
CONTINUOUS
 62
    7
 10
1176.9337498636755
 20
763.18176632391601
 11
1221.9337498636755
 21
763.18176632391567
  0
LINE
  8
_0-5_寸法線
  6
CONTINUOUS
 62
    7
 10
1216.9337498636755
 20
763.18176632391567
 11
1214.3455594126503
 21
772.8410245868065
  0
LINE
  8
_0-5_寸法線
  6
CONTINUOUS
 62
    7
 10
1216.9337498636755
 20
763.18176632391567
 11
1219.5219403147007
 21
772.8410245868065
  0
LINE
  8
_0-5_寸法線
  6
CONTINUOUS
 62
    7
 10
1216.9337498636755
 20
760.18176632391703
 11
1216.9337498636755
 21
788.18176632391567
  0
TEXT
  8
_0-5_寸法線
 62
    7
 10
1216.9337498636755
 20
776.5691090816124
 40
15
 41
1
 50
90
  1
3
  0
LINE
  8
_0-d_寸法3
  6
CONTINUOUS
 62
    7
 10
292.0973264368385
 20
371.56810435625584
 11
282.43806817394784
 21
368.97991390523066
  0
LINE
  8
_0-d_寸法3
  6
CONTINUOUS
 62
    7
 10
292.0973264368385
 20
371.56810435625584
 11
282.43806817394784
 21
374.15629480728109
  0
LINE
  8
_0-d_寸法3
  6
CONTINUOUS
 62
    7
 10
297.0973264368385
 20
300.73477269126715
 11
297.0973264368385
 21
376.56810435625584
  0
CIRCLE
  8
_0-d_寸法3
  6
CONTINUOUS
 62
    1
 10
297.0973264368385
 20
371.56810435625584
 40
1.5000000000000002
  0
LINE
  8
_0-d_寸法3
  6
CONTINUOUS
 62
    7
 10
267.0973264368385
 20
371.56810435625584
 11
297.0973264368385
 21
371.56810435625584
  0
TEXT
  8
_0-d_寸法3
 62
    7
 10
269.3246535168596
 20
371.56810435625584
 40
15
 41
1
 50
0
  1
3
  0
LINE
  8
_0-d_寸法3
  6
CONTINUOUS
 62
    7
 10
300.43065977017164
 20
298.23477102292281
 11
300.43065977017204
 21
376.56810435625584
  0
LINE
  8
_0-d_寸法3
  6
CONTINUOUS
 62
    7
 10
297.0973264368385
 20
371.56810435625584
 11
300.43065977017199
 21
371.56810435625584
  0
TEXT
  8
_0-d_寸法3
 62
    7
 10
295.01399310350507
 20
371.56810435625584
 40
15
 41
1
 50
0
  1
2
  0
LINE
  8
_0-d_寸法3
  6
CONTINUOUS
 62
    7
 10
300.43065977017199
 20
371.56810435625584
 11
310.08991803306265
 21
374.15629480728109
  0
LINE
  8
_0-d_寸法3
  6
CONTINUOUS
 62
    7
 10
300.43065977017199
 20
371.56810435625584
 11
310.08991803306265
 21
368.97991390523066
  0
LINE
  8
_0-d_寸法3
  6
CONTINUOUS
 62
    7
 10
640.43065977017159
 20
298.23477102292281
 11
640.43065977017159
 21
376.56810435625584
  0
LINE
  8
_0-d_寸法3
  6
CONTINUOUS
 62
    7
 10
640.43065977017159
 20
371.56810435625584
 11
630.77140150728087
 21
368.97991390523066
  0
LINE
  8
_0-d_寸法3
  6
CONTINUOUS
 62
    7
 10
640.43065977017159
 20
371.56810435625584
 11
630.77140150728087
 21
374.15629480728109
  0
LINE
  8
_0-d_寸法3
  6
CONTINUOUS
 62
    7
 10
300.43065977017199
 20
371.56810435625584
 11
640.43065977017159
 21
371.56810435625584
  0
TEXT
  8
_0-d_寸法3
 62
    7
 10
459.18065977017159
 20
371.56810435625584
 40
15
 41
1
 50
0
  1
204
  0
LINE
  8
_0-d_寸法3
  6
CONTINUOUS
 62
    7
 10
643.76399310350462
 20
300.73477269126715
 11
643.76399310350507
 21
376.56810435625584
  0
CIRCLE
  8
_0-d_寸法3
  6
CONTINUOUS
 62
    1
 10
643.76399310350507
 20
371.56810435625584
 40
1.5000000000000002
  0
LINE
  8
_0-d_寸法3
  6
CONTINUOUS
 62
    7
 10
640.43065977017159
 20
371.56810435625584
 11
643.76399310350507
 21
371.56810435625584
  0
TEXT
  8
_0-d_寸法3
 62
    7
 10
638.3473264368381
 20
371.56810435625584
 40
15
 41
1
 50
0
  1
2
  0
LINE
  8
_0-d_寸法3
  6
CONTINUOUS
 62
    7
 10
648.76399310350507
 20
371.56810435625584
 11
658.4232513663959
 21
374.15629480728103
  0
LINE
  8
_0-d_寸法3
  6
CONTINUOUS
 62
    7
 10
648.76399310350507
 20
371.56810435625584
 11
658.4232513663959
 21
368.9799139052306
  0
LINE
  8
_0-d_寸法3
  6
CONTINUOUS
 62
    7
 10
643.76399310350507
 20
371.56810435625584
 11
673.76399310350507
 21
371.56810435625584
  0
TEXT
  8
_0-d_寸法3
 62
    7
 10
665.28599182624578
 20
371.56810435625584
 40
15
 41
1
 50
0
  1
3
  0
ENDSEC
  0
EOF
