  0
SECTION
  2
HEADER
  9
$ACADVER
  1
AC1009
  9
$INSBASE
 10
0
 20
0
 30
0
  9
$EXTMIN
 10
0
 20
0
  9
$EXTMAX
 10
2376
 20
1680
  9
$LIMMIN
 10
0
 20
0
  9
$LIMMAX
 10
2376
 20
1680
  9
$LTSCALE
 40
8
  0
ENDSEC
  0
SECTION
  2
TABLES
  0
TABLE
  2
LTYPE
 70
     9
  0
LTYPE
  2
CONTINUOUS
 70
    64
  3
実線
 72
    65
 73
     0
 40
0.0
  0
LTYPE
  2
DASHED1
 70
    64
  3
--  --  --  --  --  --  --  --  
 72
    65
 73
     2
 40
2.5
 49
1.25
 49
-1.25
  0
LTYPE
  2
DASHED2
 70
    64
  3
----    ----    ----    ----    
 72
    65
 73
     2
 40
5.0
 49
2.5
 49
-2.5
  0
LTYPE
  2
DASHED3
 70
    64
  3
------  ------  ------  ------  
 72
    65
 73
     2
 40
5.0
 49
3.75
 49
-1.25
  0
LTYPE
  2
CENTER1
 70
    64
  3
----- - ----- - ----- - ----- - 
 72
    65
 73
     4
 40
10.0
 49
6.25
 49
-1.25
 49
1.25
 49
-1.25
  0
LTYPE
  2
CENTER2
 70
    64
  3
----------  --  ----------  --  
 72
    65
 73
     4
 40
20.0
 49
12.5
 49
-2.5
 49
2.5
 49
-2.5
  0
LTYPE
  2
PHANTOM1
 70
    64
  3
--- - - --- - - --- - - --- - - 
 72
    65
 73
     6
 40
10.0
 49
3.25
 49
-1.25
 49
1.25
 49
-1.25
 49
1.25
 49
-1.25
  0
LTYPE
  2
PHANTOM2
 70
    64
  3
--------  -  -  --------  -  -  
 72
    65
 73
     6
 40
20.0
 49
10.0
 49
-2.5
 49
1.25
 49
-2.5
 49
1.25
 49
-2.5
  0
LTYPE
  2
DOT
 70
    64
  3
-   -   -   -   -   -   -   -   
 72
    65
 73
     2
 40
2.5
 49
0.625
 49
-1.875
  0
LTYPE
  2
DUMMY
 70
    64
  3
ダミー
 72
    65
 73
     0
 40
0.0
  0
LTYPE
  2
RAND1
 70
    64
  3
ランダム線1
 72
    65
 73
     4
 40
10.0
 49
1.0
 49
-2.0
 49
3.0
 49
-4.0
  0
LTYPE
  2
RAND2
 70
    64
  3
ランダム線2
 72
    65
 73
     4
 40
14.0
 49
2.0
 49
-3.0
 49
4.0
 49
-5.0
  0
LTYPE
  2
RAND3
 70
    64
  3
ランダム線3
 72
    65
 73
     4
 40
18.0
 49
3.0
 49
-4.0
 49
5.0
 49
-6.0
  0
LTYPE
  2
RAND4
 70
    64
  3
ランダム線4
 72
    65
 73
     4
 40
22.0
 49
4.0
 49
-5.0
 49
6.0
 49
-7.0
  0
LTYPE
  2
RAND5
 70
    64
  3
ランダム線5
 72
    65
 73
     4
 40
26.0
 49
5.0
 49
-6.0
 49
7.0
 49
-8.0
  0
LTYPE
  2
LONG1
 70
    64
  3
----------  --  ----------  --  
 72
    65
 73
     4
 40
40.0
 49
32.5
 49
-2.5
 49
2.5
 49
-2.5
  0
LTYPE
  2
LONG2
 70
    64
  3
--------  -  -  --------  -  -  
 72
    65
 73
     6
 40
40.0
 49
30.0
 49
-2.5
 49
1.25
 49
-2.5
 49
1.25
 49
-2.5
  0
LTYPE
  2
LONG3
 70
    64
  3
+++++++++++++++..+++++++++++++++
 72
    65
 73
     2
 40
40.0
 49
37.5
 49
-2.5
  0
LTYPE
  2
LONG4
 70
    64
  3
+++++++++++++++..+++++++++++++++
 72
    65
 73
     2
 40
80.0
 49
75.0
 49
-5.0
  0
LTYPE
  2
LONG5
 70
    64
  3
----------  --  ----------  --  
 72
    65
 73
     4
 40
60.0
 49
37.5
 49
-7.5
 49
7.5
 49
-7.5
  0
LTYPE
  2
dashed
 70
   64
  3
-------   -------------   ------
 72
   65
 73
    2
 40
7.5
 49
6
 49
-1.5
  0
LTYPE
  2
dashed_spaced
 70
   64
  3
----        --------        ----
 72
   65
 73
    2
 40
12
 49
6
 49
-6
  0
LTYPE
  2
long_dashed_dotted
 70
   64
  3
------------- --- --------------
 72
   65
 73
    4
 40
15.25
 49
12
 49
-1.5
 49
0.25
 49
-1.5
  0
LTYPE
  2
long_dashed_double-dotted
 70
   64
  3
----------- --- --- ------------
 72
   65
 73
    6
 40
17
 49
12
 49
-1.5
 49
0.25
 49
-1.5
 49
0.25
 49
-1.5
  0
LTYPE
  2
long_dashed_triplicate-dotted
 70
   64
  3
--------- --- --- --- ----------
 72
   65
 73
    8
 40
18.75
 49
12
 49
-1.5
 49
0.25
 49
-1.5
 49
0.25
 49
-1.5
 49
0.25
 49
-1.5
  0
LTYPE
  2
dotted
 70
   64
  3
   -       -       -       -    
 72
   65
 73
    2
 40
1.75
 49
0.25
 49
-1.5
  0
LTYPE
  2
chain
 70
   64
  3
-------------- -- --------------
 72
   65
 73
    4
 40
18.5
 49
12
 49
-1.5
 49
3.5
 49
-1.5
  0
LTYPE
  2
chain_double_dash
 70
   64
  3
------------ -- -- -------------
 72
   65
 73
    6
 40
23.5
 49
12
 49
-1.5
 49
3.5
 49
-1.5
 49
3.5
 49
-1.5
  0
LTYPE
  2
dashed_dotted
 70
   64
  3
-----------     -     ----------
 72
   65
 73
    4
 40
9.25
 49
6
 49
-1.5
 49
0.25
 49
-1.5
  0
LTYPE
  2
double-dashed_dotted
 70
   64
  3
------   -----------   -   -----
 72
   65
 73
    6
 40
16.75
 49
6
 49
-1.5
 49
6
 49
-1.5
 49
0.25
 49
-1.5
  0
LTYPE
  2
dashed_double-dotted
 70
   64
  3
---------    -    -    ---------
 72
   65
 73
    6
 40
11
 49
6
 49
-1.5
 49
0.25
 49
-1.5
 49
0.25
 49
-1.5
  0
LTYPE
  2
double-dashed_double-dotted
 70
   64
  3
-----   ---------   -   -   ----
 72
   65
 73
    8
 40
18.5
 49
6
 49
-1.5
 49
6
 49
-1.5
 49
0.25
 49
-1.5
 49
0.25
 49
-1.5
  0
LTYPE
  2
dashed_triplicate-dotted
 70
   64
  3
-------    -    -    -    ------
 72
   65
 73
    8
 40
12.75
 49
6
 49
-1.5
 49
0.25
 49
-1.5
 49
0.25
 49
-1.5
 49
0.25
 49
-1.5
  0
LTYPE
  2
double-dashed_triplicate-dotted
 70
   64
  3
-----  ---------  -  -  -  -----
 72
   65
 73
   10
 40
20.25
 49
6
 49
-1.5
 49
6
 49
-1.5
 49
0.25
 49
-1.5
 49
0.25
 49
-1.5
 49
0.25
 49
-1.5
  0
LTYPE
  2
undefined
 70
   64
  3
--------------------------------
 72
   65
 73
    0
 40
0
  0
ENDTAB
  0
TABLE
  2
STYLE
  5
3
100
AcDbSymbolTable
 70
     1
  0
STYLE
  5
10
100
AcDbSymbolTableRecord
100
AcDbTextStyleTableRecord
  2
STANDARD
 70
     0
 40
0.0
 41
1.0
 50
0.0
 71
     0
 42
0.2
  3
txt
  4
bigfont.shx
  0
STYLE
  5
26
100
AcDbSymbolTableRecord
100
AcDbTextStyleTableRecord
  2
TATEGAKI
 70
    68
 40
0.0
 41
1.0
 50
0.0
 71
     0
 42
1.0
  3
txt
  4
bigfont.shx
  0
ENDTAB
  0
TABLE
  2
LAYER
 70
    9
  0
LAYER
  2
_0-0_計極細
 70
   64
 62
    7
  6
CONTINUOUS
  0
LAYER
  2
_0-1_計細線
 70
   64
 62
    7
  6
CONTINUOUS
  0
LAYER
  2
_0-5_寸法線
 70
   64
 62
    7
  6
CONTINUOUS
  0
LAYER
  2
_0-7_枠細線
 70
   64
 62
    7
  6
CONTINUOUS
  0
LAYER
  2
_0-8_枠中線
 70
   64
 62
    7
  6
CONTINUOUS
  0
LAYER
  2
_0-a_極細3
 70
   64
 62
    7
  6
CONTINUOUS
  0
LAYER
  2
_0-b_細線3
 70
   64
 62
    7
  6
CONTINUOUS
  0
LAYER
  2
_0-d_寸法3
 70
   64
 62
    7
  6
CONTINUOUS
  0
LAYER
  2
ADD_LINE
 70
   64
 62
    7
  6
CONTINUOUS
  0
ENDTAB
  0
ENDSEC
  0
SECTION
  2
BLOCKS
  0
ENDSEC
  0
SECTION
  2
ENTITIES
  0
LINE
  8
_0-8_枠中線
  6
CONTINUOUS
 62
    5
 10
96
 20
96
 11
96
 21
1536
  0
LINE
  8
_0-8_枠中線
  6
CONTINUOUS
 62
    5
 10
96
 20
1536
 11
2280
 21
1536
  0
LINE
  8
_0-8_枠中線
  6
CONTINUOUS
 62
    5
 10
2280
 20
1536
 11
2280
 21
96
  0
LINE
  8
_0-8_枠中線
  6
CONTINUOUS
 62
    5
 10
2280
 20
96
 11
96
 21
96
  0
LINE
  8
_0-7_枠細線
  6
CONTINUOUS
 62
    5
 10
1896
 20
288
 11
1896
 21
160
  0
TEXT
  8
_0-7_枠細線
 62
    5
 10
1500
 20
156
 40
28
 41
1
 50
0
  1
備考
  7
TATEGAKI
  0
TEXT
  8
_0-7_枠細線
 62
    5
 10
1500
 20
220
 40
28
 41
1
 50
0
  1
品番
  7
TATEGAKI
  0
TEXT
  8
_0-7_枠細線
 62
    5
 10
1500
 20
284
 40
28
 41
1
 50
0
  1
品名
  7
TATEGAKI
  0
LINE
  8
_0-7_枠細線
  6
CONTINUOUS
 62
    5
 10
1520
 20
288
 11
1520
 21
96
  0
LINE
  8
_0-7_枠細線
  6
CONTINUOUS
 62
    5
 10
1992
 20
288
 11
1992
 21
96
  0
TEXT
  8
_0-7_枠細線
 62
    5
 10
1908
 20
256
 40
24
 41
1
 50
0
  1
縮　尺
  0
LINE
  8
_0-7_枠細線
  6
CONTINUOUS
 62
    5
 10
1896
 20
248
 11
1992
 21
248
  0
LINE
  8
_0-7_枠細線
  6
CONTINUOUS
 62
    5
 10
1992
 20
160
 11
1480
 21
160
  0
LINE
  8
_0-7_枠細線
  6
CONTINUOUS
 62
    5
 10
2280
 20
144
 11
1992
 21
144
  0
LINE
  8
_0-7_枠細線
  6
CONTINUOUS
 62
    5
 10
1992
 20
192
 11
2280
 21
192
  0
LINE
  8
_0-7_枠細線
  6
CONTINUOUS
 62
    5
 10
2280
 20
224
 11
1992
 21
224
  0
TEXT
  8
_0-7_枠細線
 62
    5
 10
2008
 20
236
 40
40
 41
0.8
 50
0
  1
株式会社シマブン
  0
TEXT
  8
_0-7_枠細線
 62
    5
 10
2004
 20
96
 40
24
 41
1
 50
0
  1
年月日
  0
TEXT
  8
_0-7_枠細線
 62
    5
 10
2004
 20
120
 40
24
 41
1
 50
0
  1
作　成
  0
TEXT
  8
_0-7_枠細線
 62
    5
 10
2010
 20
196
 40
24
 41
1
 50
0
  1
承 認
  0
LINE
  8
_0-7_枠細線
  6
CONTINUOUS
 62
    5
 10
2088
 20
224
 11
2088
 21
96
  0
TEXT
  8
_0-7_枠細線
 62
    5
 10
2106
 20
196
 40
24
 41
1
 50
0
  1
検 図
  0
LINE
  8
_0-7_枠細線
  6
CONTINUOUS
 62
    5
 10
2184
 20
224
 11
2184
 21
144
  0
TEXT
  8
_0-7_枠細線
 62
    5
 10
2200
 20
152
 40
32
 41
1
 50
0
  1
藤戸
  0
TEXT
  8
_0-7_枠細線
 62
    5
 10
2202
 20
196
 40
24
 41
1
 50
0
  1
設 計
  0
LINE
  8
_0-7_枠細線
  6
CONTINUOUS
 62
    5
 10
2280
 20
1508
 11
1424
 21
1508
  0
TEXT
  8
_0-7_枠細線
 62
    5
 10
1432
 20
1511.9999999999998
 40
20
 41
1
 50
0
  1
記号
  0
TEXT
  8
_0-7_枠細線
 62
    5
 10
1595
 20
1512
 40
20
 41
1
 50
0
  1
訂　 正　 記　 事
  0
TEXT
  8
_0-7_枠細線
 62
    5
 10
1890
 20
1512
 40
20
 41
1
 50
0
  1
訂 正 年 月 日
  0
TEXT
  8
_0-7_枠細線
 62
    5
 10
2090
 20
1512
 40
20
 41
1
 50
0
  1
備　　　　　考
  0
TEXT
  8
_0-7_枠細線
 62
    5
 10
1536.7999999999997
 20
111.99999999999989
 40
32
 41
0.5999999999999998
 50
0
  1
品番・色については表参照のこと
  0
TEXT
  8
_0-7_枠細線
 62
    5
 10
2008
 20
152
 40
32
 41
1
 50
0
  1
隠塚
  0
TEXT
  8
_0-7_枠細線
 62
    5
 10
2104
 20
152
 40
32
 41
1
 50
0
  1
渋田
  0
TEXT
  8
_0-7_枠細線
 62
    5
 10
2096
 20
108
 40
24
 41
0.6666666666666666
 50
0
  1
２０１１年０６月２４日
  0
LINE
  8
_0-7_枠細線
  6
CONTINUOUS
 62
    5
 10
2280
 20
1480
 11
1424
 21
1480
  0
TEXT
  8
_0-7_枠細線
 62
    5
 10
1502.1605925925924
 20
1484
 40
20
 41
1
 50
0
  1
品番・色記号変更
  0
TEXT
  8
_0-7_枠細線
 62
    5
 10
1888
 20
1484
 40
20
 41
0.7199999999999999
 50
0
  1
２０１３．０３．１３
  0
LINE
  8
_0-8_枠中線
  6
CONTINUOUS
 62
    5
 10
1480
 20
288
 11
1480
 21
96
  0
LINE
  8
_0-8_枠中線
  6
CONTINUOUS
 62
    5
 10
2280
 20
288
 11
1480
 21
288
  0
LINE
  8
_0-7_枠細線
  6
CONTINUOUS
 62
    5
 10
1896
 20
224
 11
1480
 21
224
  0
TEXT
  8
_0-7_枠細線
 62
    5
 10
1910.4000000000001
 20
188
 40
32
 41
0.7
 50
0
  1
１：８
  0
TEXT
  8
_0-7_枠細線
 62
    5
 10
1536.7999999999997
 20
176
 40
32.000000000000014
 41
0.5999999999999998
 50
0
  1
ＨＲＦＴ－１５Ｌ１０００～１８００
  0
TEXT
  8
_0-7_枠細線
 62
    5
 10
1536.7999999999997
 20
239.24855752183839
 40
32
 41
0.6
 50
0
  1
排水ユニット 樹脂グレーチング 深型
  0
LINE
  8
_0-7_枠細線
  6
CONTINUOUS
 62
    5
 10
2280
 20
1452
 11
1424
 21
1452
  0
LINE
  8
_0-7_枠細線
  6
CONTINUOUS
 62
    5
 10
2280
 20
1424
 11
1424
 21
1424
  0
TEXT
  8
_0-7_枠細線
 62
    5
 10
1502.1605925925924
 20
1428
 40
20
 41
1
 50
0
  1
クロスバーピッチ変更
  0
TEXT
  8
_0-7_枠細線
 62
    5
 10
1888
 20
1428
 40
20
 41
0.7199999999999999
 50
0
  1
２０１５．１１．２０
  0
TEXT
  8
_0-7_枠細線
 62
    5
 10
1443.7842420290372
 20
1425.8165307621866
 40
20
 41
0.8
 50
0
  1
２
  0
LINE
  8
_0-7_枠細線
  6
CONTINUOUS
 62
    5
 10
1464
 20
1426.3077343547955
 11
1452
 21
1450.3077343547955
  0
LINE
  8
_0-7_枠細線
  6
CONTINUOUS
 62
    5
 10
1440
 20
1426.3077343547955
 11
1464
 21
1426.3077343547955
  0
LINE
  8
_0-7_枠細線
  6
CONTINUOUS
 62
    5
 10
1452
 20
1450.3077343547955
 11
1440
 21
1426.3077343547955
  0
LINE
  8
_0-7_枠細線
  6
CONTINUOUS
 62
    5
 10
2280
 20
1396
 11
1424
 21
1396
  0
TEXT
  8
_0-7_枠細線
 62
    5
 10
1443.7842420290372
 20
1397.4314401305048
 40
20
 41
0.8
 50
0
  1
３
  0
TEXT
  8
_0-7_枠細線
 62
    5
 10
1888
 20
1400
 40
20
 41
0.7199999999999999
 50
0
  1
２０１７．０４．０１
  0
LINE
  8
_0-7_枠細線
  6
CONTINUOUS
 62
    5
 10
1464
 20
1370.307734354795
 11
1452
 21
1394.307734354795
  0
LINE
  8
_0-7_枠細線
  6
CONTINUOUS
 62
    5
 10
1440
 20
1370.307734354795
 11
1464
 21
1370.307734354795
  0
LINE
  8
_0-7_枠細線
  6
CONTINUOUS
 62
    5
 10
1452
 20
1394.307734354795
 11
1440
 21
1370.307734354795
  0
TEXT
  8
_0-7_枠細線
 62
    5
 10
1888
 20
1372
 40
20
 41
0.7199999999999999
 50
0
  1
２０１７．０４．０１
  0
TEXT
  8
_0-7_枠細線
 62
    5
 10
1502.1605925925924
 20
1372
 40
20
 41
1
 50
0
  1
ブラウン色（Ｃ）追加
  0
LINE
  8
_0-7_枠細線
  6
CONTINUOUS
 62
    5
 10
2280
 20
1368
 11
1424
 21
1368
  0
LINE
  8
_0-7_枠細線
  6
CONTINUOUS
 62
    5
 10
1452
 20
1422.307734354795
 11
1440
 21
1398.307734354795
  0
LINE
  8
_0-7_枠細線
  6
CONTINUOUS
 62
    5
 10
1440
 20
1398.307734354795
 11
1464
 21
1398.307734354795
  0
LINE
  8
_0-7_枠細線
  6
CONTINUOUS
 62
    5
 10
1464
 20
1398.307734354795
 11
1452
 21
1422.307734354795
  0
TEXT
  8
_0-7_枠細線
 62
    5
 10
1443.7842420290372
 20
1368.7896224110352
 40
20
 41
0.8
 50
0
  1
４
  0
TEXT
  8
_0-7_枠細線
 62
    5
 10
1502.1605925925924
 20
1400
 40
20
 41
1
 50
0
  1
取外具形状変更
  0
LINE
  8
_0-7_枠細線
  6
CONTINUOUS
 62
    5
 10
2280
 20
1340
 11
1424
 21
1340
  0
LINE
  8
_0-7_枠細線
  6
CONTINUOUS
 62
    5
 10
1452
 20
1366.307734354795
 11
1440
 21
1342.307734354795
  0
LINE
  8
_0-7_枠細線
  6
CONTINUOUS
 62
    5
 10
1440
 20
1342.307734354795
 11
1464
 21
1342.307734354795
  0
LINE
  8
_0-7_枠細線
  6
CONTINUOUS
 62
    5
 10
1464
 20
1342.307734354795
 11
1452
 21
1366.307734354795
  0
TEXT
  8
_0-7_枠細線
 62
    5
 10
1443.7842420290372
 20
1341.4314401305048
 40
20
 41
0.8
 50
0
  1
５
  0
LINE
  8
_0-7_枠細線
  6
CONTINUOUS
 62
    5
 10
1424
 20
1340
 11
1424
 21
1535.9999999999991
  0
LINE
  8
_0-7_枠細線
  6
CONTINUOUS
 62
    5
 10
1480
 20
1340
 11
1480
 21
1535.9999999999991
  0
LINE
  8
_0-7_枠細線
  6
CONTINUOUS
 62
    5
 10
1880
 20
1340
 11
1880
 21
1535.9999999999991
  0
LINE
  8
_0-7_枠細線
  6
CONTINUOUS
 62
    5
 10
2040
 20
1340
 11
2040
 21
1535.9999999999991
  0
LINE
  8
_0-7_枠細線
  6
CONTINUOUS
 62
    5
 10
1464
 20
1454.3077343547955
 11
1452
 21
1478.3077343547955
  0
LINE
  8
_0-7_枠細線
  6
CONTINUOUS
 62
    5
 10
1440
 20
1454.3077343547955
 11
1464
 21
1454.3077343547955
  0
LINE
  8
_0-7_枠細線
  6
CONTINUOUS
 62
    5
 10
1452
 20
1478.3077343547955
 11
1440
 21
1454.3077343547955
  0
TEXT
  8
_0-7_枠細線
 62
    5
 10
1443.7842420290372
 20
1453.8165307621866
 40
20
 41
0.8
 50
0
  1
１
  0
TEXT
  8
_0-7_枠細線
 62
    5
 10
1502.1605925925924
 20
1456
 40
20
 41
1
 50
0
  1
アンカー材追加
  0
TEXT
  8
_0-7_枠細線
 62
    5
 10
1888
 20
1456
 40
20
 41
0.7199999999999999
 50
0
  1
２０１４．０４．０１
  0
TEXT
  8
_0-7_枠細線
 62
    5
 10
1502.1605925925924
 20
1344
 40
20
 41
1
 50
0
  1
取外具形状変更
  0
TEXT
  8
_0-7_枠細線
 62
    5
 10
1888
 20
1344
 40
20
 41
0.7199999999999999
 50
0
  1
２０２１．０５．０６
  0
TEXT
  8
_0-7_枠細線
 62
    5
 10
1746.6635219031123
 20
682.79037476040639
 40
24
 41
0.8000000000000001
 50
0
  1
記号
  0
TEXT
  8
_0-7_枠細線
 62
    5
 10
1852.2635219031135
 20
682.79037476040639
 40
24
 41
0.8000000000000001
 50
0
  1
色
  0
LINE
  8
_0-7_枠細線
  6
CONTINUOUS
 62
    5
 10
1733.8635219031128
 20
434.79037476040679
 11
2037.863521903113
 21
434.79037476040679
  0
LINE
  8
_0-7_枠細線
  6
CONTINUOUS
 62
    5
 10
1733.8635219031128
 20
474.79037476040679
 11
2037.863521903113
 21
474.79037476040679
  0
LINE
  8
_0-7_枠細線
  6
CONTINUOUS
 62
    5
 10
1733.8635219031128
 20
514.79037476040673
 11
2037.863521903113
 21
514.79037476040673
  0
LINE
  8
_0-7_枠細線
  6
CONTINUOUS
 62
    5
 10
1733.8635219031128
 20
554.79037476040673
 11
2037.863521903113
 21
554.79037476040673
  0
LINE
  8
_0-7_枠細線
  6
CONTINUOUS
 62
    5
 10
1733.8635219031128
 20
594.79037476040673
 11
2037.863521903113
 21
594.79037476040673
  0
LINE
  8
_0-7_枠細線
  6
CONTINUOUS
 62
    5
 10
1733.8635219031128
 20
634.79037476040685
 11
2037.863521903113
 21
634.79037476040685
  0
LINE
  8
_0-7_枠細線
  6
CONTINUOUS
 62
    5
 10
1733.8635219031128
 20
674.79037476040639
 11
2037.863521903113
 21
674.79037476040639
  0
LINE
  8
_0-7_枠細線
  6
CONTINUOUS
 62
    5
 10
1733.8635219031128
 20
714.79037476040639
 11
2037.863521903113
 21
714.79037476040639
  0
LINE
  8
_0-7_枠細線
  6
CONTINUOUS
 62
    5
 10
1733.8635219031128
 20
394.79037476040639
 11
2037.863521903113
 21
394.79037476040639
  0
TEXT
  8
_0-7_枠細線
 62
    5
 10
1953.0635219031142
 20
682.79037476040639
 40
24
 41
0.8000000000000001
 50
0
  1
備　考
  0
TEXT
  8
_0-7_枠細線
 62
    5
 10
1752.5997564710067
 20
722.79037476040639
 40
28
 41
1
 50
0
  1
色記号表
  0
LINE
  8
_0-7_枠細線
  6
CONTINUOUS
 62
    5
 10
1733.8635219031128
 20
354.79037476040594
 11
2037.863521903113
 21
354.79037476040594
  0
LINE
  8
_0-7_枠細線
  6
CONTINUOUS
 62
    5
 10
1733.8635219031128
 20
314.79037476040571
 11
2037.863521903113
 21
314.79037476040571
  0
LINE
  8
_0-7_枠細線
  6
CONTINUOUS
 62
    5
 10
1733.8635219031128
 20
714.79037476040639
 11
1733.8635219031128
 21
314.79037476040571
  0
LINE
  8
_0-7_枠細線
  6
CONTINUOUS
 62
    5
 10
1797.8635219031135
 20
714.79037476040639
 11
1797.8635219031135
 21
314.79037476040571
  0
LINE
  8
_0-7_枠細線
  6
CONTINUOUS
 62
    5
 10
1925.863521903113
 20
714.79037476040639
 11
1925.863521903113
 21
314.79037476040571
  0
LINE
  8
_0-7_枠細線
  6
CONTINUOUS
 62
    5
 10
2037.8635219031135
 20
714.79037476040639
 11
2037.863521903113
 21
314.79037476040571
  0
LINE
  8
_0-7_枠細線
  6
CONTINUOUS
 62
    5
 10
1722.5230167940044
 20
362.81012100960697
 11
1710.5230167940044
 21
386.81012100960697
  0
LINE
  8
_0-7_枠細線
  6
CONTINUOUS
 62
    5
 10
1698.5230167940044
 20
362.81012100960697
 11
1722.5230167940044
 21
362.81012100960697
  0
LINE
  8
_0-7_枠細線
  6
CONTINUOUS
 62
    5
 10
1710.5230167940044
 20
386.81012100960697
 11
1698.5230167940044
 21
362.81012100960697
  0
TEXT
  8
_0-7_枠細線
 62
    5
 10
1702.3072588230416
 20
361.2920090658472
 40
20
 41
0.8
 50
0
  1
４
  0
TEXT
  8
_0-7_枠細線
 62
    5
 10
1940.263521903112
 20
1249.051118840448
 40
24
 41
0.7999999999999998
 50
0
  1
Ｌ
  0
TEXT
  8
_0-7_枠細線
 62
    5
 10
1783.463521903112
 20
1249.051118840448
 40
24
 41
0.7999999999999998
 50
0
  1
品　　番
  0
LINE
  8
_0-7_枠細線
  6
CONTINUOUS
 62
    5
 10
1733.8635219031123
 20
1281.051118840448
 11
2229.8635219031094
 21
1281.051118840448
  0
LINE
  8
_0-7_枠細線
  6
CONTINUOUS
 62
    5
 10
1733.8635219031123
 20
1241.051118840448
 11
2229.8635219031094
 21
1241.051118840448
  0
LINE
  8
_0-7_枠細線
  6
CONTINUOUS
 62
    5
 10
1733.8635219031123
 20
1201.051118840448
 11
2229.8635219031094
 21
1201.051118840448
  0
LINE
  8
_0-7_枠細線
  6
CONTINUOUS
 62
    5
 10
1733.8635219031123
 20
1161.0511188404487
 11
2229.8635219031094
 21
1161.0511188404487
  0
LINE
  8
_0-7_枠細線
  6
CONTINUOUS
 62
    5
 10
1733.8635219031123
 20
1121.0511188404487
 11
2229.8635219031094
 21
1121.0511188404487
  0
LINE
  8
_0-7_枠細線
  6
CONTINUOUS
 62
    5
 10
1733.8635219031123
 20
1081.0511188404487
 11
2229.8635219031094
 21
1081.0511188404487
  0
TEXT
  8
_0-7_枠細線
 62
    5
 10
1744.9997564710063
 20
1289.051118840448
 40
28
 41
1
 50
0
  1
品番寸法表
  0
LINE
  8
_0-7_枠細線
  6
CONTINUOUS
 62
    5
 10
1733.8635219031123
 20
1281.051118840448
 11
1733.8635219031123
 21
1081.0511188404487
  0
LINE
  8
_0-7_枠細線
  6
CONTINUOUS
 62
    5
 10
1909.8635219031123
 20
1281.051118840448
 11
1909.8635219031123
 21
1081.0511188404487
  0
LINE
  8
_0-7_枠細線
  6
CONTINUOUS
 62
    5
 10
1989.8635219031112
 20
1281.051118840448
 11
1989.8635219031112
 21
1081.0511188404487
  0
LINE
  8
_0-7_枠細線
  6
CONTINUOUS
 62
    5
 10
2069.8635219031098
 20
1281.051118840448
 11
2069.8635219031098
 21
1081.0511188404487
  0
LINE
  8
_0-7_枠細線
  6
CONTINUOUS
 62
    5
 10
2149.8635219031089
 20
1281.051118840448
 11
2149.8635219031089
 21
1081.0511188404487
  0
LINE
  8
_0-7_枠細線
  6
CONTINUOUS
 62
    5
 10
2229.8635219031075
 20
1281.051118840448
 11
2229.8635219031075
 21
1081.0511188404487
  0
TEXT
  8
_0-7_枠細線
 62
    5
 10
2020.2635219031108
 20
1249.051118840448
 40
24
 41
0.7999999999999998
 50
0
  1
Ａ
  0
TEXT
  8
_0-7_枠細線
 62
    5
 10
2100.263521903109
 20
1249.051118840448
 40
24
 41
0.7999999999999998
 50
0
  1
Ｂ
  0
TEXT
  8
_0-7_枠細線
 62
    5
 10
2180.2635219031081
 20
1249.051118840448
 40
24
 41
0.7999999999999998
 50
0
  1
Ｃ
  0
TEXT
  8
_0-7_枠細線
 62
    5
 10
1925.8635219031123
 20
1169.0511188404487
 40
24
 41
1
 50
0
  1
1194
  0
TEXT
  8
_0-7_枠細線
 62
    5
 10
1937.8635219031123
 20
1209.0511188404489
 40
24
 41
1
 50
0
  1
994
  0
TEXT
  8
_0-7_枠細線
 62
    5
 10
1925.8635219031123
 20
1129.0511188404487
 40
24
 41
1
 50
0
  1
1494
  0
TEXT
  8
_0-7_枠細線
 62
    5
 10
2017.8635219031105
 20
1209.0511188404489
 40
24
 41
1
 50
0
  1
970
  0
TEXT
  8
_0-7_枠細線
 62
    5
 10
2005.8635219031105
 20
1169.0511188404487
 40
24
 41
1
 50
0
  1
1170
  0
TEXT
  8
_0-7_枠細線
 62
    5
 10
2005.8635219031105
 20
1129.0511188404487
 40
24
 41
1
 50
0
  1
1470
  0
TEXT
  8
_0-7_枠細線
 62
    5
 10
2097.8635219031094
 20
1209.0511188404489
 40
24
 41
1
 50
0
  1
967
  0
TEXT
  8
_0-7_枠細線
 62
    5
 10
2085.8635219031094
 20
1169.0511188404487
 40
24
 41
1
 50
0
  1
1167
  0
TEXT
  8
_0-7_枠細線
 62
    5
 10
2073.8635219031094
 20
1129.0511188404487
 40
24
 41
1
 50
0
  1
733×2
  0
TEXT
  8
_0-7_枠細線
 62
    5
 10
2177.863521903108
 20
1209.0511188404489
 40
24
 41
1
 50
0
  1
914
  0
TEXT
  8
_0-7_枠細線
 62
    5
 10
2165.863521903108
 20
1169.0511188404487
 40
24
 41
1
 50
0
  1
1114
  0
TEXT
  8
_0-7_枠細線
 62
    5
 10
2165.863521903108
 20
1129.0511188404487
 40
24
 41
1
 50
0
  1
1414
  0
TEXT
  8
_0-7_枠細線
 62
    5
 10
1925.8635219031123
 20
1089.0511188404487
 40
24
 41
1
 50
0
  1
1794
  0
TEXT
  8
_0-7_枠細線
 62
    5
 10
2005.8635219031105
 20
1089.0511188404487
 40
24
 41
1
 50
0
  1
1770
  0
TEXT
  8
_0-7_枠細線
 62
    5
 10
2073.8635219031094
 20
1089.0511188404487
 40
24
 41
1
 50
0
  1
883×2
  0
TEXT
  8
_0-7_枠細線
 62
    5
 10
2165.863521903108
 20
1089.0511188404487
 40
24
 41
1
 50
0
  1
1714
  0
TEXT
  8
_0-7_枠細線
 62
    5
 10
1737.8635219031123
 20
1209.0511188404487
 40
24
 41
0.9333333333333331
 50
0
  1
HRFT-15L1000-○
  0
TEXT
  8
_0-7_枠細線
 62
    5
 10
1737.8635219031123
 20
1169.051118840448
 40
24
 41
0.9333333333333331
 50
0
  1
HRFT-15L1200-○
  0
TEXT
  8
_0-7_枠細線
 62
    5
 10
1737.8635219031123
 20
1129.051118840448
 40
24
 41
0.9333333333333331
 50
0
  1
HRFT-15L1500-○
  0
TEXT
  8
_0-7_枠細線
 62
    5
 10
1737.8635219031123
 20
1089.051118840448
 40
24
 41
0.9333333333333331
 50
0
  1
HRFT-15L1800-○
  0
TEXT
  8
_0-7_枠細線
 62
    5
 10
1783.4635219031125
 20
980.0525315193529
 40
24
 41
0.7999999999999998
 50
0
  1
品　　番
  0
LINE
  8
_0-7_枠細線
  6
CONTINUOUS
 62
    5
 10
1733.8635219031128
 20
1012.0525315193529
 11
1733.8635219031128
 21
812.0525315193529
  0
LINE
  8
_0-7_枠細線
  6
CONTINUOUS
 62
    5
 10
1909.8635219031128
 20
1012.0525315193529
 11
1909.8635219031128
 21
812.0525315193529
  0
LINE
  8
_0-7_枠細線
  6
CONTINUOUS
 62
    5
 10
1989.8635219031116
 20
1012.0525315193529
 11
1989.8635219031116
 21
812.0525315193529
  0
LINE
  8
_0-7_枠細線
  6
CONTINUOUS
 62
    5
 10
2069.8635219031103
 20
1012.0525315193529
 11
2069.8635219031103
 21
812.0525315193529
  0
TEXT
  8
_0-7_枠細線
 62
    5
 10
1741.794650581835
 20
1020.0525315193529
 40
28
 41
1
 50
0
  1
アンカー位置寸法表
  0
TEXT
  8
_0-7_枠細線
 62
    5
 10
1937.8635219031121
 20
940.05253151935381
 40
24
 41
1
 50
0
  1
924
  0
TEXT
  8
_0-7_枠細線
 62
    5
 10
1925.8635219031121
 20
900.0525315193529
 40
24
 41
1
 50
0
  1
1124
  0
TEXT
  8
_0-7_枠細線
 62
    5
 10
1925.8635219031121
 20
860.0525315193529
 40
24
 41
1
 50
0
  1
1424
  0
TEXT
  8
_0-7_枠細線
 62
    5
 10
1925.8635219031121
 20
820.0525315193529
 40
24
 41
1
 50
0
  1
1724
  0
LINE
  8
_0-7_枠細線
  6
CONTINUOUS
 62
    5
 10
2149.8635219031089
 20
1012.0525315193529
 11
2149.8635219031089
 21
812.0525315193529
  0
LINE
  8
_0-7_枠細線
  6
CONTINUOUS
 62
    5
 10
1733.8635219031128
 20
1012.0525315193529
 11
2149.8635219031089
 21
1012.0525315193529
  0
LINE
  8
_0-7_枠細線
  6
CONTINUOUS
 62
    5
 10
1733.8635219031128
 20
972.0525315193529
 11
2149.8635219031089
 21
972.0525315193529
  0
LINE
  8
_0-7_枠細線
  6
CONTINUOUS
 62
    5
 10
1733.8635219031128
 20
932.0525315193529
 11
2149.8635219031089
 21
932.0525315193529
  0
LINE
  8
_0-7_枠細線
  6
CONTINUOUS
 62
    5
 10
1733.8635219031128
 20
892.0525315193529
 11
2149.8635219031089
 21
892.0525315193529
  0
LINE
  8
_0-7_枠細線
  6
CONTINUOUS
 62
    5
 10
1733.8635219031128
 20
852.0525315193529
 11
2149.8635219031089
 21
852.0525315193529
  0
LINE
  8
_0-7_枠細線
  6
CONTINUOUS
 62
    5
 10
1733.8635219031128
 20
812.0525315193529
 11
2149.8635219031089
 21
812.0525315193529
  0
TEXT
  8
_0-7_枠細線
 62
    5
 10
2000.866713083843
 20
860.0525315193529
 40
24
 41
1
 50
0
  1
474.7
  0
TEXT
  8
_0-7_枠細線
 62
    5
 10
2000.6060032878763
 20
940.0525315193529
 40
24
 41
1
 50
0
  1
462
  0
TEXT
  8
_0-7_枠細線
 62
    5
 10
2000.6060032878763
 20
900.0525315193529
 40
24
 41
1
 50
0
  1
562
  0
TEXT
  8
_0-7_枠細線
 62
    5
 10
2000.6060032878763
 20
820.0525315193529
 40
24
 41
1
 50
0
  1
431
  0
TEXT
  8
_0-7_枠細線
 62
    5
 10
2104.0718189730123
 20
940.05253151935381
 40
24
 41
1
 50
0
  1
2
  0
TEXT
  8
_0-7_枠細線
 62
    5
 10
2104.0718189730123
 20
900.0525315193529
 40
24
 41
1
 50
0
  1
2
  0
TEXT
  8
_0-7_枠細線
 62
    5
 10
2104.0718189730123
 20
860.0525315193529
 40
24
 41
1
 50
0
  1
3
  0
TEXT
  8
_0-7_枠細線
 62
    5
 10
2104.0718189730123
 20
820.0525315193529
 40
24
 41
1
 50
0
  1
4
  0
TEXT
  8
_0-7_枠細線
 62
    5
 10
1940.2635219031124
 20
980.0525315193529
 40
24
 41
0.7999999999999998
 50
0
  1
Ｄ
  0
TEXT
  8
_0-7_枠細線
 62
    5
 10
2021.3318905328347
 20
980.0525315193529
 40
24
 41
0.7999999999999998
 50
0
  1
Ｅ
  0
TEXT
  8
_0-7_枠細線
 62
    5
 10
2101.100578280631
 20
980.0525315193529
 40
24
 41
0.7999999999999998
 50
0
  1
Ｎ
  0
TEXT
  8
_0-7_枠細線
 62
    5
 10
1737.8635219031128
 20
940.05253151935347
 40
24
 41
0.9333333333333331
 50
0
  1
HRFT-15L1000-○
  0
TEXT
  8
_0-7_枠細線
 62
    5
 10
1737.8635219031128
 20
900.0525315193529
 40
24
 41
0.9333333333333331
 50
0
  1
HRFT-15L1200-○
  0
TEXT
  8
_0-7_枠細線
 62
    5
 10
1737.8635219031128
 20
860.0525315193529
 40
24
 41
0.9333333333333331
 50
0
  1
HRFT-15L1500-○
  0
TEXT
  8
_0-7_枠細線
 62
    5
 10
1737.8635219031128
 20
820.0525315193529
 40
24
 41
0.9333333333333331
 50
0
  1
HRFT-15L1800-○
  0
TEXT
  8
_0-7_枠細線
 62
    5
 10
1742.2101885697798
 20
779.836023304317
 40
24
 41
1
 50
0
  1
※ ○に色記号を付記
  0
LINE
  8
_0-b_細線3
  6
CONTINUOUS
 62
    7
 10
480.55338654962543
 20
179.21920209769644
 11
800.55338654962497
 21
179.21920209769644
  0
LINE
  8
_0-b_細線3
  6
CONTINUOUS
 62
    7
 10
803.22005321629172
 20
176.5525354310297
 11
477.88671988295857
 21
176.5525354310297
  0
LINE
  8
_0-b_細線3
  6
CONTINUOUS
 62
    7
 10
448.55338654962543
 20
421.88586876436324
 11
448.55338654962543
 21
443.21920209769644
  0
LINE
  8
_0-b_細線3
  6
CONTINUOUS
 62
    7
 10
448.55338654962543
 20
443.21920209769644
 11
480.55338654962543
 21
443.21920209769644
  0
LINE
  8
_0-b_細線3
  6
CONTINUOUS
 62
    7
 10
800.55338654962497
 20
443.21920209769644
 11
832.55338654962509
 21
443.21920209769644
  0
LINE
  8
_0-b_細線3
  6
CONTINUOUS
 62
    7
 10
832.55338654962509
 20
443.21920209769644
 11
832.55338654962509
 21
421.88586876436324
  0
LINE
  8
_0-b_細線3
  6
CONTINUOUS
 62
    7
 10
832.55338654962509
 20
421.88586876436324
 11
829.88671988295846
 21
421.88586876436324
  0
LINE
  8
_0-b_細線3
  6
CONTINUOUS
 62
    7
 10
829.88671988295846
 20
421.88586876436324
 11
829.88671988295846
 21
440.5525354310297
  0
LINE
  8
_0-b_細線3
  6
CONTINUOUS
 62
    7
 10
829.88671988295846
 20
440.5525354310297
 11
803.22005321629172
 21
440.5525354310297
  0
LINE
  8
_0-b_細線3
  6
CONTINUOUS
 62
    7
 10
477.88671988295857
 20
440.5525354310297
 11
451.22005321629194
 21
440.5525354310297
  0
LINE
  8
_0-b_細線3
  6
CONTINUOUS
 62
    7
 10
451.22005321629194
 20
440.5525354310297
 11
451.22005321629194
 21
421.88586876436324
  0
LINE
  8
_0-b_細線3
  6
CONTINUOUS
 62
    7
 10
451.22005321629194
 20
421.88586876436324
 11
448.55338654962543
 21
421.88586876436324
  0
LINE
  8
_0-b_細線3
  6
CONTINUOUS
 62
    7
 10
480.55338654962543
 20
443.21920209769644
 11
480.55338654962543
 21
179.21920209769644
  0
LINE
  8
_0-b_細線3
  6
CONTINUOUS
 62
    7
 10
800.55338654962497
 20
179.21920209769644
 11
800.55338654962497
 21
443.21920209769644
  0
LINE
  8
_0-b_細線3
  6
CONTINUOUS
 62
    7
 10
803.22005321629172
 20
440.5525354310297
 11
803.22005321629172
 21
176.5525354310297
  0
LINE
  8
_0-b_細線3
  6
CONTINUOUS
 62
    7
 10
477.88671988295857
 20
176.5525354310297
 11
477.88671988295857
 21
440.5525354310297
  0
ARC
  8
_0-b_細線3
  6
CONTINUOUS
 62
    7
 10
720.82005322114719
 20
435.21920209769576
 40
2.6666666666666674
 50
89.999999999999915
 51
179.99999999999983
  0
ARC
  8
_0-b_細線3
  6
CONTINUOUS
 62
    7
 10
722.06791773135456
 20
440.5525354310297
 40
2.6666666666666674
 50
269.99999999999977
 51
329.99999999997846
  0
ARC
  8
_0-b_細線3
  6
CONTINUOUS
 62
    7
 10
726.68671988487085
 20
437.88586876436324
 40
2.6666666666666674
 50
89.999999999999915
 51
150.00000000001745
  0
LINE
  8
_0-b_細線3
  6
CONTINUOUS
 62
    7
 10
720.82005322114719
 20
437.88586876436324
 11
722.06791773135456
 21
437.88586876436324
  0
ARC
  8
_0-b_細線3
  6
CONTINUOUS
 62
    7
 10
745.88671988192846
 20
435.21920209769644
 40
2.6666666666666674
 50
0
 51
89.999999999999915
  0
ARC
  8
_0-b_細線3
  6
CONTINUOUS
 62
    7
 10
744.63885537172109
 20
440.5525354310297
 40
2.6666666666666674
 50
210.00000000000202
 51
269.99999999999977
  0
ARC
  8
_0-b_細線3
  6
CONTINUOUS
 62
    7
 10
740.02005321820479
 20
437.88586876436324
 40
2.6666666666666674
 50
30.000000000001332
 51
89.999999999999929
  0
LINE
  8
_0-b_細線3
  6
CONTINUOUS
 62
    7
 10
745.88671988192846
 20
437.88586876436324
 11
744.63885537172109
 21
437.88586876436324
  0
ARC
  8
_0-b_細線3
  6
CONTINUOUS
 62
    7
 10
719.4867198878145
 20
431.48586876436286
 40
1.3333333333333337
 50
179.99999999999983
 51
269.99999999999977
  0
LINE
  8
_0-b_細線3
  6
CONTINUOUS
 62
    7
 10
718.15338655448113
 20
435.21920209769576
 11
718.15338655448113
 21
431.48586876436286
  0
ARC
  8
_0-b_細線3
  6
CONTINUOUS
 62
    7
 10
747.22005321526103
 20
431.4858687643636
 40
1.3333333333333337
 50
269.99999999999977
 51
359.99999999999966
  0
LINE
  8
_0-b_細線3
  6
CONTINUOUS
 62
    7
 10
748.55338654859452
 20
435.21920209769644
 11
748.55338654859452
 21
431.4858687643636
  0
ARC
  8
_0-b_細線3
  6
CONTINUOUS
 62
    7
 10
726.15338655448113
 20
427.48586876436286
 40
2.6666666666666674
 50
0
 51
89.999999999999915
  0
LINE
  8
_0-b_細線3
  6
CONTINUOUS
 62
    7
 10
726.15338655448113
 20
430.15253543102966
 11
719.4867198878145
 21
430.15253543102966
  0
ARC
  8
_0-b_細線3
  6
CONTINUOUS
 62
    7
 10
740.55338655448077
 20
427.4858687643636
 40
2.6666666666666674
 50
89.999999999999915
 51
179.99999999999983
  0
LINE
  8
_0-b_細線3
  6
CONTINUOUS
 62
    7
 10
740.55338654859452
 20
430.15253543102966
 11
747.22005321526103
 21
430.15253543102966
  0
LINE
  8
_0-b_細線3
  6
CONTINUOUS
 62
    7
 10
740.02005321820479
 20
440.5525354310297
 11
726.68671988487085
 21
440.5525354310297
  0
LINE
  8
_0-b_細線3
  6
CONTINUOUS
 62
    7
 10
728.82005321820407
 20
387.21920209769576
 11
728.82005322114719
 21
427.48586876436286
  0
LINE
  8
_0-b_細線3
  6
CONTINUOUS
 62
    7
 10
737.88671988487158
 20
387.21920209769621
 11
737.88671988781471
 21
427.4858687643636
  0
LINE
  8
_0-b_細線3
  6
CONTINUOUS
 62
    7
 10
737.88671988487158
 20
387.21920209769621
 11
728.82005321820407
 21
387.21920209769576
  0
ARC
  8
_0-b_細線3
  6
CONTINUOUS
 62
    7
 10
674.42005322016587
 20
435.21920209769576
 40
2.6666666666666674
 50
89.999999999999915
 51
179.99999999998533
  0
ARC
  8
_0-b_細線3
  6
CONTINUOUS
 62
    7
 10
675.66791773037278
 20
440.5525354310297
 40
2.6666666666666674
 50
269.99999999999977
 51
329.99999999998454
  0
ARC
  8
_0-b_細線3
  6
CONTINUOUS
 62
    7
 10
680.28671988388908
 20
437.88586876436324
 40
2.6666666666666674
 50
89.999999999999915
 51
150.00000000001137
  0
LINE
  8
_0-b_細線3
  6
CONTINUOUS
 62
    7
 10
674.42005322016587
 20
437.88586876436324
 11
675.66791773037278
 21
437.88586876436324
  0
ARC
  8
_0-b_細線3
  6
CONTINUOUS
 62
    7
 10
699.48671988094668
 20
435.21920209769644
 40
2.6666666666666674
 50
359.99999999998499
 51
89.999999999999545
  0
ARC
  8
_0-b_細線3
  6
CONTINUOUS
 62
    7
 10
698.23885537073977
 20
440.5525354310297
 40
2.6666666666666674
 50
209.99999999999713
 51
269.99999999999977
  0
ARC
  8
_0-b_細線3
  6
CONTINUOUS
 62
    7
 10
693.62005321722347
 20
437.88586876436324
 40
2.6666666666666674
 50
30.000000000006217
 51
89.999999999999929
  0
LINE
  8
_0-b_細線3
  6
CONTINUOUS
 62
    7
 10
699.48671988094668
 20
437.88586876436324
 11
698.23885537073977
 21
437.88586876436324
  0
ARC
  8
_0-b_細線3
  6
CONTINUOUS
 62
    7
 10
673.08671988683329
 20
431.4858687643636
 40
1.3333333333333337
 50
179.99999999999983
 51
269.99999999999977
  0
LINE
  8
_0-b_細線3
  6
CONTINUOUS
 62
    7
 10
671.75338655349935
 20
435.21920209769644
 11
671.75338655349935
 21
431.4858687643636
  0
ARC
  8
_0-b_細線3
  6
CONTINUOUS
 62
    7
 10
700.82005321428005
 20
431.48586876436286
 40
1.3333333333333337
 50
269.99999999999977
 51
359.99999999999966
  0
LINE
  8
_0-b_細線3
  6
CONTINUOUS
 62
    7
 10
702.1533865476132
 20
435.21920209769576
 11
702.1533865476132
 21
431.48586876436286
  0
ARC
  8
_0-b_細線3
  6
CONTINUOUS
 62
    7
 10
679.75338655349935
 20
427.48586876436286
 40
2.6666666666666674
 50
0
 51
89.999999999999915
  0
LINE
  8
_0-b_細線3
  6
CONTINUOUS
 62
    7
 10
679.75338655349935
 20
430.15253543102966
 11
673.08671988683329
 21
430.15253543102966
  0
ARC
  8
_0-b_細線3
  6
CONTINUOUS
 62
    7
 10
694.15338655349944
 20
427.4858687643636
 40
2.6666666666666674
 50
89.999999999999915
 51
179.99999999999983
  0
LINE
  8
_0-b_細線3
  6
CONTINUOUS
 62
    7
 10
694.1533865476132
 20
430.15253543102966
 11
700.82005321428005
 21
430.15253543102966
  0
LINE
  8
_0-b_細線3
  6
CONTINUOUS
 62
    7
 10
693.62005321722347
 20
440.5525354310297
 11
680.28671988388908
 21
440.5525354310297
  0
LINE
  8
_0-b_細線3
  6
CONTINUOUS
 62
    7
 10
682.42005321722274
 20
387.21920209769576
 11
682.42005322016587
 21
427.48586876436286
  0
LINE
  8
_0-b_細線3
  6
CONTINUOUS
 62
    7
 10
691.4867198838898
 20
387.21920209769621
 11
691.48671988683293
 21
427.4858687643636
  0
LINE
  8
_0-b_細線3
  6
CONTINUOUS
 62
    7
 10
691.4867198838898
 20
387.21920209769621
 11
682.42005321722274
 21
387.21920209769576
  0
ARC
  8
_0-b_細線3
  6
CONTINUOUS
 62
    7
 10
628.02005321923446
 20
435.21920209769576
 40
2.6666666666666674
 50
89.999999999999915
 51
179.99999999999983
  0
ARC
  8
_0-b_細線3
  6
CONTINUOUS
 62
    7
 10
629.26791772944125
 20
440.5525354310297
 40
2.6666666666666674
 50
269.99999999999977
 51
329.99999999999068
  0
ARC
  8
_0-b_細線3
  6
CONTINUOUS
 62
    7
 10
633.88671988295755
 20
437.88586876436324
 40
2.6666666666666674
 50
89.999999999999915
 51
150.00000000000526
  0
LINE
  8
_0-b_細線3
  6
CONTINUOUS
 62
    7
 10
628.02005321923446
 20
437.88586876436324
 11
629.26791772944125
 21
437.88586876436324
  0
ARC
  8
_0-b_細線3
  6
CONTINUOUS
 62
    7
 10
653.08671988001515
 20
435.21920209769644
 40
2.6666666666666674
 50
0
 51
89.999999999999915
  0
ARC
  8
_0-b_細線3
  6
CONTINUOUS
 62
    7
 10
651.83885536980961
 20
440.5525354310297
 40
2.6666666666666674
 50
209.99999999998249
 51
269.99999999999977
  0
ARC
  8
_0-b_細線3
  6
CONTINUOUS
 62
    7
 10
647.22005321629206
 20
437.88586876436324
 40
2.6666666666666674
 50
30.000000000007439
 51
89.999999999999929
  0
LINE
  8
_0-b_細線3
  6
CONTINUOUS
 62
    7
 10
653.08671988001515
 20
437.88586876436324
 11
651.83885536980961
 21
437.88586876436324
  0
ARC
  8
_0-b_細線3
  6
CONTINUOUS
 62
    7
 10
626.68671988590233
 20
431.48586876436286
 40
1.3333333333333337
 50
179.99999999999983
 51
269.99999999999977
  0
LINE
  8
_0-b_細線3
  6
CONTINUOUS
 62
    7
 10
625.35338655256783
 20
435.21920209769576
 11
625.35338655256783
 21
431.48586876436286
  0
ARC
  8
_0-b_細線3
  6
CONTINUOUS
 62
    7
 10
654.4200532133483
 20
431.4858687643636
 40
1.3333333333333337
 50
269.99999999999977
 51
359.99999999999966
  0
LINE
  8
_0-b_細線3
  6
CONTINUOUS
 62
    7
 10
655.75338654668303
 20
435.21920209769644
 11
655.75338654668303
 21
431.4858687643636
  0
ARC
  8
_0-b_細線3
  6
CONTINUOUS
 62
    7
 10
633.35338655256783
 20
427.48586876436286
 40
2.6666666666666674
 50
0
 51
89.999999999999915
  0
LINE
  8
_0-b_細線3
  6
CONTINUOUS
 62
    7
 10
633.35338655256783
 20
430.15253543102966
 11
626.68671988590233
 21
430.15253543102966
  0
ARC
  8
_0-b_細線3
  6
CONTINUOUS
 62
    7
 10
647.75338655256803
 20
427.4858687643636
 40
2.6666666666666674
 50
89.999999999999915
 51
179.99999999999983
  0
LINE
  8
_0-b_細線3
  6
CONTINUOUS
 62
    7
 10
647.75338654668178
 20
430.15253543102966
 11
654.4200532133483
 21
430.15253543102966
  0
LINE
  8
_0-b_細線3
  6
CONTINUOUS
 62
    7
 10
647.22005321629206
 20
440.5525354310297
 11
633.88671988295755
 21
440.5525354310297
  0
LINE
  8
_0-b_細線3
  6
CONTINUOUS
 62
    7
 10
636.02005321629258
 20
387.21920209769576
 11
636.02005321923446
 21
427.48586876436286
  0
LINE
  8
_0-b_細線3
  6
CONTINUOUS
 62
    7
 10
645.08671988295828
 20
387.21920209769621
 11
645.0867198859014
 21
427.4858687643636
  0
LINE
  8
_0-b_細線3
  6
CONTINUOUS
 62
    7
 10
645.08671988295828
 20
387.21920209769621
 11
636.02005321629258
 21
387.21920209769576
  0
ARC
  8
_0-b_細線3
  6
CONTINUOUS
 62
    7
 10
535.22005322083521
 20
435.21920209769576
 40
2.6666666666666674
 50
89.999999999999915
 51
179.99999999999983
  0
ARC
  8
_0-b_細線3
  6
CONTINUOUS
 62
    7
 10
536.46791773104144
 20
440.5525354310297
 40
2.6666666666666674
 50
269.99999999999977
 51
329.99999999999676
  0
ARC
  8
_0-b_細線3
  6
CONTINUOUS
 62
    7
 10
541.08671988455819
 20
437.88586876436324
 40
2.6666666666666674
 50
89.999999999999915
 51
150.00000000000404
  0
LINE
  8
_0-b_細線3
  6
CONTINUOUS
 62
    7
 10
535.22005322083521
 20
437.88586876436324
 11
536.46791773104144
 21
437.88586876436324
  0
ARC
  8
_0-b_細線3
  6
CONTINUOUS
 62
    7
 10
560.2867198816158
 20
435.21920209769644
 40
2.6666666666666674
 50
0
 51
89.999999999999915
  0
ARC
  8
_0-b_細線3
  6
CONTINUOUS
 62
    7
 10
559.0388553714098
 20
440.5525354310297
 40
2.6666666666666674
 50
209.99999999998738
 51
269.99999999999977
  0
ARC
  8
_0-b_細線3
  6
CONTINUOUS
 62
    7
 10
554.42005321789213
 20
437.88586876436324
 40
2.6666666666666674
 50
30.000000000001332
 51
89.999999999985349
  0
LINE
  8
_0-b_細線3
  6
CONTINUOUS
 62
    7
 10
560.2867198816158
 20
437.88586876436324
 11
559.0388553714098
 21
437.88586876436324
  0
ARC
  8
_0-b_細線3
  6
CONTINUOUS
 62
    7
 10
533.88671988750241
 20
431.48586876436286
 40
1.3333333333333337
 50
179.99999999999983
 51
269.99999999999977
  0
LINE
  8
_0-b_細線3
  6
CONTINUOUS
 62
    7
 10
532.55338655416801
 20
435.21920209769576
 11
532.55338655416801
 21
431.48586876436286
  0
ARC
  8
_0-b_細線3
  6
CONTINUOUS
 62
    7
 10
561.62005321494928
 20
431.4858687643636
 40
1.3333333333333337
 50
269.99999999999977
 51
359.99999999999966
  0
LINE
  8
_0-b_細線3
  6
CONTINUOUS
 62
    7
 10
562.95338654828322
 20
435.21920209769644
 11
562.95338654828322
 21
431.4858687643636
  0
ARC
  8
_0-b_細線3
  6
CONTINUOUS
 62
    7
 10
540.55338655416801
 20
427.48586876436286
 40
2.6666666666666674
 50
0
 51
89.999999999999915
  0
LINE
  8
_0-b_細線3
  6
CONTINUOUS
 62
    7
 10
540.55338655416801
 20
430.15253543102966
 11
533.88671988750241
 21
430.15253543102966
  0
ARC
  8
_0-b_細線3
  6
CONTINUOUS
 62
    7
 10
554.95338655416879
 20
427.4858687643636
 40
2.6666666666666674
 50
89.999999999999915
 51
179.99999999999983
  0
LINE
  8
_0-b_細線3
  6
CONTINUOUS
 62
    7
 10
554.95338654828254
 20
430.15253543102966
 11
561.62005321494928
 21
430.15253543102966
  0
LINE
  8
_0-b_細線3
  6
CONTINUOUS
 62
    7
 10
554.42005321789213
 20
440.5525354310297
 11
541.08671988455819
 21
440.5525354310297
  0
LINE
  8
_0-b_細線3
  6
CONTINUOUS
 62
    7
 10
543.22005321789277
 20
387.21920209769576
 11
543.22005322083521
 21
427.48586876436286
  0
LINE
  8
_0-b_細線3
  6
CONTINUOUS
 62
    7
 10
552.28671988455847
 20
387.21920209769621
 11
552.28671988750204
 21
427.4858687643636
  0
LINE
  8
_0-b_細線3
  6
CONTINUOUS
 62
    7
 10
552.28671988455847
 20
387.21920209769621
 11
543.22005321789277
 21
387.21920209769576
  0
ARC
  8
_0-b_細線3
  6
CONTINUOUS
 62
    7
 10
581.62005321993263
 20
435.21920209769576
 40
2.6666666666666674
 50
89.999999999999915
 51
179.99999999998533
  0
ARC
  8
_0-b_細線3
  6
CONTINUOUS
 62
    7
 10
582.86791773013931
 20
440.5525354310297
 40
2.6666666666666674
 50
269.99999999999977
 51
329.99999999999187
  0
ARC
  8
_0-b_細線3
  6
CONTINUOUS
 62
    7
 10
587.48671988365561
 20
437.88586876436324
 40
2.6666666666666674
 50
89.999999999999915
 51
150.00000000000404
  0
LINE
  8
_0-b_細線3
  6
CONTINUOUS
 62
    7
 10
581.62005321993263
 20
437.88586876436324
 11
582.86791773013931
 21
437.88586876436324
  0
ARC
  8
_0-b_細線3
  6
CONTINUOUS
 62
    7
 10
606.68671988071321
 20
435.21920209769644
 40
2.6666666666666674
 50
359.99999999998499
 51
89.999999999999545
  0
ARC
  8
_0-b_細線3
  6
CONTINUOUS
 62
    7
 10
605.43885537050767
 20
440.5525354310297
 40
2.6666666666666674
 50
209.99999999998249
 51
269.99999999999977
  0
ARC
  8
_0-b_細線3
  6
CONTINUOUS
 62
    7
 10
600.82005321699023
 20
437.88586876436324
 40
2.6666666666666674
 50
30.000000000008662
 51
89.999999999999929
  0
LINE
  8
_0-b_細線3
  6
CONTINUOUS
 62
    7
 10
606.68671988071321
 20
437.88586876436324
 11
605.43885537050767
 21
437.88586876436324
  0
ARC
  8
_0-b_細線3
  6
CONTINUOUS
 62
    7
 10
580.28671988660051
 20
431.4858687643636
 40
1.3333333333333337
 50
179.99999999999983
 51
269.99999999999977
  0
LINE
  8
_0-b_細線3
  6
CONTINUOUS
 62
    7
 10
578.95338655326589
 20
435.21920209769644
 11
578.95338655326589
 21
431.4858687643636
  0
ARC
  8
_0-b_細線3
  6
CONTINUOUS
 62
    7
 10
608.0200532140467
 20
431.48586876436286
 40
1.3333333333333337
 50
269.99999999999977
 51
359.99999999999966
  0
LINE
  8
_0-b_細線3
  6
CONTINUOUS
 62
    7
 10
609.35338654738109
 20
435.21920209769576
 11
609.35338654738109
 21
431.48586876436286
  0
ARC
  8
_0-b_細線3
  6
CONTINUOUS
 62
    7
 10
586.95338655326589
 20
427.48586876436286
 40
2.6666666666666674
 50
0
 51
89.999999999999915
  0
LINE
  8
_0-b_細線3
  6
CONTINUOUS
 62
    7
 10
586.95338655326589
 20
430.15253543102966
 11
580.28671988660051
 21
430.15253543102966
  0
ARC
  8
_0-b_細線3
  6
CONTINUOUS
 62
    7
 10
601.3533865532662
 20
427.4858687643636
 40
2.6666666666666674
 50
89.999999999999915
 51
179.99999999999983
  0
LINE
  8
_0-b_細線3
  6
CONTINUOUS
 62
    7
 10
601.35338654737996
 20
430.15253543102966
 11
608.0200532140467
 21
430.15253543102966
  0
LINE
  8
_0-b_細線3
  6
CONTINUOUS
 62
    7
 10
600.82005321699023
 20
440.5525354310297
 11
587.48671988365561
 21
440.5525354310297
  0
LINE
  8
_0-b_細線3
  6
CONTINUOUS
 62
    7
 10
589.62005321699064
 20
387.21920209769576
 11
589.62005321993263
 21
427.48586876436286
  0
LINE
  8
_0-b_細線3
  6
CONTINUOUS
 62
    7
 10
598.68671988365634
 20
387.21920209769621
 11
598.68671988659946
 21
427.4858687643636
  0
LINE
  8
_0-b_細線3
  6
CONTINUOUS
 62
    7
 10
598.68671988365634
 20
387.21920209769621
 11
589.62005321699064
 21
387.21920209769576
  0
ARC
  8
_0-b_細線3
  6
CONTINUOUS
 62
    7
 10
767.48671988838623
 20
435.21920209769644
 40
2.6666666666666674
 50
89.999999999999915
 51
179.99999999999983
  0
ARC
  8
_0-b_細線3
  6
CONTINUOUS
 62
    7
 10
768.73458439859155
 20
440.5525354310297
 40
2.6666666666666674
 50
269.99999999999977
 51
329.99999999999187
  0
ARC
  8
_0-b_細線3
  6
CONTINUOUS
 62
    7
 10
773.35338655210933
 20
437.88586876436324
 40
2.6666666666666674
 50
89.999999999999915
 51
150.0000000000199
  0
LINE
  8
_0-b_細線3
  6
CONTINUOUS
 62
    7
 10
767.48671988838623
 20
437.88586876436324
 11
768.73458439859155
 21
437.88586876436324
  0
ARC
  8
_0-b_細線3
  6
CONTINUOUS
 62
    7
 10
792.55338654916693
 20
435.21920209769644
 40
2.6666666666666674
 50
359.99999999998499
 51
89.999999999999545
  0
ARC
  8
_0-b_細線3
  6
CONTINUOUS
 62
    7
 10
791.30552203895991
 20
440.5525354310297
 40
2.6666666666666674
 50
209.99999999999835
 51
269.99999999999977
  0
ARC
  8
_0-b_細線3
  6
CONTINUOUS
 62
    7
 10
786.68671988544247
 20
437.88586876436324
 40
2.6666666666666674
 50
29.999999999992784
 51
89.999999999975572
  0
LINE
  8
_0-b_細線3
  6
CONTINUOUS
 62
    7
 10
792.55338654916693
 20
437.88586876436324
 11
791.30552203895991
 21
437.88586876436324
  0
ARC
  8
_0-b_細線3
  6
CONTINUOUS
 62
    7
 10
766.15338655505275
 20
431.4858687643636
 40
1.3333333333333337
 50
179.99999999999983
 51
269.99999999999977
  0
LINE
  8
_0-b_細線3
  6
CONTINUOUS
 62
    7
 10
764.82005322171835
 20
435.21920209769644
 11
764.82005322171835
 21
431.4858687643636
  0
ARC
  8
_0-b_細線3
  6
CONTINUOUS
 62
    7
 10
793.88671988250007
 20
431.4858687643636
 40
1.3333333333333337
 50
269.99999999999977
 51
359.99999999996788
  0
LINE
  8
_0-b_細線3
  6
CONTINUOUS
 62
    7
 10
795.22005321583333
 20
435.21920209769576
 11
795.22005321583333
 21
431.48586876436286
  0
ARC
  8
_0-b_細線3
  6
CONTINUOUS
 62
    7
 10
772.82005322171813
 20
427.48586876436286
 40
2.6666666666666674
 50
0
 51
89.999999999999915
  0
LINE
  8
_0-b_細線3
  6
CONTINUOUS
 62
    7
 10
772.82005322171813
 20
430.15253543102966
 11
766.15338655505275
 21
430.15253543102966
  0
ARC
  8
_0-b_細線3
  6
CONTINUOUS
 62
    7
 10
787.22005322171844
 20
427.4858687643636
 40
2.6666666666666674
 50
89.999999999999915
 51
179.99999999999983
  0
LINE
  8
_0-b_細線3
  6
CONTINUOUS
 62
    7
 10
787.22005321583219
 20
430.15253543102966
 11
793.88671988250007
 21
430.15253543102966
  0
LINE
  8
_0-b_細線3
  6
CONTINUOUS
 62
    7
 10
786.68671988544247
 20
440.5525354310297
 11
773.35338655210933
 21
440.5525354310297
  0
LINE
  8
_0-b_細線3
  6
CONTINUOUS
 62
    7
 10
775.48671988544288
 20
387.21920209769576
 11
775.48671988838601
 21
427.48586876436286
  0
LINE
  8
_0-b_細線3
  6
CONTINUOUS
 62
    7
 10
784.55338655210858
 20
387.21920209769621
 11
784.55338655505318
 21
427.4858687643636
  0
LINE
  8
_0-b_細線3
  6
CONTINUOUS
 62
    7
 10
784.55338655210858
 20
387.21920209769621
 11
775.48671988544288
 21
387.21920209769576
  0
LINE
  8
_0-a_極細3
  6
CENTER1
 62
    7
 10
640.55338654962543
 20
361.32187492097671
 11
640.55338654962543
 21
462.84187492098675
  0
LINE
  8
_0-b_細線3
  6
CONTINUOUS
 62
    7
 10
513.62005321243316
 20
381.88586876436273
 11
504.5533865457661
 21
381.88586876436273
  0
LINE
  8
_0-b_細線3
  6
CONTINUOUS
 62
    7
 10
532.55338654962463
 20
381.88586876436273
 11
524.28671988006488
 21
381.88586876436273
  0
LINE
  8
_0-b_細線3
  6
CONTINUOUS
 62
    7
 10
748.55338654962588
 20
381.88586876436273
 11
756.82005321918575
 21
381.88586876436273
  0
LINE
  8
_0-b_細線3
  6
CONTINUOUS
 62
    7
 10
533.88671988295835
 20
385.8858687643625
 11
532.55338654962463
 21
387.21920209769621
  0
LINE
  8
_0-b_細線3
  6
CONTINUOUS
 62
    7
 10
533.88671988295835
 20
383.21920209769553
 11
533.88671988295835
 21
385.8858687643625
  0
LINE
  8
_0-b_細線3
  6
CONTINUOUS
 62
    7
 10
532.55338654962463
 20
381.88586876436273
 11
533.88671988295835
 21
383.21920209769553
  0
LINE
  8
_0-b_細線3
  6
CONTINUOUS
 62
    7
 10
485.88671988295857
 20
381.88586876436273
 11
532.55338654962463
 21
381.88586876436273
  0
LINE
  8
_0-b_細線3
  6
CONTINUOUS
 62
    7
 10
481.88671988295812
 20
333.88586876436227
 11
480.55338654962543
 21
335.21920209769576
  0
LINE
  8
_0-b_細線3
  6
CONTINUOUS
 62
    7
 10
484.55338654962543
 20
333.88586876436227
 11
481.88671988295812
 21
333.88586876436227
  0
LINE
  8
_0-b_細線3
  6
CONTINUOUS
 62
    7
 10
485.88671988295857
 20
335.21920209769576
 11
484.55338654962543
 21
333.88586876436227
  0
LINE
  8
_0-b_細線3
  6
CONTINUOUS
 62
    7
 10
485.88671988295857
 20
381.88586876436273
 11
485.88671988295857
 21
335.21920209769576
  0
LINE
  8
_0-b_細線3
  6
CONTINUOUS
 62
    7
 10
480.55338654962543
 20
381.88586876436273
 11
480.55338654962543
 21
335.21920209769576
  0
LINE
  8
_0-b_細線3
  6
CONTINUOUS
 62
    7
 10
485.88671988295857
 20
387.21920209769621
 11
532.55338654962463
 21
387.21920209769621
  0
ARC
  8
_0-b_細線3
  6
CONTINUOUS
 62
    7
 10
485.88671988295857
 20
381.88586876436273
 40
5.333333333333333
 50
89.999999999999915
 51
179.99999999999983
  0
LINE
  8
_0-b_細線3
  6
CONTINUOUS
 62
    7
 10
747.22005321629229
 20
385.8858687643625
 11
748.55338654962588
 21
387.21920209769621
  0
LINE
  8
_0-b_細線3
  6
CONTINUOUS
 62
    7
 10
747.22005321629229
 20
383.21920209769553
 11
747.22005321629229
 21
385.8858687643625
  0
LINE
  8
_0-b_細線3
  6
CONTINUOUS
 62
    7
 10
748.55338654962588
 20
381.88586876436273
 11
747.22005321629229
 21
383.21920209769553
  0
LINE
  8
_0-b_細線3
  6
CONTINUOUS
 62
    7
 10
795.22005321629194
 20
381.88586876436273
 11
748.55338654962588
 21
381.88586876436273
  0
LINE
  8
_0-b_細線3
  6
CONTINUOUS
 62
    7
 10
799.2200532162924
 20
333.88586876436227
 11
800.55338654962532
 21
335.21920209769576
  0
LINE
  8
_0-b_細線3
  6
CONTINUOUS
 62
    7
 10
796.55338654962532
 20
333.88586876436227
 11
799.2200532162924
 21
333.88586876436227
  0
LINE
  8
_0-b_細線3
  6
CONTINUOUS
 62
    7
 10
795.22005321629194
 20
335.21920209769576
 11
796.55338654962532
 21
333.88586876436227
  0
LINE
  8
_0-b_細線3
  6
CONTINUOUS
 62
    7
 10
795.22005321629194
 20
381.88586876436273
 11
795.22005321629194
 21
335.21920209769576
  0
LINE
  8
_0-b_細線3
  6
CONTINUOUS
 62
    7
 10
795.22005321629194
 20
387.21920209769621
 11
748.55338654962588
 21
387.21920209769621
  0
LINE
  8
_0-b_細線3
  6
CONTINUOUS
 62
    7
 10
800.55338654962532
 20
381.88586876436273
 11
800.55338654962532
 21
335.21920209769576
  0
ARC
  8
_0-b_細線3
  6
CONTINUOUS
 62
    7
 10
795.22005321629194
 20
381.88586876436273
 40
5.333333333333333
 50
0
 51
89.999999999999915
  0
LINE
  8
_0-b_細線3
  6
CONTINUOUS
 62
    7
 10
645.08671988346487
 20
394.15247607422941
 11
657.48671988491208
 21
394.15247607422941
  0
LINE
  8
_0-d_寸法3
  6
CONTINUOUS
 62
    7
 10
628.29667543667495
 20
397.50380385268051
 11
579.49986225734654
 21
438.4491917940822
  0
LINE
  8
_0-d_寸法3
  6
CONTINUOUS
 62
    7
 10
585.62821780229831
 20
433.30689091658985
 11
581.48711308065799
 21
448.76170413721496
  0
LINE
  8
_0-d_寸法3
  6
CONTINUOUS
 62
    7
 10
585.62821780229831
 20
433.30689091658985
 11
589.76932252393863
 21
448.76170413721496
  0
LINE
  8
_0-d_寸法3
  6
CONTINUOUS
 62
    7
 10
628.29667543667495
 20
450.83713718601416
 11
579.49986225734654
 21
491.78252512741574
  0
LINE
  8
_0-d_寸法3
  6
CONTINUOUS
 62
    7
 10
585.62821780229831
 20
486.64022424992339
 11
589.76932252393863
 21
471.18541102929828
  0
LINE
  8
_0-d_寸法3
  6
CONTINUOUS
 62
    7
 10
585.62821780229831
 20
486.64022424992339
 11
581.48711308065799
 21
471.18541102929828
  0
LINE
  8
_0-d_寸法3
  6
CONTINUOUS
 62
    7
 10
585.62821780229831
 20
433.30689091658985
 11
585.62821780229831
 21
486.64022424992339
  0
TEXT
  8
_0-d_寸法3
 62
    7
 10
585.62821780229831
 20
448.46783347075473
 40
24
 41
1
 50
90
  1
20
  0
LINE
  8
_0-d_寸法3
  6
CONTINUOUS
 62
    7
 10
480.55338654962543
 20
317.88586876436227
 11
480.55338654962543
 21
297.88586876436227
  0
LINE
  8
_0-d_寸法3
  6
CONTINUOUS
 62
    7
 10
480.55338654962543
 20
305.88586876436227
 11
496.00819977025049
 21
310.02697348600259
  0
LINE
  8
_0-d_寸法3
  6
CONTINUOUS
 62
    7
 10
480.55338654962543
 20
305.88586876436227
 11
496.00819977025049
 21
301.74476404272195
  0
LINE
  8
_0-d_寸法3
  6
CONTINUOUS
 62
    7
 10
533.88671988295835
 20
365.88586876436273
 11
533.88671988295812
 21
297.88586876436227
  0
LINE
  8
_0-d_寸法3
  6
CONTINUOUS
 62
    7
 10
533.88671988295812
 20
305.88586876436227
 11
518.43190666233306
 21
301.74476404272195
  0
LINE
  8
_0-d_寸法3
  6
CONTINUOUS
 62
    7
 10
533.88671988295812
 20
305.88586876436227
 11
518.43190666233306
 21
310.02697348600259
  0
LINE
  8
_0-d_寸法3
  6
CONTINUOUS
 62
    7
 10
480.55338654962543
 20
305.88586876436227
 11
533.88671988295812
 21
305.88586876436227
  0
TEXT
  8
_0-d_寸法3
 62
    7
 10
495.2200532162916
 20
305.88586876436227
 40
24
 41
1
 50
0
  1
20
  0
LINE
  8
_0-d_寸法3
  6
CONTINUOUS
 62
    7
 10
533.88671988295812
 20
305.88586876436227
 11
549.34153310358329
 21
310.02697348600248
  0
LINE
  8
_0-d_寸法3
  6
CONTINUOUS
 62
    7
 10
533.88671988295812
 20
305.88586876436227
 11
549.34153310358317
 21
301.74476404272184
  0
LINE
  8
_0-d_寸法3
  6
CONTINUOUS
 62
    7
 10
747.22005321629217
 20
365.88586876436273
 11
747.22005321629194
 21
297.88586876436227
  0
LINE
  8
_0-d_寸法3
  6
CONTINUOUS
 62
    7
 10
747.22005321629194
 20
305.88586876436227
 11
731.76523999566689
 21
301.74476404272195
  0
LINE
  8
_0-d_寸法3
  6
CONTINUOUS
 62
    7
 10
747.22005321629194
 20
305.88586876436227
 11
731.76523999566689
 21
310.02697348600259
  0
LINE
  8
_0-d_寸法3
  6
CONTINUOUS
 62
    7
 10
533.88671988295812
 20
305.88586876436227
 11
747.22005321629194
 21
305.88586876436227
  0
TEXT
  8
_0-d_寸法3
 62
    7
 10
628.55338654962509
 20
305.88586876436227
 40
24
 41
1
 50
0
  1
80
  0
LINE
  8
_0-d_寸法3
  6
CONTINUOUS
 62
    7
 10
747.22005321629194
 20
305.88586876436227
 11
762.67486643691711
 21
310.02697348600248
  0
LINE
  8
_0-d_寸法3
  6
CONTINUOUS
 62
    7
 10
747.22005321629194
 20
305.88586876436227
 11
762.674866436917
 21
301.74476404272184
  0
LINE
  8
_0-d_寸法3
  6
CONTINUOUS
 62
    7
 10
800.55338654962497
 20
317.88586876436227
 11
800.55338654962497
 21
297.88586876436227
  0
LINE
  8
_0-d_寸法3
  6
CONTINUOUS
 62
    7
 10
800.55338654962497
 20
305.88586876436227
 11
785.09857332899992
 21
301.74476404272195
  0
LINE
  8
_0-d_寸法3
  6
CONTINUOUS
 62
    7
 10
800.55338654962497
 20
305.88586876436227
 11
785.09857332899992
 21
310.02697348600259
  0
LINE
  8
_0-d_寸法3
  6
CONTINUOUS
 62
    7
 10
747.22005321629194
 20
305.88586876436227
 11
800.55338654962497
 21
305.88586876436227
  0
TEXT
  8
_0-d_寸法3
 62
    7
 10
761.88671988295846
 20
305.88586876436227
 40
24
 41
1
 50
0
  1
20
  0
LINE
  8
_0-d_寸法3
  6
CONTINUOUS
 62
    7
 10
686.95338655055639
 20
459.21920209769667
 11
686.95338655055639
 21
531.21920209769644
  0
LINE
  8
_0-d_寸法3
  6
CONTINUOUS
 62
    7
 10
686.95338655055639
 20
523.21920209769644
 11
702.40819977118144
 21
527.36030681933676
  0
LINE
  8
_0-d_寸法3
  6
CONTINUOUS
 62
    7
 10
686.95338655055639
 20
523.21920209769644
 11
702.40819977118144
 21
519.07809737605612
  0
LINE
  8
_0-d_寸法3
  6
CONTINUOUS
 62
    7
 10
733.35338655152054
 20
459.21920209769667
 11
733.35338655152054
 21
531.21920209769644
  0
LINE
  8
_0-d_寸法3
  6
CONTINUOUS
 62
    7
 10
733.35338655152054
 20
523.21920209769644
 11
717.89857333089549
 21
519.07809737605612
  0
LINE
  8
_0-d_寸法3
  6
CONTINUOUS
 62
    7
 10
733.35338655152054
 20
523.21920209769644
 11
717.89857333089549
 21
527.36030681933687
  0
LINE
  8
_0-d_寸法3
  6
CONTINUOUS
 62
    7
 10
686.95338655055639
 20
523.21920209769644
 11
733.35338655152054
 21
523.21920209769644
  0
TEXT
  8
_0-d_寸法3
 62
    7
 10
668.47950189512915
 20
499.21920209769644
 40
24
 41
1
 50
0
  1
(17.4)
  0
LINE
  8
_0-d_寸法3
  6
CONTINUOUS
 62
    7
 10
733.35338655152054
 20
523.21920209769644
 11
748.80819977214571
 21
527.36030681933664
  0
LINE
  8
_0-d_寸法3
  6
CONTINUOUS
 62
    7
 10
733.35338655152054
 20
523.21920209769644
 11
748.8081997721456
 21
519.07809737605601
  0
LINE
  8
_0-d_寸法3
  6
CONTINUOUS
 62
    7
 10
780.02005321818706
 20
459.21920209769667
 11
780.02005321818706
 21
531.21920209769644
  0
LINE
  8
_0-d_寸法3
  6
CONTINUOUS
 62
    7
 10
780.02005321818706
 20
523.21920209769644
 11
764.565239997562
 21
519.07809737605612
  0
LINE
  8
_0-d_寸法3
  6
CONTINUOUS
 62
    7
 10
780.02005321818706
 20
523.21920209769644
 11
764.565239997562
 21
527.36030681933687
  0
LINE
  8
_0-d_寸法3
  6
CONTINUOUS
 62
    7
 10
733.35338655152054
 20
523.21920209769644
 11
780.02005321818706
 21
523.21920209769644
  0
TEXT
  8
_0-d_寸法3
 62
    7
 10
710.5367440432301
 20
523.21920209769632
 40
24
 41
1
 50
0
  1
(17.4)
  0
LINE
  8
_0-d_寸法3
  6
CONTINUOUS
 62
    7
 10
448.55338654962543
 20
451.21920209769644
 11
448.55338654962543
 21
643.21919942834495
  0
LINE
  8
_0-d_寸法3
  6
CONTINUOUS
 62
    7
 10
448.55338654962543
 20
635.21919942834495
 11
464.00819977025049
 21
639.36030414998527
  0
LINE
  8
_0-d_寸法3
  6
CONTINUOUS
 62
    7
 10
448.55338654962543
 20
635.21919942834495
 11
464.00819977025049
 21
631.07809470670463
  0
LINE
  8
_0-d_寸法3
  6
CONTINUOUS
 62
    7
 10
832.55338654962532
 20
451.21920209769644
 11
832.55338654962532
 21
643.21919942834495
  0
LINE
  8
_0-d_寸法3
  6
CONTINUOUS
 62
    7
 10
832.55338654962532
 20
635.21919942834495
 11
817.09857332900026
 21
631.07809470670463
  0
LINE
  8
_0-d_寸法3
  6
CONTINUOUS
 62
    7
 10
832.55338654962532
 20
635.21919942834495
 11
817.09857332900026
 21
639.36030414998538
  0
LINE
  8
_0-d_寸法3
  6
CONTINUOUS
 62
    7
 10
448.55338654962543
 20
635.21919942834495
 11
832.55338654962532
 21
635.21919942834495
  0
TEXT
  8
_0-d_寸法3
 62
    7
 10
622.553386549626
 20
635.21919942834495
 40
24
 41
1
 50
0
  1
144
  0
LINE
  8
_0-d_寸法3
  6
CONTINUOUS
 62
    7
 10
516.28671987615701
 20
459.21920209769644
 11
516.28671987615701
 21
531.21920209769644
  0
LINE
  8
_0-d_寸法3
  6
CONTINUOUS
 62
    7
 10
516.28671987615701
 20
523.21920209769644
 11
500.83190665553184
 21
519.07809737605612
  0
LINE
  8
_0-d_寸法3
  6
CONTINUOUS
 62
    7
 10
516.28671987615701
 20
523.21920209769644
 11
500.83190665553195
 21
527.36030681933687
  0
LINE
  8
_0-d_寸法3
  6
CONTINUOUS
 62
    7
 10
532.55338655416779
 20
459.21920209769644
 11
532.55338655416779
 21
531.21920209769644
  0
LINE
  8
_0-d_寸法3
  6
CONTINUOUS
 62
    7
 10
482.62974572206406
 20
523.21920209769644
 11
532.55338655416779
 21
523.21920209769644
  0
TEXT
  8
_0-d_寸法3
 62
    7
 10
482.62974572206406
 20
499.21920209769644
 40
24
 41
1
 50
0
  1
(6)
  0
LINE
  8
_0-d_寸法3
  6
CONTINUOUS
 62
    7
 10
532.55338655416779
 20
523.21920209769644
 11
548.00819977479284
 21
527.36030681933676
  0
LINE
  8
_0-d_寸法3
  6
CONTINUOUS
 62
    7
 10
532.55338655416779
 20
523.21920209769644
 11
548.00819977479284
 21
519.07809737605612
  0
LINE
  8
_0-d_寸法3
  6
CONTINUOUS
 62
    7
 10
562.95338654828254
 20
459.21920209769644
 11
562.95338654828254
 21
531.21920209769644
  0
LINE
  8
_0-d_寸法3
  6
CONTINUOUS
 62
    7
 10
562.95338654828254
 20
523.21920209769644
 11
547.49857332765748
 21
519.07809737605612
  0
LINE
  8
_0-d_寸法3
  6
CONTINUOUS
 62
    7
 10
562.95338654828254
 20
523.21920209769644
 11
547.49857332765748
 21
527.36030681933687
  0
LINE
  8
_0-d_寸法3
  6
CONTINUOUS
 62
    7
 10
532.55338655416779
 20
523.21920209769644
 11
562.95338654828254
 21
523.21920209769644
  0
TEXT
  8
_0-d_寸法3
 62
    7
 10
517.72987226906537
 20
523.21920209769644
 40
24
 41
1
 50
0
  1
11.4
  0
LINE
  8
_0-d_寸法3
  6
CONTINUOUS
 62
    7
 10
448.55338654962543
 20
579.21919942834495
 11
464.00819977025049
 21
583.36030414998527
  0
LINE
  8
_0-d_寸法3
  6
CONTINUOUS
 62
    7
 10
448.55338654962543
 20
579.21919942834495
 11
464.00819977025049
 21
575.07809470670463
  0
LINE
  8
_0-d_寸法3
  6
CONTINUOUS
 62
    7
 10
480.55338654962543
 20
451.21920209769644
 11
480.55338654962554
 21
587.21919942834495
  0
LINE
  8
_0-d_寸法3
  6
CONTINUOUS
 62
    7
 10
480.55338654962554
 20
579.21919942834495
 11
465.09857332900037
 21
575.07809470670463
  0
LINE
  8
_0-d_寸法3
  6
CONTINUOUS
 62
    7
 10
480.55338654962554
 20
579.21919942834495
 11
465.09857332900049
 21
583.36030414998538
  0
LINE
  8
_0-d_寸法3
  6
CONTINUOUS
 62
    7
 10
448.55338654962543
 20
579.21919942834495
 11
480.55338654962554
 21
579.21919942834495
  0
TEXT
  8
_0-d_寸法3
 62
    7
 10
452.31002782304552
 20
579.21919942834495
 40
24
 41
1
 50
0
  1
12
  0
LINE
  8
_0-d_寸法3
  6
CONTINUOUS
 62
    7
 10
485.8867198820418
 20
451.21920209769644
 11
485.8867198820418
 21
587.21919942834495
  0
LINE
  8
_0-d_寸法3
  6
CONTINUOUS
 62
    7
 10
480.55338654962554
 20
579.21919942834495
 11
485.8867198820418
 21
579.21919942834495
  0
TEXT
  8
_0-d_寸法3
 62
    7
 10
490.70113893415657
 20
555.21919942834495
 40
24
 41
1
 50
0
  1
2
  0
LINE
  8
_0-d_寸法3
  6
CONTINUOUS
 62
    7
 10
485.8867198820418
 20
579.21919942834495
 11
501.34153310266697
 21
583.36030414998527
  0
LINE
  8
_0-d_寸法3
  6
CONTINUOUS
 62
    7
 10
485.8867198820418
 20
579.21919942834495
 11
501.34153310266697
 21
575.07809470670463
  0
LINE
  8
_0-d_寸法3
  6
CONTINUOUS
 62
    7
 10
795.22005321583333
 20
451.21920209769644
 11
795.22005321583356
 21
587.21919942834495
  0
LINE
  8
_0-d_寸法3
  6
CONTINUOUS
 62
    7
 10
795.22005321583356
 20
579.21919942834495
 11
779.7652399952085
 21
575.07809470670463
  0
LINE
  8
_0-d_寸法3
  6
CONTINUOUS
 62
    7
 10
795.22005321583356
 20
579.21919942834495
 11
779.7652399952085
 21
583.36030414998538
  0
LINE
  8
_0-d_寸法3
  6
CONTINUOUS
 62
    7
 10
485.8867198820418
 20
579.21919942834495
 11
795.22005321583356
 21
579.21919942834495
  0
TEXT
  8
_0-d_寸法3
 62
    7
 10
622.55338654962543
 20
579.21919942834495
 40
24
 41
1
 50
0
  1
116
  0
LINE
  8
_0-d_寸法3
  6
CONTINUOUS
 62
    7
 10
800.55338654962497
 20
451.21920209769644
 11
800.55338654962543
 21
587.21919942834495
  0
LINE
  8
_0-d_寸法3
  6
CONTINUOUS
 62
    7
 10
795.22005321583356
 20
579.21919942834495
 11
800.55338654962543
 21
579.21919942834495
  0
TEXT
  8
_0-d_寸法3
 62
    7
 10
778.63002782304557
 20
555.21919942834495
 40
24
 41
1
 50
0
  1
2
  0
LINE
  8
_0-d_寸法3
  6
CONTINUOUS
 62
    7
 10
800.55338654962543
 20
579.21919942834495
 11
816.00819977025049
 21
583.36030414998527
  0
LINE
  8
_0-d_寸法3
  6
CONTINUOUS
 62
    7
 10
800.55338654962543
 20
579.21919942834495
 11
816.00819977025049
 21
575.07809470670463
  0
LINE
  8
_0-d_寸法3
  6
CONTINUOUS
 62
    7
 10
832.55338654962532
 20
579.21919942834495
 11
817.09857332900026
 21
575.07809470670463
  0
LINE
  8
_0-d_寸法3
  6
CONTINUOUS
 62
    7
 10
832.55338654962532
 20
579.21919942834495
 11
817.09857332900026
 21
583.36030414998538
  0
LINE
  8
_0-d_寸法3
  6
CONTINUOUS
 62
    7
 10
800.55338654962543
 20
579.21919942834495
 11
832.55338654962532
 21
579.21919942834495
  0
TEXT
  8
_0-d_寸法3
 62
    7
 10
804.71299078600885
 20
579.21919942834495
 40
24
 41
1
 50
0
  1
12
  0
LINE
  8
_0-d_寸法3
  6
CONTINUOUS
 62
    7
 10
848.55338654962532
 20
443.2192020976965
 11
920.55338654962509
 21
443.21920209769667
  0
LINE
  8
_0-d_寸法3
  6
CONTINUOUS
 62
    7
 10
912.55338654962509
 20
443.21920209769667
 11
916.69449127126552
 21
427.76438887707161
  0
LINE
  8
_0-d_寸法3
  6
CONTINUOUS
 62
    7
 10
912.55338654962509
 20
443.21920209769667
 11
908.41228182798477
 21
427.76438887707155
  0
LINE
  8
_0-d_寸法3
  6
CONTINUOUS
 62
    7
 10
848.55338654962532
 20
421.88586876436329
 11
920.55338654962509
 21
421.88586876436341
  0
LINE
  8
_0-d_寸法3
  6
CONTINUOUS
 62
    7
 10
912.55338654962509
 20
421.88586876436341
 11
908.41228182798477
 21
437.34068198498852
  0
LINE
  8
_0-d_寸法3
  6
CONTINUOUS
 62
    7
 10
912.55338654962509
 20
421.88586876436341
 11
916.69449127126541
 21
437.34068198498852
  0
LINE
  8
_0-d_寸法3
  6
CONTINUOUS
 62
    7
 10
912.55338654962509
 20
443.21920209769667
 11
912.55338654962509
 21
421.88586876436341
  0
TEXT
  8
_0-d_寸法3
 62
    7
 10
912.55338654962509
 20
426.55253543103021
 40
24
 41
1
 50
90
  1
8
  0
LINE
  8
_0-d_寸法3
  6
CONTINUOUS
 62
    7
 10
461.88671988295857
 20
176.55253543102981
 11
360.55338654962543
 21
176.55253543103015
  0
LINE
  8
_0-d_寸法3
  6
CONTINUOUS
 62
    7
 10
368.55338654962543
 20
176.55253543103015
 11
364.412281827985
 21
192.00734865165532
  0
LINE
  8
_0-d_寸法3
  6
CONTINUOUS
 62
    7
 10
368.55338654962543
 20
176.55253543103015
 11
372.69449127126575
 21
192.00734865165521
  0
LINE
  8
_0-d_寸法3
  6
CONTINUOUS
 62
    7
 10
432.55338654962543
 20
443.2192020976965
 11
360.55338654962543
 21
443.21920209769667
  0
LINE
  8
_0-d_寸法3
  6
CONTINUOUS
 62
    7
 10
368.55338654962543
 20
443.21920209769667
 11
372.69449127126575
 21
427.76438887707155
  0
LINE
  8
_0-d_寸法3
  6
CONTINUOUS
 62
    7
 10
368.55338654962543
 20
443.21920209769667
 11
364.412281827985
 21
427.76438887707155
  0
LINE
  8
_0-d_寸法3
  6
CONTINUOUS
 62
    7
 10
368.55338654962543
 20
176.55253543103015
 11
368.55338654962543
 21
443.21920209769667
  0
TEXT
  8
_0-d_寸法3
 62
    7
 10
368.55338654962532
 20
267.88586876436341
 40
24
 41
1
 50
89.999999999999929
  1
80～100
  0
LINE
  8
_0-b_細線3
  6
CONTINUOUS
 62
    7
 10
737.88671988537772
 20
394.68586876436314
 11
775.48671988595004
 21
394.68586876436314
  0
LINE
  8
_0-b_細線3
  6
CONTINUOUS
 62
    7
 10
737.88671988771694
 20
426.68586876436314
 11
775.48671988828926
 21
426.68586876436314
  0
LINE
  8
_0-b_細線3
  6
CONTINUOUS
 62
    7
 10
691.48671988673595
 20
426.68586876436314
 11
728.82005322105022
 21
426.68586876436314
  0
LINE
  8
_0-b_細線3
  6
CONTINUOUS
 62
    7
 10
691.48671988439673
 20
394.68586876436314
 11
728.820053218711
 21
394.68586876436314
  0
LINE
  8
_0-b_細線3
  6
CONTINUOUS
 62
    7
 10
598.6867198851279
 20
426.68586876436314
 11
636.02005321913748
 21
426.68586876436314
  0
LINE
  8
_0-b_細線3
  6
CONTINUOUS
 62
    7
 10
598.6867198851279
 20
394.68586876436314
 11
636.02005321679928
 21
394.68586876436314
  0
LINE
  8
_0-b_細線3
  6
CONTINUOUS
 62
    7
 10
552.2867198874045
 20
426.68586876436314
 11
589.62005321846175
 21
426.68586876436314
  0
LINE
  8
_0-b_細線3
  6
CONTINUOUS
 62
    7
 10
552.28671988506528
 20
394.68586876436314
 11
589.62005321846175
 21
394.68586876436314
  0
LINE
  8
_0-b_細線3
  6
CONTINUOUS
 62
    7
 10
505.6200532129393
 20
394.68586876436314
 11
543.22005321839958
 21
394.68586876436314
  0
LINE
  8
_0-b_細線3
  6
CONTINUOUS
 62
    7
 10
505.62005321527977
 20
426.68586876436314
 11
543.22005322073767
 21
426.68586876436314
  0
LINE
  8
_0-b_細線3
  6
CONTINUOUS
 62
    7
 10
645.0867198858042
 20
426.68586876436314
 11
657.48671988491208
 21
426.68586876436314
  0
LINE
  8
_0-b_細線3
  6
CONTINUOUS
 62
    7
 10
670.02005321824538
 20
426.68586876436314
 11
682.42005322006901
 21
426.68586876436314
  0
LINE
  8
_0-b_細線3
  6
CONTINUOUS
 62
    7
 10
670.02005321824538
 20
394.68586876436314
 11
682.42005321772979
 21
394.68586876436314
  0
LINE
  8
_0-a_極細3
  6
CENTER1
 62
    7
 10
800.55338654962532
 20
410.68586876436314
 11
480.55338654962543
 21
410.68586876436314
  0
LINE
  8
_0-b_細線3
  6
CONTINUOUS
 62
    7
 10
670.02005321824538
 20
440.01920209769162
 11
670.02005321824538
 21
389.35253543102419
  0
LINE
  8
_0-b_細線3
  6
CONTINUOUS
 62
    7
 10
657.48671988491117
 20
389.35253543102419
 11
657.48671988491117
 21
440.01920209769162
  0
LINE
  8
_0-b_細線3
  6
CONTINUOUS
 62
    7
 10
670.02005321824538
 20
389.35253543102419
 11
657.48671988491117
 21
389.35253543102419
  0
LINE
  8
_0-b_細線3
  6
CONTINUOUS
 62
    7
 10
657.48671988491117
 20
440.01920209769162
 11
670.02005321824538
 21
440.01920209769162
  0
LINE
  8
_0-b_細線3
  6
DASHED2
 62
    7
 10
657.48671988491117
 20
397.35253543102419
 11
670.02005321824538
 21
397.35253543102419
  0
LINE
  8
_0-b_細線3
  6
DASHED2
 62
    7
 10
657.48671988491117
 20
433.35253543102493
 11
670.02005321824538
 21
433.35253543102493
  0
ARC
  8
_0-b_細線3
  6
CONTINUOUS
 62
    7
 10
488.55338654870968
 20
435.21920209769576
 40
2.6666666666666674
 50
89.999999999999915
 51
179.99999999998533
  0
ARC
  8
_0-b_細線3
  6
CONTINUOUS
 62
    7
 10
489.80125105891523
 20
440.5525354310297
 40
2.6666666666666674
 50
269.99999999999977
 51
330.00000000000409
  0
ARC
  8
_0-b_細線3
  6
CONTINUOUS
 62
    7
 10
494.42005321243289
 20
437.88586876436324
 40
2.6666666666666674
 50
89.999999999999915
 51
150.00000000000648
  0
LINE
  8
_0-b_細線3
  6
CONTINUOUS
 62
    7
 10
488.55338654870968
 20
437.88586876436324
 11
489.80125105891523
 21
437.88586876436324
  0
ARC
  8
_0-b_細線3
  6
CONTINUOUS
 62
    7
 10
513.62005320949049
 20
435.21920209769576
 40
2.6666666666666674
 50
0
 51
89.999999999999915
  0
ARC
  8
_0-b_細線3
  6
CONTINUOUS
 62
    7
 10
512.37218869928358
 20
440.5525354310297
 40
2.6666666666666674
 50
209.99999999999713
 51
269.99999999999977
  0
ARC
  8
_0-b_細線3
  6
CONTINUOUS
 62
    7
 10
507.75338654576626
 20
437.88586876436324
 40
2.6666666666666674
 50
29.999999999994618
 51
89.999999999976794
  0
LINE
  8
_0-b_細線3
  6
CONTINUOUS
 62
    7
 10
513.62005320949049
 20
437.88586876436324
 11
512.37218869928358
 21
437.88586876436324
  0
ARC
  8
_0-b_細線3
  6
CONTINUOUS
 62
    7
 10
487.22005321537654
 20
431.48586876436286
 40
1.3333333333333337
 50
179.99999999996825
 51
269.99999999999977
  0
LINE
  8
_0-b_細線3
  6
CONTINUOUS
 62
    7
 10
485.8867198820418
 20
435.21920209769644
 11
485.8867198820418
 21
431.4858687643636
  0
ARC
  8
_0-b_細線3
  6
CONTINUOUS
 62
    7
 10
514.95338654282375
 20
431.48586876436286
 40
1.3333333333333337
 50
269.99999999999977
 51
359.99999999999966
  0
LINE
  8
_0-b_細線3
  6
CONTINUOUS
 62
    7
 10
516.28671987615701
 20
435.21920209769576
 11
516.28671987615701
 21
431.48586876436286
  0
ARC
  8
_0-b_細線3
  6
CONTINUOUS
 62
    7
 10
493.8867198820418
 20
427.48586876436286
 40
2.6666666666666674
 50
0
 51
89.999999999999915
  0
LINE
  8
_0-b_細線3
  6
CONTINUOUS
 62
    7
 10
493.8867198820418
 20
430.15253543102966
 11
487.22005321537654
 21
430.15253543102966
  0
ARC
  8
_0-b_細線3
  6
CONTINUOUS
 62
    7
 10
508.28671988204326
 20
427.4858687643636
 40
2.6666666666666674
 50
89.999999999999915
 51
179.99999999999983
  0
LINE
  8
_0-b_細線3
  6
CONTINUOUS
 62
    7
 10
508.28671987615701
 20
430.15253543102966
 11
514.95338654282375
 21
430.15253543102966
  0
LINE
  8
_0-b_細線3
  6
CONTINUOUS
 62
    7
 10
507.75338654576626
 20
440.5525354310297
 11
494.42005321243289
 21
440.5525354310297
  0
LINE
  8
_0-b_細線3
  6
CONTINUOUS
 62
    7
 10
496.55338654576656
 20
387.21920209769576
 11
496.55338654870968
 21
427.48586876436286
  0
LINE
  8
_0-b_細線3
  6
CONTINUOUS
 62
    7
 10
505.62005321243225
 20
387.21920209769621
 11
505.62005321537674
 21
427.4858687643636
  0
LINE
  8
_0-b_細線3
  6
CONTINUOUS
 62
    7
 10
505.62005321243225
 20
387.21920209769621
 11
496.55338654576656
 21
387.21920209769576
  0
LINE
  8
_0-b_細線3
  6
CONTINUOUS
 62
    7
 10
493.88671987910004
 20
410.68586876436314
 11
485.87467721243468
 21
410.68586876436314
  0
LINE
  8
_0-b_細線3
  6
CONTINUOUS
 62
    7
 10
493.88671987910004
 20
401.35253543103101
 11
485.87464521243476
 21
401.35253543103101
  0
ARC
  8
_0-b_細線3
  6
CONTINUOUS
 62
    7
 10
485.87464521243476
 20
401.88586876436386
 40
0.5333333333333335
 50
179.99999999999983
 51
269.99999999999977
  0
ARC
  8
_0-b_細線3
  6
CONTINUOUS
 62
    7
 10
506.02925854576699
 20
406.01881276436472
 40
20.687882666666667
 50
166.96197800000419
 51
193.03567000000047
  0
ARC
  8
_0-b_細線3
  6
CONTINUOUS
 62
    7
 10
485.87464521243476
 20
419.48586876436468
 40
0.5333333333333335
 50
89.999999999999915
 51
179.99999999999983
  0
ARC
  8
_0-b_細線3
  6
CONTINUOUS
 62
    7
 10
506.02925854576699
 20
415.35291943103005
 40
20.687882666666667
 50
166.96432999999917
 51
193.03802199999913
  0
LINE
  8
_0-b_細線3
  6
CONTINUOUS
 62
    7
 10
493.88671987910004
 20
420.01920209769753
 11
485.87464521243476
 21
420.01920209769753
  0
LINE
  8
_0-b_細線3
  6
CONTINUOUS
 62
    7
 10
485.34131187910066
 20
401.88586876436386
 11
485.34131187910066
 21
419.48586876436468
  0
ARC
  8
_0-b_細線3
  6
CONTINUOUS
 62
    7
 10
494.42005321243528
 20
392.55253543103015
 40
0.5333333333333335
 50
179.99999999999983
 51
269.99999999999977
  0
LINE
  8
_0-b_細線3
  6
CONTINUOUS
 62
    7
 10
496.55338654429579
 20
392.01920209769639
 11
494.42005321243528
 21
392.01920209769639
  0
ARC
  8
_0-b_細線3
  6
CONTINUOUS
 62
    7
 10
494.42005321243528
 20
428.8192020976951
 40
0.5333333333333335
 50
89.999999999999915
 51
179.99999999999983
  0
LINE
  8
_0-b_細線3
  6
CONTINUOUS
 62
    7
 10
495.7911007963196
 20
429.35253543102976
 11
494.42005321243528
 21
429.35253543102976
  0
LINE
  8
_0-b_細線3
  6
CONTINUOUS
 62
    7
 10
493.88671987910004
 20
409.35253543103033
 11
493.88671987910004
 21
392.55253543103015
  0
LINE
  8
_0-b_細線3
  6
CONTINUOUS
 62
    7
 10
493.88671987910004
 20
428.8192020976951
 11
493.88671987910004
 21
409.35253543103033
  0
LINE
  8
_0-b_細線3
  6
CONTINUOUS
 62
    7
 10
787.2200532201507
 20
410.68586876436314
 11
795.23209588681607
 21
410.68586876436314
  0
LINE
  8
_0-b_細線3
  6
CONTINUOUS
 62
    7
 10
787.2200532201507
 20
401.35253543103101
 11
795.23212788681599
 21
401.35253543103101
  0
ARC
  8
_0-b_細線3
  6
CONTINUOUS
 62
    7
 10
795.23212788681599
 20
401.88586876436386
 40
0.5333333333333335
 50
269.99999999999977
 51
359.99999999999966
  0
ARC
  8
_0-b_細線3
  6
CONTINUOUS
 62
    7
 10
775.07751455348375
 20
406.01881276436472
 40
20.687882666666667
 50
346.96432999999888
 51
13.038021999995388
  0
ARC
  8
_0-b_細線3
  6
CONTINUOUS
 62
    7
 10
795.23212788681599
 20
419.48586876436468
 40
0.5333333333333335
 50
0
 51
89.999999999999915
  0
ARC
  8
_0-b_細線3
  6
CONTINUOUS
 62
    7
 10
775.07751455348375
 20
415.35291943103005
 40
20.687882666666667
 50
346.96197800000022
 51
13.035670000000389
  0
LINE
  8
_0-b_細線3
  6
CONTINUOUS
 62
    7
 10
787.2200532201507
 20
420.01920209769753
 11
795.23212788681599
 21
420.01920209769753
  0
LINE
  8
_0-b_細線3
  6
CONTINUOUS
 62
    7
 10
795.76546122014997
 20
401.88586876436386
 11
795.76546122014997
 21
419.48586876436468
  0
ARC
  8
_0-b_細線3
  6
CONTINUOUS
 62
    7
 10
786.68671988681535
 20
392.55253543103015
 40
0.5333333333333335
 50
269.99999999999977
 51
359.99999999999966
  0
LINE
  8
_0-b_細線3
  6
CONTINUOUS
 62
    7
 10
784.55338655495507
 20
392.01920209769639
 11
786.68671988681535
 21
392.01920209769639
  0
ARC
  8
_0-b_細線3
  6
CONTINUOUS
 62
    7
 10
786.68671988681535
 20
428.8192020976951
 40
0.5333333333333335
 50
0
 51
89.999999999999915
  0
LINE
  8
_0-b_細線3
  6
CONTINUOUS
 62
    7
 10
785.31567230293103
 20
429.35253543102976
 11
786.68671988681535
 21
429.35253543102976
  0
LINE
  8
_0-b_細線3
  6
CONTINUOUS
 62
    7
 10
787.2200532201507
 20
409.35253543103033
 11
787.2200532201507
 21
392.55253543103015
  0
LINE
  8
_0-b_細線3
  6
CONTINUOUS
 62
    7
 10
787.2200532201507
 20
428.8192020976951
 11
787.2200532201507
 21
409.35253543103033
  0
LINE
  8
_0-1_計細線
  6
CONTINUOUS
 62
    3
 10
350.45451693352993
 20
1027
 11
350.45451693352993
 21
1171
  0
LINE
  8
_0-1_計細線
  6
CONTINUOUS
 62
    3
 10
350.45451693352993
 20
1171
 11
1344.4545169335299
 21
1171
  0
LINE
  8
_0-1_計細線
  6
CONTINUOUS
 62
    3
 10
1344.4545169335299
 20
1171
 11
1344.4545169335299
 21
1027
  0
LINE
  8
_0-1_計細線
  6
CONTINUOUS
 62
    3
 10
1344.4545169335299
 20
1027
 11
350.45451693352993
 21
1027
  0
LINE
  8
_0-0_計極細
  6
CENTER1
 62
    2
 10
338.1545169335302
 20
1099
 11
1366.4045169335307
 21
1099
  0
ARC
  8
_0-0_計極細
  6
CONTINUOUS
 62
    2
 10
1138.0324850510081
 20
1127.9999999999138
 40
54.312365187078854
 50
327.72737804884275
 51
32.272621951156516
  0
ARC
  8
_0-0_計極細
  6
CONTINUOUS
 62
    2
 10
1229.87654881606
 20
1070.00000000009
 40
54.312365187078854
 50
147.72737804884292
 51
212.27262195115645
  0
LINE
  8
_0-1_計細線
  6
CONTINUOUS
 62
    3
 10
363.95451693353266
 20
1145.5999999998271
 11
363.95451693353266
 21
1156.9999999998277
  0
LINE
  8
_0-1_計細線
  6
CONTINUOUS
 62
    3
 10
363.95451693353266
 20
1156.9999999998277
 11
1183.9545169335327
 21
1156.9999999998277
  0
LINE
  8
_0-0_計極細
  6
CONTINUOUS
 62
    2
 10
363.95451693353266
 20
1153.7999999998274
 11
1185.8257169172368
 21
1153.7999999998274
  0
LINE
  8
_0-0_計極細
  6
CONTINUOUS
 62
    2
 10
363.95451693353266
 20
1148.7999999998274
 11
1188.2041205856224
 21
1148.7999999998274
  0
LINE
  8
_0-1_計細線
  6
CONTINUOUS
 62
    3
 10
363.95451693353266
 20
1145.5999999998271
 11
1189.4141258599359
 21
1145.5999999998271
  0
LINE
  8
_0-1_計細線
  6
CONTINUOUS
 62
    3
 10
363.95451693353266
 20
1128.0999999996129
 11
363.95451693353266
 21
1139.4999999996135
  0
LINE
  8
_0-1_計細線
  6
CONTINUOUS
 62
    3
 10
363.95451693353266
 20
1139.4999999996135
 11
1191.1133951055797
 21
1139.4999999996135
  0
LINE
  8
_0-0_計極細
  6
CONTINUOUS
 62
    2
 10
363.95451693353266
 20
1136.2999999996132
 11
1191.7069017895217
 21
1136.2999999996132
  0
LINE
  8
_0-0_計極細
  6
CONTINUOUS
 62
    2
 10
363.95451693353266
 20
1131.2999999996132
 11
1192.2445041262702
 21
1131.2999999996132
  0
LINE
  8
_0-1_計細線
  6
CONTINUOUS
 62
    3
 10
363.95451693353266
 20
1128.0999999996129
 11
1192.3447581779421
 21
1128.0999999996129
  0
LINE
  8
_0-1_計細線
  6
CONTINUOUS
 62
    3
 10
363.95451693353266
 20
1075.9000000001593
 11
363.95451693353266
 21
1087.3000000001598
  0
LINE
  8
_0-1_計細線
  6
CONTINUOUS
 62
    3
 10
363.95451693353266
 20
1087.3000000001598
 11
1178.3931241804332
 21
1087.3000000001598
  0
LINE
  8
_0-0_計極細
  6
CONTINUOUS
 62
    2
 10
363.95451693353266
 20
1084.1000000001595
 11
1177.4263532757884
 21
1084.1000000001595
  0
LINE
  8
_0-0_計極細
  6
CONTINUOUS
 62
    2
 10
363.95451693353266
 20
1079.1000000001595
 11
1176.3319598064002
 21
1079.1000000001595
  0
LINE
  8
_0-1_計細線
  6
CONTINUOUS
 62
    3
 10
363.95451693353266
 20
1075.9000000001593
 11
1175.8855957571088
 21
1075.9000000001593
  0
LINE
  8
_0-1_計細線
  6
CONTINUOUS
 62
    3
 10
363.95451693353266
 20
1058.4999999994961
 11
363.95451693353266
 21
1069.8999999994967
  0
LINE
  8
_0-1_計細線
  6
CONTINUOUS
 62
    3
 10
363.95451693353266
 20
1069.8999999994967
 11
1175.5642756891273
 21
1069.8999999994967
  0
LINE
  8
_0-0_計極細
  6
CONTINUOUS
 62
    2
 10
363.95451693353266
 20
1066.6999999994964
 11
1175.6645297408515
 21
1066.6999999994964
  0
LINE
  8
_0-0_計極細
  6
CONTINUOUS
 62
    2
 10
363.95451693353266
 20
1061.6999999994964
 11
1176.2021320776842
 21
1061.6999999994964
  0
LINE
  8
_0-1_計細線
  6
CONTINUOUS
 62
    3
 10
363.95451693353266
 20
1058.4999999994961
 11
1176.7956387616816
 21
1058.4999999994961
  0
LINE
  8
_0-1_計細線
  6
CONTINUOUS
 62
    3
 10
363.95451693353266
 20
1040.9999999974489
 11
363.95451693353266
 21
1052.3999999974494
  0
LINE
  8
_0-1_計細線
  6
CONTINUOUS
 62
    3
 10
363.95451693353266
 20
1040.9999999974489
 11
1183.9545169335327
 21
1040.9999999974489
  0
LINE
  8
_0-1_計細線
  6
CONTINUOUS
 62
    3
 10
363.95451693353266
 20
1052.3999999974494
 11
1178.4949080080667
 21
1052.3999999974494
  0
LINE
  8
_0-0_計極細
  6
CONTINUOUS
 62
    2
 10
363.95451693353266
 20
1049.1999999974491
 11
1179.7049132825762
 21
1049.1999999974491
  0
LINE
  8
_0-0_計極細
  6
CONTINUOUS
 62
    2
 10
363.95451693353266
 20
1044.1999999974491
 11
1182.0833169513041
 21
1044.1999999974491
  0
LINE
  8
_0-5_寸法線
  6
CONTINUOUS
 62
    7
 10
350.45451693352993
 20
1187
 11
350.45451693353039
 21
1370.9999999999998
  0
LINE
  8
_0-5_寸法線
  6
CONTINUOUS
 62
    7
 10
350.45451693353039
 20
1362.9999999999998
 11
365.90933015415544
 21
1367.1411047216402
  0
LINE
  8
_0-5_寸法線
  6
CONTINUOUS
 62
    7
 10
350.45451693353039
 20
1362.9999999999998
 11
365.90933015415544
 21
1358.8588952783593
  0
LINE
  8
_0-5_寸法線
  6
CONTINUOUS
 62
    7
 10
1344.4545169335299
 20
1187
 11
1344.4545169335304
 21
1370.9999999999998
  0
LINE
  8
_0-5_寸法線
  6
CONTINUOUS
 62
    7
 10
1344.4545169335304
 20
1362.9999999999998
 11
1328.9997037129053
 21
1358.8588952783596
  0
LINE
  8
_0-5_寸法線
  6
CONTINUOUS
 62
    7
 10
1344.4545169335304
 20
1362.9999999999998
 11
1328.9997037129053
 21
1367.1411047216402
  0
LINE
  8
_0-5_寸法線
  6
CONTINUOUS
 62
    7
 10
350.45451693353039
 20
1362.9999999999998
 11
1344.4545169335304
 21
1362.9999999999998
  0
TEXT
  8
_0-5_寸法線
 62
    7
 10
835.45451693353039
 20
1362.9999999999998
 40
24
 41
1
 50
0
  1
Ｌ
  0
LINE
  8
_0-5_寸法線
  6
CONTINUOUS
 62
    7
 10
350.4545169335297
 20
1011
 11
350.45451693352891
 21
938.99999999999989
  0
LINE
  8
_0-5_寸法線
  6
CONTINUOUS
 62
    7
 10
350.45451693352902
 20
946.99999999999989
 11
365.90933015415408
 21
951.1411047216402
  0
LINE
  8
_0-5_寸法線
  6
CONTINUOUS
 62
    7
 10
350.45451693352902
 20
946.99999999999989
 11
365.90933015415408
 21
942.85889527835957
  0
LINE
  8
_0-5_寸法線
  6
CONTINUOUS
 62
    7
 10
1264.4545169335297
 20
1011
 11
1264.454516933529
 21
938.99999999999989
  0
LINE
  8
_0-5_寸法線
  6
CONTINUOUS
 62
    7
 10
1264.454516933529
 20
946.99999999999989
 11
1248.999703712904
 21
942.85889527835957
  0
LINE
  8
_0-5_寸法線
  6
CONTINUOUS
 62
    7
 10
1264.454516933529
 20
946.99999999999989
 11
1248.999703712904
 21
951.14110472164032
  0
LINE
  8
_0-5_寸法線
  6
CONTINUOUS
 62
    7
 10
350.45451693352902
 20
946.99999999999989
 11
1264.454516933529
 21
946.99999999999989
  0
TEXT
  8
_0-5_寸法線
 62
    7
 10
795.45451693352902
 20
946.99999999999989
 40
24
 41
1
 50
0
  1
Ｃ
  0
LINE
  8
_0-5_寸法線
  6
CONTINUOUS
 62
    7
 10
1264.454516933529
 20
946.99999999999989
 11
1279.9093301541541
 21
951.14110472164009
  0
LINE
  8
_0-5_寸法線
  6
CONTINUOUS
 62
    7
 10
1264.454516933529
 20
946.99999999999989
 11
1279.9093301541541
 21
942.85889527835946
  0
LINE
  8
_0-5_寸法線
  6
CONTINUOUS
 62
    7
 10
1344.4545169335297
 20
1011
 11
1344.454516933529
 21
938.99999999999989
  0
LINE
  8
_0-5_寸法線
  6
CONTINUOUS
 62
    7
 10
1344.454516933529
 20
946.99999999999989
 11
1328.999703712904
 21
942.85889527835957
  0
LINE
  8
_0-5_寸法線
  6
CONTINUOUS
 62
    7
 10
1344.454516933529
 20
946.99999999999989
 11
1328.999703712904
 21
951.14110472164032
  0
LINE
  8
_0-5_寸法線
  6
CONTINUOUS
 62
    7
 10
1264.454516933529
 20
946.99999999999989
 11
1344.454516933529
 21
946.99999999999989
  0
TEXT
  8
_0-5_寸法線
 62
    7
 10
1292.4545169335295
 20
946.99999999999989
 40
24
 41
1
 50
0
  1
80
  0
LINE
  8
_0-0_計極細
  6
CENTER1
 62
    2
 10
370.95451693353266
 20
1162.6507194262958
 11
370.95451693353266
 21
1034.9736898045371
  0
LINE
  8
_0-0_計極細
  6
CONTINUOUS
 62
    2
 10
364.45451693353539
 20
1087.3000000001598
 11
364.45451693353539
 21
1093.2999999999602
  0
LINE
  8
_0-0_計極細
  6
CONTINUOUS
 62
    2
 10
377.45451693353539
 20
1087.3000000001598
 11
377.45451693353539
 21
1093.2999999999602
  0
LINE
  8
_0-0_計極細
  6
CONTINUOUS
 62
    2
 10
364.45451693353539
 20
1104.6999999999607
 11
364.45451693353539
 21
1110.7000000021676
  0
LINE
  8
_0-0_計極細
  6
CONTINUOUS
 62
    2
 10
377.45451693353539
 20
1104.6999999999607
 11
377.45451693353539
 21
1110.7000000021676
  0
LINE
  8
_0-0_計極細
  6
CONTINUOUS
 62
    2
 10
377.45451693353539
 20
1122.1000000021681
 11
377.45451693353539
 21
1128.0999999996129
  0
LINE
  8
_0-0_計極細
  6
CONTINUOUS
 62
    2
 10
364.45451693353539
 20
1122.1000000021681
 11
364.45451693353539
 21
1128.0999999996129
  0
LINE
  8
_0-0_計極細
  6
CONTINUOUS
 62
    2
 10
364.45451693353539
 20
1069.8999999994967
 11
364.45451693353539
 21
1075.9000000001593
  0
LINE
  8
_0-0_計極細
  6
CONTINUOUS
 62
    2
 10
377.45451693353539
 20
1069.8999999994967
 11
377.45451693353539
 21
1075.9000000001593
  0
LINE
  8
_0-0_計極細
  6
CONTINUOUS
 62
    2
 10
364.45451693353539
 20
1139.4999999996135
 11
364.45451693353539
 21
1145.5999999998271
  0
LINE
  8
_0-0_計極細
  6
CONTINUOUS
 62
    2
 10
377.45451693353539
 20
1139.4999999996135
 11
377.45451693353539
 21
1145.5999999998271
  0
LINE
  8
_0-0_計極細
  6
CONTINUOUS
 62
    2
 10
377.45451693353539
 20
1052.3999999974494
 11
377.45451693353539
 21
1058.4999999994961
  0
LINE
  8
_0-0_計極細
  6
CONTINUOUS
 62
    2
 10
364.45451693353539
 20
1052.3999999974494
 11
364.45451693353539
 21
1058.4999999994961
  0
LINE
  8
_0-0_計極細
  6
CENTER1
 62
    2
 10
467.95451693353266
 20
1162.6507194262958
 11
467.95451693353266
 21
1036.5000000018335
  0
LINE
  8
_0-0_計極細
  6
CONTINUOUS
 62
    2
 10
474.45451693353539
 20
1087.3000000001598
 11
474.45451693353539
 21
1093.2999999999602
  0
LINE
  8
_0-0_計極細
  6
CONTINUOUS
 62
    2
 10
474.45451693353539
 20
1087.3000000001598
 11
474.45451693353539
 21
1093.2999999999602
  0
LINE
  8
_0-0_計極細
  6
CONTINUOUS
 62
    2
 10
461.45451693353539
 20
1087.3000000001598
 11
461.45451693353539
 21
1093.2999999999602
  0
LINE
  8
_0-0_計極細
  6
CONTINUOUS
 62
    2
 10
461.45451693353539
 20
1087.3000000001598
 11
461.45451693353539
 21
1093.2999999999602
  0
LINE
  8
_0-0_計極細
  6
CONTINUOUS
 62
    2
 10
474.45451693353539
 20
1122.1000000021681
 11
474.45451693353539
 21
1128.0999999996129
  0
LINE
  8
_0-0_計極細
  6
CONTINUOUS
 62
    2
 10
461.45451693353539
 20
1122.1000000021681
 11
461.45451693353539
 21
1128.0999999996129
  0
LINE
  8
_0-0_計極細
  6
CONTINUOUS
 62
    2
 10
461.45451693353539
 20
1069.8999999994967
 11
461.45451693353539
 21
1075.9000000001593
  0
LINE
  8
_0-0_計極細
  6
CONTINUOUS
 62
    2
 10
474.45451693353539
 20
1069.8999999994967
 11
474.45451693353539
 21
1075.9000000001593
  0
LINE
  8
_0-0_計極細
  6
CONTINUOUS
 62
    2
 10
474.45451693353539
 20
1139.4999999996135
 11
474.45451693353539
 21
1145.5999999998271
  0
LINE
  8
_0-0_計極細
  6
CONTINUOUS
 62
    2
 10
474.45451693353539
 20
1139.4999999996135
 11
474.45451693353539
 21
1145.5999999998271
  0
LINE
  8
_0-0_計極細
  6
CONTINUOUS
 62
    2
 10
461.45451693353539
 20
1139.4999999996135
 11
461.45451693353539
 21
1145.5999999998271
  0
LINE
  8
_0-0_計極細
  6
CONTINUOUS
 62
    2
 10
461.45451693353539
 20
1139.4999999996135
 11
461.45451693353539
 21
1145.5999999998271
  0
LINE
  8
_0-0_計極細
  6
CONTINUOUS
 62
    2
 10
474.45451693353539
 20
1052.3999999974494
 11
474.45451693353539
 21
1058.4999999994961
  0
LINE
  8
_0-0_計極細
  6
CONTINUOUS
 62
    2
 10
461.45451693353539
 20
1052.3999999974494
 11
461.45451693353539
 21
1058.4999999994961
  0
LINE
  8
_0-0_計極細
  6
CENTER1
 62
    2
 10
564.95451693353266
 20
1162.6507194262958
 11
564.95451693353266
 21
1036.5000000018335
  0
LINE
  8
_0-0_計極細
  6
CONTINUOUS
 62
    2
 10
558.45451693353539
 20
1087.3000000001598
 11
558.45451693353539
 21
1093.2999999999602
  0
LINE
  8
_0-0_計極細
  6
CONTINUOUS
 62
    2
 10
571.45451693353539
 20
1087.3000000001598
 11
571.45451693353539
 21
1093.2999999999602
  0
LINE
  8
_0-0_計極細
  6
CONTINUOUS
 62
    2
 10
558.45451693353539
 20
1104.6999999999607
 11
558.45451693353539
 21
1110.7000000021676
  0
LINE
  8
_0-0_計極細
  6
CONTINUOUS
 62
    2
 10
571.45451693353539
 20
1104.6999999999607
 11
571.45451693353539
 21
1110.7000000021676
  0
LINE
  8
_0-0_計極細
  6
CONTINUOUS
 62
    2
 10
571.45451693353539
 20
1122.1000000021681
 11
571.45451693353539
 21
1128.0999999996129
  0
LINE
  8
_0-0_計極細
  6
CONTINUOUS
 62
    2
 10
558.45451693353539
 20
1122.1000000021681
 11
558.45451693353539
 21
1128.0999999996129
  0
LINE
  8
_0-0_計極細
  6
CONTINUOUS
 62
    2
 10
558.45451693353539
 20
1069.8999999994967
 11
558.45451693353539
 21
1075.9000000001593
  0
LINE
  8
_0-0_計極細
  6
CONTINUOUS
 62
    2
 10
571.45451693353539
 20
1069.8999999994967
 11
571.45451693353539
 21
1075.9000000001593
  0
LINE
  8
_0-0_計極細
  6
CONTINUOUS
 62
    2
 10
558.45451693353539
 20
1139.4999999996135
 11
558.45451693353539
 21
1145.5999999998271
  0
LINE
  8
_0-0_計極細
  6
CONTINUOUS
 62
    2
 10
571.45451693353539
 20
1139.4999999996135
 11
571.45451693353539
 21
1145.5999999998271
  0
LINE
  8
_0-0_計極細
  6
CONTINUOUS
 62
    2
 10
571.45451693353539
 20
1052.3999999974494
 11
571.45451693353539
 21
1058.4999999994961
  0
LINE
  8
_0-0_計極細
  6
CONTINUOUS
 62
    2
 10
558.45451693353539
 20
1052.3999999974494
 11
558.45451693353539
 21
1058.4999999994961
  0
LINE
  8
_0-0_計極細
  6
CENTER1
 62
    2
 10
661.95451693353266
 20
1162.6507194262958
 11
661.95451693353266
 21
1036.5000000018335
  0
LINE
  8
_0-0_計極細
  6
CONTINUOUS
 62
    2
 10
655.45451693353539
 20
1087.3000000001598
 11
655.45451693353539
 21
1093.2999999999602
  0
LINE
  8
_0-0_計極細
  6
CONTINUOUS
 62
    2
 10
668.45451693353539
 20
1087.3000000001598
 11
668.45451693353539
 21
1093.2999999999602
  0
LINE
  8
_0-0_計極細
  6
CONTINUOUS
 62
    2
 10
655.45451693353539
 20
1104.6999999999607
 11
655.45451693353539
 21
1110.7000000021676
  0
LINE
  8
_0-0_計極細
  6
CONTINUOUS
 62
    2
 10
668.45451693353539
 20
1104.6999999999607
 11
668.45451693353539
 21
1110.7000000021676
  0
LINE
  8
_0-0_計極細
  6
CONTINUOUS
 62
    2
 10
668.45451693353539
 20
1122.1000000021681
 11
668.45451693353539
 21
1128.0999999996129
  0
LINE
  8
_0-0_計極細
  6
CONTINUOUS
 62
    2
 10
655.45451693353539
 20
1122.1000000021681
 11
655.45451693353539
 21
1128.0999999996129
  0
LINE
  8
_0-0_計極細
  6
CONTINUOUS
 62
    2
 10
655.45451693353539
 20
1069.8999999994967
 11
655.45451693353539
 21
1075.9000000001593
  0
LINE
  8
_0-0_計極細
  6
CONTINUOUS
 62
    2
 10
668.45451693353539
 20
1069.8999999994967
 11
668.45451693353539
 21
1075.9000000001593
  0
LINE
  8
_0-0_計極細
  6
CONTINUOUS
 62
    2
 10
655.45451693353539
 20
1139.4999999996135
 11
655.45451693353539
 21
1145.5999999998271
  0
LINE
  8
_0-0_計極細
  6
CONTINUOUS
 62
    2
 10
668.45451693353539
 20
1139.4999999996135
 11
668.45451693353539
 21
1145.5999999998271
  0
LINE
  8
_0-0_計極細
  6
CONTINUOUS
 62
    2
 10
668.45451693353539
 20
1052.3999999974494
 11
668.45451693353539
 21
1058.4999999994961
  0
LINE
  8
_0-0_計極細
  6
CONTINUOUS
 62
    2
 10
655.45451693353539
 20
1052.3999999974494
 11
655.45451693353539
 21
1058.4999999994961
  0
LINE
  8
_0-0_計極細
  6
CENTER1
 62
    2
 10
758.95451693353266
 20
1162.6507194262958
 11
758.95451693353266
 21
1036.5000000018335
  0
LINE
  8
_0-0_計極細
  6
CONTINUOUS
 62
    2
 10
752.45451693353539
 20
1087.3000000001598
 11
752.45451693353539
 21
1093.2999999999602
  0
LINE
  8
_0-0_計極細
  6
CONTINUOUS
 62
    2
 10
765.45451693353539
 20
1087.3000000001598
 11
765.45451693353539
 21
1093.2999999999602
  0
LINE
  8
_0-0_計極細
  6
CONTINUOUS
 62
    2
 10
752.45451693353539
 20
1104.6999999999607
 11
752.45451693353539
 21
1110.7000000021676
  0
LINE
  8
_0-0_計極細
  6
CONTINUOUS
 62
    2
 10
765.45451693353539
 20
1104.6999999999607
 11
765.45451693353539
 21
1110.7000000021676
  0
LINE
  8
_0-0_計極細
  6
CONTINUOUS
 62
    2
 10
765.45451693353539
 20
1122.1000000021681
 11
765.45451693353539
 21
1128.0999999996129
  0
LINE
  8
_0-0_計極細
  6
CONTINUOUS
 62
    2
 10
752.45451693353539
 20
1122.1000000021681
 11
752.45451693353539
 21
1128.0999999996129
  0
LINE
  8
_0-0_計極細
  6
CONTINUOUS
 62
    2
 10
752.45451693353539
 20
1069.8999999994967
 11
752.45451693353539
 21
1075.9000000001593
  0
LINE
  8
_0-0_計極細
  6
CONTINUOUS
 62
    2
 10
765.45451693353539
 20
1069.8999999994967
 11
765.45451693353539
 21
1075.9000000001593
  0
LINE
  8
_0-0_計極細
  6
CONTINUOUS
 62
    2
 10
752.45451693353539
 20
1139.4999999996135
 11
752.45451693353539
 21
1145.5999999998271
  0
LINE
  8
_0-0_計極細
  6
CONTINUOUS
 62
    2
 10
765.45451693353539
 20
1139.4999999996135
 11
765.45451693353539
 21
1145.5999999998271
  0
LINE
  8
_0-0_計極細
  6
CONTINUOUS
 62
    2
 10
765.45451693353539
 20
1052.3999999974494
 11
765.45451693353539
 21
1058.4999999994961
  0
LINE
  8
_0-0_計極細
  6
CONTINUOUS
 62
    2
 10
752.45451693353539
 20
1052.3999999974494
 11
752.45451693353539
 21
1058.4999999994961
  0
LINE
  8
_0-0_計極細
  6
CENTER1
 62
    2
 10
855.95451693353266
 20
1162.6507194262958
 11
855.95451693353266
 21
1036.5000000018335
  0
LINE
  8
_0-0_計極細
  6
CONTINUOUS
 62
    2
 10
849.45451693353539
 20
1087.3000000001598
 11
849.45451693353539
 21
1093.2999999999602
  0
LINE
  8
_0-0_計極細
  6
CONTINUOUS
 62
    2
 10
862.45451693353539
 20
1087.3000000001598
 11
862.45451693353539
 21
1093.2999999999602
  0
LINE
  8
_0-0_計極細
  6
CONTINUOUS
 62
    2
 10
849.45451693353539
 20
1104.6999999999607
 11
849.45451693353539
 21
1110.7000000021676
  0
LINE
  8
_0-0_計極細
  6
CONTINUOUS
 62
    2
 10
862.45451693353539
 20
1104.6999999999607
 11
862.45451693353539
 21
1110.7000000021676
  0
LINE
  8
_0-0_計極細
  6
CONTINUOUS
 62
    2
 10
862.45451693353539
 20
1122.1000000021681
 11
862.45451693353539
 21
1128.0999999996129
  0
LINE
  8
_0-0_計極細
  6
CONTINUOUS
 62
    2
 10
849.45451693353539
 20
1122.1000000021681
 11
849.45451693353539
 21
1128.0999999996129
  0
LINE
  8
_0-0_計極細
  6
CONTINUOUS
 62
    2
 10
849.45451693353539
 20
1069.8999999994967
 11
849.45451693353539
 21
1075.9000000001593
  0
LINE
  8
_0-0_計極細
  6
CONTINUOUS
 62
    2
 10
862.45451693353539
 20
1069.8999999994967
 11
862.45451693353539
 21
1075.9000000001593
  0
LINE
  8
_0-0_計極細
  6
CONTINUOUS
 62
    2
 10
849.45451693353539
 20
1139.4999999996135
 11
849.45451693353539
 21
1145.5999999998271
  0
LINE
  8
_0-0_計極細
  6
CONTINUOUS
 62
    2
 10
862.45451693353539
 20
1139.4999999996135
 11
862.45451693353539
 21
1145.5999999998271
  0
LINE
  8
_0-0_計極細
  6
CONTINUOUS
 62
    2
 10
862.45451693353539
 20
1052.3999999974494
 11
862.45451693353539
 21
1058.4999999994961
  0
LINE
  8
_0-0_計極細
  6
CONTINUOUS
 62
    2
 10
849.45451693353539
 20
1052.3999999974494
 11
849.45451693353539
 21
1058.4999999994961
  0
LINE
  8
_0-0_計極細
  6
CENTER1
 62
    2
 10
855.95451723968404
 20
1162.6507194262958
 11
855.95451723968404
 21
1036.5000000018335
  0
LINE
  8
_0-0_計極細
  6
CONTINUOUS
 62
    2
 10
862.45451723968131
 20
1087.3000000001598
 11
862.45451723968131
 21
1093.2999999999602
  0
LINE
  8
_0-0_計極細
  6
CONTINUOUS
 62
    2
 10
849.45451723968131
 20
1087.3000000001598
 11
849.45451723968131
 21
1093.2999999999602
  0
LINE
  8
_0-0_計極細
  6
CONTINUOUS
 62
    2
 10
862.45451723968131
 20
1104.6999999999607
 11
862.45451723968131
 21
1110.7000000021676
  0
LINE
  8
_0-0_計極細
  6
CONTINUOUS
 62
    2
 10
849.45451723968131
 20
1104.6999999999607
 11
849.45451723968131
 21
1110.7000000021676
  0
LINE
  8
_0-0_計極細
  6
CONTINUOUS
 62
    2
 10
849.45451723968131
 20
1122.1000000021681
 11
849.45451723968131
 21
1128.0999999996129
  0
LINE
  8
_0-0_計極細
  6
CONTINUOUS
 62
    2
 10
862.45451723968131
 20
1122.1000000021681
 11
862.45451723968131
 21
1128.0999999996129
  0
LINE
  8
_0-0_計極細
  6
CONTINUOUS
 62
    2
 10
862.45451723968131
 20
1069.8999999994967
 11
862.45451723968131
 21
1075.9000000001593
  0
LINE
  8
_0-0_計極細
  6
CONTINUOUS
 62
    2
 10
849.45451723968131
 20
1069.8999999994967
 11
849.45451723968131
 21
1075.9000000001593
  0
LINE
  8
_0-0_計極細
  6
CONTINUOUS
 62
    2
 10
862.45451723968131
 20
1139.4999999996135
 11
862.45451723968131
 21
1145.5999999998271
  0
LINE
  8
_0-0_計極細
  6
CONTINUOUS
 62
    2
 10
849.45451723968131
 20
1139.4999999996135
 11
849.45451723968131
 21
1145.5999999998271
  0
LINE
  8
_0-0_計極細
  6
CONTINUOUS
 62
    2
 10
849.45451723968131
 20
1052.3999999974494
 11
849.45451723968131
 21
1058.4999999994961
  0
LINE
  8
_0-0_計極細
  6
CONTINUOUS
 62
    2
 10
862.45451723968131
 20
1052.3999999974494
 11
862.45451723968131
 21
1058.4999999994961
  0
LINE
  8
_0-0_計極細
  6
CENTER1
 62
    2
 10
935.95451693353266
 20
1162.6507194262958
 11
935.95451693353266
 21
1036.5000000018335
  0
LINE
  8
_0-0_計極細
  6
CONTINUOUS
 62
    2
 10
942.45451693352993
 20
1087.3000000001598
 11
942.45451693352993
 21
1093.2999999999602
  0
LINE
  8
_0-0_計極細
  6
CONTINUOUS
 62
    2
 10
929.45451693352993
 20
1087.3000000001598
 11
929.45451693352993
 21
1093.2999999999602
  0
LINE
  8
_0-0_計極細
  6
CONTINUOUS
 62
    2
 10
942.45451693352993
 20
1104.6999999999607
 11
942.45451693352993
 21
1110.7000000021676
  0
LINE
  8
_0-0_計極細
  6
CONTINUOUS
 62
    2
 10
929.45451693352993
 20
1104.6999999999607
 11
929.45451693352993
 21
1110.7000000021676
  0
LINE
  8
_0-0_計極細
  6
CONTINUOUS
 62
    2
 10
929.45451693352993
 20
1122.1000000021681
 11
929.45451693352993
 21
1128.0999999996129
  0
LINE
  8
_0-0_計極細
  6
CONTINUOUS
 62
    2
 10
942.45451693352993
 20
1122.1000000021681
 11
942.45451693352993
 21
1128.0999999996129
  0
LINE
  8
_0-0_計極細
  6
CONTINUOUS
 62
    2
 10
942.45451693352993
 20
1069.8999999994967
 11
942.45451693352993
 21
1075.9000000001593
  0
LINE
  8
_0-0_計極細
  6
CONTINUOUS
 62
    2
 10
929.45451693352993
 20
1069.8999999994967
 11
929.45451693352993
 21
1075.9000000001593
  0
LINE
  8
_0-0_計極細
  6
CONTINUOUS
 62
    2
 10
942.45451693352993
 20
1139.4999999996135
 11
942.45451693352993
 21
1145.5999999998271
  0
LINE
  8
_0-0_計極細
  6
CONTINUOUS
 62
    2
 10
929.45451693352993
 20
1139.4999999996135
 11
929.45451693352993
 21
1145.5999999998271
  0
LINE
  8
_0-0_計極細
  6
CONTINUOUS
 62
    2
 10
929.45451693352993
 20
1052.3999999974494
 11
929.45451693352993
 21
1058.4999999994961
  0
LINE
  8
_0-0_計極細
  6
CONTINUOUS
 62
    2
 10
942.45451693352993
 20
1052.3999999974494
 11
942.45451693352993
 21
1058.4999999994961
  0
LINE
  8
_0-0_計極細
  6
CENTER1
 62
    2
 10
1032.9545169335327
 20
1162.6507194262958
 11
1032.9545169335327
 21
1036.5000000018335
  0
LINE
  8
_0-0_計極細
  6
CONTINUOUS
 62
    2
 10
1039.4545169335299
 20
1087.3000000001598
 11
1039.4545169335299
 21
1093.2999999999602
  0
LINE
  8
_0-0_計極細
  6
CONTINUOUS
 62
    2
 10
1026.4545169335299
 20
1087.3000000001598
 11
1026.4545169335299
 21
1093.2999999999602
  0
LINE
  8
_0-0_計極細
  6
CONTINUOUS
 62
    2
 10
1039.4545169335299
 20
1104.6999999999607
 11
1039.4545169335299
 21
1110.7000000021676
  0
LINE
  8
_0-0_計極細
  6
CONTINUOUS
 62
    2
 10
1026.4545169335299
 20
1104.6999999999607
 11
1026.4545169335299
 21
1110.7000000021676
  0
LINE
  8
_0-0_計極細
  6
CONTINUOUS
 62
    2
 10
1026.4545169335299
 20
1122.1000000021681
 11
1026.4545169335299
 21
1128.0999999996129
  0
LINE
  8
_0-0_計極細
  6
CONTINUOUS
 62
    2
 10
1039.4545169335299
 20
1122.1000000021681
 11
1039.4545169335299
 21
1128.0999999996129
  0
LINE
  8
_0-0_計極細
  6
CONTINUOUS
 62
    2
 10
1039.4545169335299
 20
1069.8999999994967
 11
1039.4545169335299
 21
1075.9000000001593
  0
LINE
  8
_0-0_計極細
  6
CONTINUOUS
 62
    2
 10
1026.4545169335299
 20
1069.8999999994967
 11
1026.4545169335299
 21
1075.9000000001593
  0
LINE
  8
_0-0_計極細
  6
CONTINUOUS
 62
    2
 10
1039.4545169335299
 20
1139.4999999996135
 11
1039.4545169335299
 21
1145.5999999998271
  0
LINE
  8
_0-0_計極細
  6
CONTINUOUS
 62
    2
 10
1026.4545169335299
 20
1139.4999999996135
 11
1026.4545169335299
 21
1145.5999999998271
  0
LINE
  8
_0-0_計極細
  6
CONTINUOUS
 62
    2
 10
1026.4545169335299
 20
1052.3999999974494
 11
1026.4545169335299
 21
1058.4999999994961
  0
LINE
  8
_0-0_計極細
  6
CONTINUOUS
 62
    2
 10
1039.4545169335299
 20
1052.3999999974494
 11
1039.4545169335299
 21
1058.4999999994961
  0
LINE
  8
_0-0_計極細
  6
CENTER1
 62
    2
 10
1129.9545169335327
 20
1162.6507194262958
 11
1129.9545169335327
 21
1036.5000000018335
  0
LINE
  8
_0-0_計極細
  6
CONTINUOUS
 62
    2
 10
1136.4545169335299
 20
1087.3000000001598
 11
1136.4545169335299
 21
1093.2999999999602
  0
LINE
  8
_0-0_計極細
  6
CONTINUOUS
 62
    2
 10
1123.4545169335299
 20
1087.3000000001598
 11
1123.4545169335299
 21
1093.2999999999602
  0
LINE
  8
_0-0_計極細
  6
CONTINUOUS
 62
    2
 10
1136.4545169335299
 20
1104.6999999999607
 11
1136.4545169335299
 21
1110.7000000021676
  0
LINE
  8
_0-0_計極細
  6
CONTINUOUS
 62
    2
 10
1123.4545169335299
 20
1104.6999999999607
 11
1123.4545169335299
 21
1110.7000000021676
  0
LINE
  8
_0-0_計極細
  6
CONTINUOUS
 62
    2
 10
1123.4545169335299
 20
1122.1000000021681
 11
1123.4545169335299
 21
1128.0999999996129
  0
LINE
  8
_0-0_計極細
  6
CONTINUOUS
 62
    2
 10
1136.4545169335299
 20
1122.1000000021681
 11
1136.4545169335299
 21
1128.0999999996129
  0
LINE
  8
_0-0_計極細
  6
CONTINUOUS
 62
    2
 10
1136.4545169335299
 20
1069.8999999994967
 11
1136.4545169335299
 21
1075.9000000001593
  0
LINE
  8
_0-0_計極細
  6
CONTINUOUS
 62
    2
 10
1123.4545169335299
 20
1069.8999999994967
 11
1123.4545169335299
 21
1075.9000000001593
  0
LINE
  8
_0-0_計極細
  6
CONTINUOUS
 62
    2
 10
1136.4545169335299
 20
1139.4999999996135
 11
1136.4545169335299
 21
1145.5999999998271
  0
LINE
  8
_0-0_計極細
  6
CONTINUOUS
 62
    2
 10
1123.4545169335299
 20
1139.4999999996135
 11
1123.4545169335299
 21
1145.5999999998271
  0
LINE
  8
_0-0_計極細
  6
CONTINUOUS
 62
    2
 10
1123.4545169335299
 20
1052.3999999974494
 11
1123.4545169335299
 21
1058.4999999994961
  0
LINE
  8
_0-0_計極細
  6
CONTINUOUS
 62
    2
 10
1136.4545169335299
 20
1052.3999999974494
 11
1136.4545169335299
 21
1058.4999999994961
  0
LINE
  8
_0-0_計極細
  6
CENTER1
 62
    2
 10
1226.9545169335327
 20
1162.6507194262958
 11
1226.9545169335327
 21
1036.5000000018335
  0
LINE
  8
_0-0_計極細
  6
CENTER1
 62
    2
 10
1323.9545169335327
 20
1162.6507194262958
 11
1323.9545169335327
 21
1036.5000000018335
  0
LINE
  8
_0-1_計細線
  6
CONTINUOUS
 62
    3
 10
363.95451693353266
 20
1122.1000000021681
 11
1192.0234381102125
 21
1122.1000000021681
  0
LINE
  8
_0-0_計極細
  6
CONTINUOUS
 62
    2
 10
363.95451693353266
 20
1118.9000000021679
 11
1191.5770740610621
 21
1118.9000000021679
  0
LINE
  8
_0-0_計極細
  6
CONTINUOUS
 62
    2
 10
363.95451693353266
 20
1113.9000000021679
 11
1190.4826805919035
 21
1113.9000000021679
  0
LINE
  8
_0-1_計細線
  6
CONTINUOUS
 62
    3
 10
363.95451693353266
 20
1110.7000000021676
 11
363.95451693353266
 21
1122.1000000021681
  0
LINE
  8
_0-1_計細線
  6
CONTINUOUS
 62
    3
 10
363.95451693353266
 20
1110.7000000021676
 11
1189.5159096874152
 21
1110.7000000021676
  0
LINE
  8
_0-0_計極細
  6
CONTINUOUS
 62
    2
 10
363.95451693353266
 20
1101.4999999999604
 11
1185.441165819587
 21
1101.4999999999604
  0
LINE
  8
_0-0_計極細
  6
CONTINUOUS
 62
    2
 10
363.95451693353266
 20
1096.4999999999604
 11
1182.4678680474333
 21
1096.4999999999604
  0
LINE
  8
_0-1_計細線
  6
CONTINUOUS
 62
    3
 10
363.95451693353266
 20
1093.2999999999602
 11
1180.815943314082
 21
1093.2999999999602
  0
LINE
  8
_0-1_計細線
  6
CONTINUOUS
 62
    3
 10
363.95451693353266
 20
1104.6999999999607
 11
1187.0930905529456
 21
1104.6999999999607
  0
LINE
  8
_0-1_計細線
  6
CONTINUOUS
 62
    3
 10
363.95451693353266
 20
1093.2999999999602
 11
363.95451693353266
 21
1104.6999999999607
  0
LINE
  8
_0-0_計極細
  6
CONTINUOUS
 62
    2
 10
474.45451693353539
 20
1104.7000000023672
 11
474.45451693353539
 21
1105.3500000021684
  0
LINE
  8
_0-0_計極細
  6
CONTINUOUS
 62
    2
 10
474.45451693353539
 20
1110.0500000021682
 11
474.45451693353539
 21
1110.7000000021676
  0
LINE
  8
_0-0_計極細
  6
CONTINUOUS
 62
    2
 10
461.45451693353539
 20
1104.7000000023672
 11
461.45451693353539
 21
1105.3500000021684
  0
LINE
  8
_0-0_計極細
  6
CONTINUOUS
 62
    2
 10
461.45451693353539
 20
1110.0500000021682
 11
461.45451693353539
 21
1110.7000000021676
  0
LINE
  8
_0-5_寸法線
  6
CONTINUOUS
 62
    7
 10
436.89660359517984
 20
1107.0944420990211
 11
444.89660359517984
 21
1093.2380356384701
  0
LINE
  8
_0-5_寸法線
  6
CONTINUOUS
 62
    7
 10
436.89660359517984
 20
1107.0944420990211
 11
436.89660359517984
 21
1091.0944420990211
  0
LINE
  8
_0-5_寸法線
  6
CONTINUOUS
 62
    7
 10
436.89660359517984
 20
1107.0944420990211
 11
467.387732458762
 21
993.30000000000018
  0
LINE
  8
_0-5_寸法線
  6
CONTINUOUS
 62
    7
 10
467.387732458762
 20
993.30000000000018
 11
563.387732458762
 21
993.30000000000018
  0
TEXT
  8
_0-5_寸法線
 62
    7
 10
467.387732458762
 20
993.30000000000018
 40
24
 41
0.8000000000000001
 50
0
  1
取　外　具
  0
TEXT
  8
_0-5_寸法線
 62
    7
 10
469.84595108157919
 20
966.06004673698976
 40
24
 41
0.7999999999999999
 50
0
  1
(標準付属)
  0
LINE
  8
_0-1_計細線
  6
CONTINUOUS
 62
    3
 10
429.95451693353175
 20
1105.3500000021684
 11
482.95451693353175
 21
1105.3500000021684
  0
LINE
  8
_0-1_計細線
  6
CONTINUOUS
 62
    3
 10
482.95451693353175
 20
1110.0500000021682
 11
429.95451693353175
 21
1110.0500000021682
  0
LINE
  8
_0-1_計細線
  6
CONTINUOUS
 62
    3
 10
429.95451693353175
 20
1110.0500000021682
 11
429.95451693353175
 21
1105.3500000021684
  0
LINE
  8
_0-1_計細線
  6
CONTINUOUS
 62
    3
 10
472.95451693353175
 20
1110.0500000021682
 11
472.95451693353175
 21
1105.3500000021684
  0
LINE
  8
_0-1_計細線
  6
CONTINUOUS
 62
    3
 10
480.95451693353175
 20
1110.0500000021682
 11
480.95451693353175
 21
1105.3500000021684
  0
LINE
  8
_0-1_計細線
  6
CONTINUOUS
 62
    3
 10
482.95451693353175
 20
1110.0500000021682
 11
482.95451693353175
 21
1105.3500000021684
  0
LINE
  8
_0-1_計細線
  6
CONTINUOUS
 62
    3
 10
478.95451693353175
 20
1110.0500000021682
 11
478.95451693353175
 21
1105.3500000021684
  0
LINE
  8
_0-1_計細線
  6
CONTINUOUS
 62
    3
 10
476.95451693353175
 20
1110.0500000021682
 11
476.95451693353175
 21
1105.3500000021684
  0
LINE
  8
_0-1_計細線
  6
CONTINUOUS
 62
    3
 10
474.95451693353175
 20
1110.0500000021682
 11
474.95451693353175
 21
1105.3500000021684
  0
LINE
  8
_0-5_寸法線
  6
CONTINUOUS
 62
    7
 10
606.54009359359998
 20
1063.8223698921688
 11
614.54009359725512
 21
1049.9659634337281
  0
LINE
  8
_0-5_寸法線
  6
CONTINUOUS
 62
    7
 10
606.54009359359998
 20
1063.8223698921688
 11
606.5400935978206
 21
1047.8223698921688
  0
LINE
  8
_0-5_寸法線
  6
CONTINUOUS
 62
    7
 10
606.54009359359998
 20
1063.8223698921688
 11
625.43650567447423
 21
993.30000000000018
  0
LINE
  8
_0-5_寸法線
  6
CONTINUOUS
 62
    7
 10
625.43650567447423
 20
993.30000000000018
 11
841.74228345225288
 21
993.30000000000018
  0
TEXT
  8
_0-5_寸法線
 62
    7
 10
630.54228345225295
 20
993.30000000000018
 40
24
 41
0.8000000000000001
 50
0
  1
セーフティグレーチング
  0
LINE
  8
_0-5_寸法線
  6
CONTINUOUS
 62
    7
 10
869.27496831999997
 20
1033.374915695013
 11
877.27496830620578
 21
1019.5185092264979
  0
LINE
  8
_0-5_寸法線
  6
CONTINUOUS
 62
    7
 10
869.27496831999997
 20
1033.374915695013
 11
869.27496830407188
 21
1017.374915695013
  0
LINE
  8
_0-5_寸法線
  6
CONTINUOUS
 62
    7
 10
869.27496831999997
 20
1033.374915695013
 11
880.04652581283869
 21
993.17491569501226
  0
LINE
  8
_0-5_寸法線
  6
CONTINUOUS
 62
    7
 10
880.04652581283869
 20
993.17491569501226
 11
995.24652581283863
 21
993.17491569501226
  0
TEXT
  8
_0-5_寸法線
 62
    7
 10
880.04652581283869
 20
993.17491569501226
 40
24
 41
0.8000000000000001
 50
0
  1
排水ユニット
  0
LINE
  8
_0-5_寸法線
  6
CONTINUOUS
 62
    7
 10
334.45451693352993
 20
1171
 11
206.45451693352993
 21
1171
  0
LINE
  8
_0-5_寸法線
  6
CONTINUOUS
 62
    7
 10
214.45451693352993
 20
1171
 11
218.59562165517025
 21
1155.5451867793749
  0
LINE
  8
_0-5_寸法線
  6
CONTINUOUS
 62
    7
 10
214.45451693352993
 20
1171
 11
210.31341221188961
 21
1155.5451867793749
  0
LINE
  8
_0-5_寸法線
  6
CONTINUOUS
 62
    7
 10
334.45451693352993
 20
1027
 11
206.45451693352993
 21
1027
  0
LINE
  8
_0-5_寸法線
  6
CONTINUOUS
 62
    7
 10
214.45451693352993
 20
1027
 11
210.31341221188961
 21
1042.4548132206251
  0
LINE
  8
_0-5_寸法線
  6
CONTINUOUS
 62
    7
 10
214.45451693352993
 20
1027
 11
218.59562165517025
 21
1042.4548132206251
  0
LINE
  8
_0-5_寸法線
  6
CONTINUOUS
 62
    7
 10
214.45451693352993
 20
1171
 11
214.45451693352993
 21
1027
  0
TEXT
  8
_0-5_寸法線
 62
    7
 10
214.45451693352993
 20
1080.9999999999998
 40
24
 41
1
 50
90
  1
144
  0
LINE
  8
_0-5_寸法線
  6
CONTINUOUS
 62
    7
 10
270.45451693352993
 20
1171
 11
266.31341221188961
 21
1186.4548132206251
  0
LINE
  8
_0-5_寸法線
  6
CONTINUOUS
 62
    7
 10
270.45451693352993
 20
1171
 11
274.59562165517036
 21
1186.4548132206251
  0
LINE
  8
_0-5_寸法線
  6
CONTINUOUS
 62
    7
 10
334.45451693352993
 20
1159
 11
262.45451693352993
 21
1159
  0
LINE
  8
_0-5_寸法線
  6
CONTINUOUS
 62
    7
 10
270.45451693352993
 20
1211
 11
270.45451693352993
 21
1159
  0
TEXT
  8
_0-5_寸法線
 62
    7
 10
270.45451693352993
 20
1183.7878967217878
 40
24
 41
1
 50
90
  1
12
  0
LINE
  8
_0-5_寸法線
  6
CONTINUOUS
 62
    7
 10
270.45451693352993
 20
1159
 11
274.59562165517013
 21
1143.5451867793749
  0
LINE
  8
_0-5_寸法線
  6
CONTINUOUS
 62
    7
 10
270.45451693352993
 20
1159
 11
266.3134122118895
 21
1143.5451867793749
  0
LINE
  8
_0-5_寸法線
  6
CONTINUOUS
 62
    7
 10
334.45451693352993
 20
1039
 11
262.45451693352993
 21
1039
  0
LINE
  8
_0-5_寸法線
  6
CONTINUOUS
 62
    7
 10
270.45451693352993
 20
1039
 11
266.31341221188961
 21
1054.4548132206251
  0
LINE
  8
_0-5_寸法線
  6
CONTINUOUS
 62
    7
 10
270.45451693352993
 20
1039
 11
274.59562165517036
 21
1054.4548132206251
  0
LINE
  8
_0-5_寸法線
  6
CONTINUOUS
 62
    7
 10
270.45451693352993
 20
1159
 11
270.45451693352993
 21
1039
  0
TEXT
  8
_0-5_寸法線
 62
    7
 10
270.45451693352993
 20
1080.9999999999998
 40
24
 41
1
 50
90
  1
120
  0
LINE
  8
_0-5_寸法線
  6
CONTINUOUS
 62
    7
 10
270.45451693352993
 20
1027
 11
274.59562165517013
 21
1011.5451867793749
  0
LINE
  8
_0-5_寸法線
  6
CONTINUOUS
 62
    7
 10
270.45451693352993
 20
1027
 11
266.3134122118895
 21
1011.5451867793749
  0
LINE
  8
_0-5_寸法線
  6
CONTINUOUS
 62
    7
 10
270.45451693352993
 20
1039
 11
270.45451693352993
 21
987
  0
TEXT
  8
_0-5_寸法線
 62
    7
 10
270.45451693352993
 20
988.45875382780582
 40
24
 41
1
 50
90
  1
12
  0
LINE
  8
_0-5_寸法線
  6
CONTINUOUS
 62
    7
 10
363.95451693353277
 20
1187
 11
363.95451693353311
 21
1259
  0
LINE
  8
_0-5_寸法線
  6
CONTINUOUS
 62
    7
 10
363.95451693353311
 20
1251
 11
379.40933015415817
 21
1255.1411047216404
  0
LINE
  8
_0-5_寸法線
  6
CONTINUOUS
 62
    7
 10
363.95451693353311
 20
1251
 11
379.40933015415817
 21
1246.8588952783596
  0
LINE
  8
_0-5_寸法線
  6
CONTINUOUS
 62
    7
 10
1330.9545169335299
 20
1187
 11
1330.9545169335304
 21
1259
  0
LINE
  8
_0-5_寸法線
  6
CONTINUOUS
 62
    7
 10
1330.9545169335304
 20
1251
 11
1315.4997037129053
 21
1246.8588952783598
  0
LINE
  8
_0-5_寸法線
  6
CONTINUOUS
 62
    7
 10
1330.9545169335304
 20
1251
 11
1315.4997037129053
 21
1255.1411047216404
  0
LINE
  8
_0-5_寸法線
  6
CONTINUOUS
 62
    7
 10
363.95451693353311
 20
1251
 11
1330.9545169335304
 21
1251
  0
TEXT
  8
_0-5_寸法線
 62
    7
 10
835.45451693353175
 20
1251
 40
24
 41
1
 50
0
  1
Ｂ
  0
LINE
  8
_0-5_寸法線
  6
CONTINUOUS
 62
    7
 10
350.45451693353039
 20
1306.9999999999998
 11
334.99970371290533
 21
1302.8588952783596
  0
LINE
  8
_0-5_寸法線
  6
CONTINUOUS
 62
    7
 10
350.45451693353039
 20
1306.9999999999998
 11
334.99970371290533
 21
1311.1411047216402
  0
LINE
  8
_0-5_寸法線
  6
CONTINUOUS
 62
    7
 10
362.45451693352993
 20
1187
 11
362.45451693353039
 21
1314.9999999999998
  0
LINE
  8
_0-5_寸法線
  6
CONTINUOUS
 62
    7
 10
310.45451693353039
 20
1306.9999999999998
 11
362.45451693353039
 21
1306.9999999999998
  0
TEXT
  8
_0-5_寸法線
 62
    7
 10
306.04422169811937
 20
1306.9999999999998
 40
24
 41
1
 50
0
  1
12
  0
LINE
  8
_0-5_寸法線
  6
CONTINUOUS
 62
    7
 10
362.45451693353039
 20
1306.9999999999998
 11
377.90933015415544
 21
1311.14110472164
  0
LINE
  8
_0-5_寸法線
  6
CONTINUOUS
 62
    7
 10
362.45451693353039
 20
1306.9999999999998
 11
377.90933015415544
 21
1302.8588952783593
  0
LINE
  8
_0-5_寸法線
  6
CONTINUOUS
 62
    7
 10
1332.4545169335299
 20
1187
 11
1332.4545169335304
 21
1314.9999999999998
  0
LINE
  8
_0-5_寸法線
  6
CONTINUOUS
 62
    7
 10
1332.4545169335304
 20
1306.9999999999998
 11
1316.9997037129053
 21
1302.8588952783596
  0
LINE
  8
_0-5_寸法線
  6
CONTINUOUS
 62
    7
 10
1332.4545169335304
 20
1306.9999999999998
 11
1316.9997037129053
 21
1311.1411047216402
  0
LINE
  8
_0-5_寸法線
  6
CONTINUOUS
 62
    7
 10
362.45451693353039
 20
1306.9999999999998
 11
1332.4545169335304
 21
1306.9999999999998
  0
TEXT
  8
_0-5_寸法線
 62
    7
 10
835.45451693353039
 20
1306.9999999999998
 40
24
 41
1
 50
0
  1
Ａ
  0
LINE
  8
_0-5_寸法線
  6
CONTINUOUS
 62
    7
 10
1344.4545169335304
 20
1306.9999999999998
 11
1359.9093301541554
 21
1311.14110472164
  0
LINE
  8
_0-5_寸法線
  6
CONTINUOUS
 62
    7
 10
1344.4545169335304
 20
1306.9999999999998
 11
1359.9093301541554
 21
1302.8588952783593
  0
LINE
  8
_0-5_寸法線
  6
CONTINUOUS
 62
    7
 10
1332.4545169335304
 20
1306.9999999999998
 11
1384.4545169335304
 21
1306.9999999999998
  0
TEXT
  8
_0-5_寸法線
 62
    7
 10
1362.3378537735864
 20
1306.9999999999998
 40
24
 41
1
 50
0
  1
12
  0
LINE
  8
_0-1_計細線
  6
CONTINUOUS
 62
    3
 10
1447.4545169335299
 20
1170.9999999999998
 11
1447.4545169335299
 21
1027
  0
LINE
  8
_0-1_計細線
  6
CONTINUOUS
 62
    3
 10
1447.4545169335299
 20
1027
 11
1455.4545169335299
 21
1027
  0
LINE
  8
_0-1_計細線
  6
CONTINUOUS
 62
    3
 10
1455.4545169335299
 20
1027
 11
1455.4545169335299
 21
1170.9999999999998
  0
LINE
  8
_0-1_計細線
  6
CONTINUOUS
 62
    3
 10
1455.4545169335299
 20
1170.9999999999998
 11
1447.4545169335299
 21
1170.9999999999998
  0
LINE
  8
_0-1_計細線
  6
CONTINUOUS
 62
    3
 10
1535.4545169335302
 20
1038.0000000000005
 11
1570.4545169335302
 21
1038.0000000000005
  0
LINE
  8
_0-1_計細線
  6
CONTINUOUS
 62
    3
 10
1570.4545169335302
 20
1038.0000000000005
 11
1570.4545169335302
 21
1036.8000000000002
  0
LINE
  8
_0-1_計細線
  6
CONTINUOUS
 62
    3
 10
1570.4545169335302
 20
1036.8000000000002
 11
1535.4545169335302
 21
1036.8000000000002
  0
LINE
  8
_0-1_計細線
  6
CONTINUOUS
 62
    3
 10
1535.4545169335302
 20
1036.8000000000002
 11
1535.4545169335302
 21
1038.0000000000005
  0
LINE
  8
_0-1_計細線
  6
CONTINUOUS
 62
    3
 10
1537.4545169335302
 20
1036.8000000000002
 11
1537.4545169335302
 21
1038.0000000000005
  0
LINE
  8
_0-1_計細線
  6
CONTINUOUS
 62
    3
 10
1547.4545169335302
 20
1036.8000000000002
 11
1547.4545169335302
 21
1038.0000000000005
  0
LINE
  8
_0-1_計細線
  6
CONTINUOUS
 62
    3
 10
1549.4545169335302
 20
1036.8000000000002
 11
1549.4545169335302
 21
1038.0000000000005
  0
LINE
  8
_0-1_計細線
  6
CONTINUOUS
 62
    3
 10
1551.4545169335302
 20
1036.8000000000002
 11
1551.4545169335302
 21
1038.0000000000005
  0
LINE
  8
_0-1_計細線
  6
CONTINUOUS
 62
    3
 10
1553.4545169335302
 20
1036.8000000000002
 11
1553.4545169335302
 21
1038.0000000000005
  0
LINE
  8
_0-1_計細線
  6
CONTINUOUS
 62
    3
 10
1567.4545169335302
 20
1036.8000000000002
 11
1567.4545169335302
 21
1038.0000000000005
  0
LINE
  8
_0-1_計細線
  6
CONTINUOUS
 62
    3
 10
1535.4545169335302
 20
1161.1999999999998
 11
1570.4545169335302
 21
1161.1999999999998
  0
LINE
  8
_0-1_計細線
  6
CONTINUOUS
 62
    3
 10
1570.4545169335302
 20
1161.1999999999998
 11
1570.4545169335302
 21
1160
  0
LINE
  8
_0-1_計細線
  6
CONTINUOUS
 62
    3
 10
1570.4545169335302
 20
1160
 11
1535.4545169335302
 21
1160
  0
LINE
  8
_0-1_計細線
  6
CONTINUOUS
 62
    3
 10
1535.4545169335302
 20
1160
 11
1535.4545169335302
 21
1161.1999999999998
  0
LINE
  8
_0-1_計細線
  6
CONTINUOUS
 62
    3
 10
1537.4545169335302
 20
1160
 11
1537.4545169335302
 21
1161.1999999999998
  0
LINE
  8
_0-1_計細線
  6
CONTINUOUS
 62
    3
 10
1547.4545169335302
 20
1160
 11
1547.4545169335302
 21
1161.1999999999998
  0
LINE
  8
_0-1_計細線
  6
CONTINUOUS
 62
    3
 10
1549.4545169335302
 20
1160
 11
1549.4545169335302
 21
1161.1999999999998
  0
LINE
  8
_0-1_計細線
  6
CONTINUOUS
 62
    3
 10
1551.4545169335302
 20
1160
 11
1551.4545169335302
 21
1161.1999999999998
  0
LINE
  8
_0-1_計細線
  6
CONTINUOUS
 62
    3
 10
1553.4545169335302
 20
1160
 11
1553.4545169335302
 21
1161.1999999999998
  0
LINE
  8
_0-1_計細線
  6
CONTINUOUS
 62
    3
 10
1567.4545169335302
 20
1160
 11
1567.4545169335302
 21
1161.1999999999998
  0
LINE
  8
_0-1_計細線
  6
CONTINUOUS
 62
    3
 10
1547.4545169335302
 20
1160
 11
1547.4545169335302
 21
1038.0000000000005
  0
LINE
  8
_0-1_計細線
  6
CONTINUOUS
 62
    3
 10
1455.4545169335302
 20
1160
 11
1547.4545169335302
 21
1160
  0
LINE
  8
_0-1_計細線
  6
CONTINUOUS
 62
    3
 10
1547.4545169335302
 20
1038.0000000000005
 11
1455.4545169335297
 21
1038.0000000000005
  0
LINE
  8
_0-0_計極細
  6
CENTER1
 62
    2
 10
1424.4464398417977
 20
1099
 11
1575.0072142493577
 21
1099
  0
LINE
  8
_0-5_寸法線
  6
CONTINUOUS
 62
    7
 10
1447.4545169335299
 20
1186.9999999999995
 11
1447.4545169335299
 21
1259
  0
LINE
  8
_0-5_寸法線
  6
CONTINUOUS
 62
    7
 10
1447.4545169335299
 20
1251
 11
1462.909330154155
 21
1255.1411047216404
  0
LINE
  8
_0-5_寸法線
  6
CONTINUOUS
 62
    7
 10
1447.4545169335299
 20
1251
 11
1462.909330154155
 21
1246.8588952783596
  0
LINE
  8
_0-5_寸法線
  6
CONTINUOUS
 62
    7
 10
1547.4545169335299
 20
1177.1999999999998
 11
1547.4545169335299
 21
1259
  0
LINE
  8
_0-5_寸法線
  6
CONTINUOUS
 62
    7
 10
1547.4545169335299
 20
1251
 11
1531.9997037129049
 21
1246.8588952783598
  0
LINE
  8
_0-5_寸法線
  6
CONTINUOUS
 62
    7
 10
1547.4545169335299
 20
1251
 11
1531.9997037129049
 21
1255.1411047216404
  0
LINE
  8
_0-5_寸法線
  6
CONTINUOUS
 62
    7
 10
1447.4545169335299
 20
1251
 11
1547.4545169335299
 21
1251
  0
TEXT
  8
_0-5_寸法線
 62
    7
 10
1479.4545169335299
 20
1251
 40
24
 41
1
 50
0
  1
100
  0
LINE
  8
_0-5_寸法線
  6
CONTINUOUS
 62
    7
 10
1570.4545169335299
 20
1177.1999999999998
 11
1570.4545169335299
 21
1259
  0
LINE
  8
_0-5_寸法線
  6
CONTINUOUS
 62
    7
 10
1570.4545169335299
 20
1251
 11
1585.909330154155
 21
1255.1411047216402
  0
LINE
  8
_0-5_寸法線
  6
CONTINUOUS
 62
    7
 10
1570.4545169335299
 20
1251
 11
1585.909330154155
 21
1246.8588952783596
  0
LINE
  8
_0-5_寸法線
  6
CONTINUOUS
 62
    7
 10
1547.4545169335299
 20
1251
 11
1610.4545169335299
 21
1251
  0
TEXT
  8
_0-5_寸法線
 62
    7
 10
1589.0387928013427
 20
1251
 40
24
 41
1
 50
0
  1
23
  0
LINE
  8
_0-5_寸法線
  6
CONTINUOUS
 62
    7
 10
1447.4545169335299
 20
1186.9999999999995
 11
1447.4545169335299
 21
1315
  0
LINE
  8
_0-5_寸法線
  6
CONTINUOUS
 62
    7
 10
1447.4545169335299
 20
1307
 11
1462.909330154155
 21
1311.1411047216404
  0
LINE
  8
_0-5_寸法線
  6
CONTINUOUS
 62
    7
 10
1447.4545169335299
 20
1307
 11
1462.909330154155
 21
1302.8588952783596
  0
LINE
  8
_0-5_寸法線
  6
CONTINUOUS
 62
    7
 10
1570.4545169335299
 20
1177.1999999999998
 11
1570.4545169335299
 21
1315
  0
LINE
  8
_0-5_寸法線
  6
CONTINUOUS
 62
    7
 10
1570.4545169335299
 20
1307
 11
1554.9997037129049
 21
1302.8588952783598
  0
LINE
  8
_0-5_寸法線
  6
CONTINUOUS
 62
    7
 10
1570.4545169335299
 20
1307
 11
1554.9997037129049
 21
1311.1411047216404
  0
LINE
  8
_0-5_寸法線
  6
CONTINUOUS
 62
    7
 10
1447.4545169335299
 20
1307
 11
1570.4545169335299
 21
1307
  0
TEXT
  8
_0-5_寸法線
 62
    7
 10
1490.9545169335299
 20
1306.9999999999991
 40
24
 41
1
 50
0
  1
123
  0
ARC
  8
_0-1_計細線
  6
CONTINUOUS
 62
    3
 10
1303.0702756687285
 20
1113.1998048880055
 40
0.501740082747087
 50
330.00000000006594
 51
20.189990999972171
  0
ARC
  8
_0-1_計細線
  6
CONTINUOUS
 62
    3
 10
1303.0702756687285
 20
1084.8001951119963
 40
0.501740082747087
 50
339.81000900002709
 51
29.999999999933351
  0
LINE
  8
_0-1_計細線
  6
CONTINUOUS
 62
    3
 10
1265.7590821425276
 20
1101.25783940372
 11
1264.4555140471118
 21
1103.5156788074391
  0
LINE
  8
_0-1_計細線
  6
CONTINUOUS
 62
    3
 10
1265.7590821425276
 20
1101.25783940372
 11
1245.6191907867803
 21
1136.1411511250267
  0
LINE
  8
_0-1_計細線
  6
CONTINUOUS
 62
    3
 10
1265.7590821425276
 20
1101.25783940372
 11
1268.3662123124543
 21
1101.25783940372
  0
LINE
  8
_0-1_計細線
  6
CONTINUOUS
 62
    3
 10
1261.848389898091
 20
1099
 11
1241.708498542341
 21
1133.8833117213089
  0
ARC
  8
_0-1_計細線
  6
CONTINUOUS
 62
    3
 10
1232.8507416835366
 20
1072.65854028994
 40
0.501740082747087
 50
219.81000899998574
 51
269.99999999999977
  0
LINE
  8
_0-1_計細線
  6
CONTINUOUS
 62
    3
 10
1265.7590821425276
 20
1096.7421605962809
 11
1245.6191907867803
 21
1061.8588488749738
  0
LINE
  8
_0-1_計細線
  6
CONTINUOUS
 62
    3
 10
1261.848389898091
 20
1099
 11
1241.708498542341
 21
1064.1166882786929
  0
ARC
  8
_0-1_計細線
  6
CONTINUOUS
 62
    3
 10
1264.4555140471118
 20
1099
 40
46.4111412917104
 50
89.999999999999915
 51
269.99999999999977
  0
ARC
  8
_0-1_計細線
  6
CONTINUOUS
 62
    3
 10
1264.4555140471118
 20
1099
 40
57.198598227560829
 50
89.999999999999915
 51
269.99999999999977
  0
CIRCLE
  8
_0-1_計細線
  6
CONTINUOUS
 62
    3
 10
1264.4555140471118
 20
1099
 40
58.202084413960065
  0
LINE
  8
_0-1_計細線
  6
CONTINUOUS
 62
    3
 10
1265.7590821425276
 20
1101.25783940372
 11
1306.0388588331186
 21
1101.25783940372
  0
LINE
  8
_0-1_計細線
  6
CONTINUOUS
 62
    3
 10
1265.7590821425276
 20
1096.7421605962809
 11
1306.0388588331186
 21
1096.7421605962809
  0
ARC
  8
_0-1_計細線
  6
CONTINUOUS
 62
    3
 10
1264.4555140471118
 20
1099
 40
46.4111412917104
 50
269.99999999999977
 51
89.999999999999545
  0
ARC
  8
_0-1_計細線
  6
CONTINUOUS
 62
    3
 10
1264.4555140471118
 20
1099
 40
57.198598227560829
 50
269.99999999999977
 51
89.999999999999545
  0
ARC
  8
_0-1_計細線
  6
CONTINUOUS
 62
    3
 10
1264.4555140471118
 20
1099
 40
41.644595453350369
 50
89.999999999999915
 51
116.89207624474167
  0
ARC
  8
_0-1_計細線
  6
CONTINUOUS
 62
    3
 10
1264.4555140471118
 20
1099
 40
41.644595453350369
 50
123.1079186869396
 51
236.89208131305881
  0
ARC
  8
_0-1_計細線
  6
CONTINUOUS
 62
    3
 10
1264.4555140471118
 20
1099
 40
41.644595453350369
 50
243.1079237552571
 51
269.99999999999977
  0
ARC
  8
_0-1_計細線
  6
CONTINUOUS
 62
    3
 10
1264.4555140471118
 20
1099
 40
41.644595453350369
 50
269.99999999999977
 51
356.89207858909316
  0
ARC
  8
_0-1_計細線
  6
CONTINUOUS
 62
    3
 10
1264.4555140471118
 20
1099
 40
41.644595453350369
 50
3.1079214109077626
 51
89.999999999999915
  0
ARC
  8
_0-0_計極細
  6
CONTINUOUS
 62
    2
 10
1264.4555140471118
 20
1099
 40
50.153133796808191
 50
269.99999999999977
 51
89.999999999999545
  0
ARC
  8
_0-0_計極細
  6
CONTINUOUS
 62
    2
 10
1264.4555140471118
 20
1099
 40
50.153133796808191
 50
89.999999999999915
 51
269.99999999999977
  0
ARC
  8
_0-0_計極細
  6
CONTINUOUS
 62
    2
 10
1250.8405130026047
 20
1069.8989577704087
 40
0.501740082747087
 50
149.99997568602743
 51
210.00002243784951
  0
ARC
  8
_0-0_計極細
  6
CONTINUOUS
 62
    2
 10
1264.745197853061
 20
1092.9790949234139
 40
1.0034861863992508
 50
29.999999999951111
 51
149.99999999997101
  0
ARC
  8
_0-0_計極細
  6
CONTINUOUS
 62
    2
 10
1264.745197853061
 20
1092.9790949234139
 40
1.0034861863992508
 50
29.999999999951111
 51
106.77865499997519
  0
ARC
  8
_0-0_計極細
  6
CONTINUOUS
 62
    2
 10
1259.0964208356402
 20
1096.2404205135335
 40
1.0034861863992508
 50
329.99999999996464
 51
89.999999999999545
  0
ARC
  8
_0-0_計極細
  6
CONTINUOUS
 62
    2
 10
1223.9602977470747
 20
1106.2787607990931
 40
0.501740082747087
 50
89.993779916899371
 51
169.80868012339329
  0
ARC
  8
_0-0_計極細
  6
CONTINUOUS
 62
    2
 10
1223.9587320416415
 20
1091.7282374663387
 40
0.501740082747087
 50
190.17882981053808
 51
269.99383436899353
  0
ARC
  8
_0-0_計極細
  6
CONTINUOUS
 62
    2
 10
1223.9069997510353
 20
1101.7630863966342
 40
1.0034861863992508
 50
176.10042624738495
 51
269.99385985771437
  0
ARC
  8
_0-0_計極細
  6
CONTINUOUS
 62
    2
 10
1264.4555140471118
 20
1099
 40
37.630656728658437
 50
317.45760300000074
 51
327.3871079999999
  0
ARC
  8
_0-0_計極細
  6
CONTINUOUS
 62
    2
 10
1264.4555140471118
 20
1099
 40
37.630656728658437
 50
32.612892000000336
 51
42.54239699999939
  0
LINE
  8
_0-0_計極細
  6
CONTINUOUS
 62
    2
 10
1299.6297318180998
 20
1079.7210619447746
 11
1290.6716425970992
 21
1095.2369343271362
  0
LINE
  8
_0-0_計極細
  6
CONTINUOUS
 62
    2
 10
1298.2229052006207
 20
1075.1333670917138
 11
1285.8919049557155
 21
1096.4912875444543
  0
LINE
  8
_0-0_計極細
  6
CONTINUOUS
 62
    2
 10
1293.6009694603893
 20
1071.0969824328963
 11
1279.6637663473
 21
1095.2369343271362
  0
LINE
  8
_0-0_計極細
  6
CONTINUOUS
 62
    2
 10
1299.6297318180998
 20
1118.2789380552267
 11
1290.6716425970992
 21
1102.7630656728661
  0
LINE
  8
_0-0_計極細
  6
CONTINUOUS
 62
    2
 10
1298.2229052006207
 20
1122.8666329082871
 11
1285.8919049557155
 21
1101.5087124555462
  0
LINE
  8
_0-0_計極細
  6
CONTINUOUS
 62
    2
 10
1293.6009694603893
 20
1126.9030115462006
 11
1279.6637663473
 21
1102.7630656728661
  0
LINE
  8
_0-0_計極細
  6
CONTINUOUS
 62
    2
 10
1262.4485476952188
 20
1071.9803636048287
 11
1262.4485476952188
 21
1079.8977755087726
  0
LINE
  8
_0-0_計極細
  6
CONTINUOUS
 62
    2
 10
1262.9502877779657
 20
1071.9477724456488
 11
1262.9502877779657
 21
1079.0287361327337
  0
ARC
  8
_0-0_計極細
  6
CONTINUOUS
 62
    2
 10
1264.4555140471118
 20
1099
 40
37.630656728658437
 50
213.59599499999973
 51
225.50677599999941
  0
LINE
  8
_0-0_計極細
  6
CONTINUOUS
 62
    2
 10
1291.4378509353353
 20
1067.8192318137303
 11
1274.8840287059163
 21
1096.4912875444543
  0
LINE
  8
_0-0_計極細
  6
CONTINUOUS
 62
    2
 10
1286.2499982851461
 20
1064.7630444804745
 11
1268.6558900975003
 21
1095.2369343271362
  0
LINE
  8
_0-0_計極細
  6
CONTINUOUS
 62
    2
 10
1268.2409293196222
 20
1057.8232649965307
 11
1255.909929074717
 21
1079.1811854492717
  0
LINE
  8
_0-0_計極細
  6
CONTINUOUS
 62
    2
 10
1274.0475082381961
 20
1059.8077854142985
 11
1260.1103051251055
 21
1083.9477373085374
  0
LINE
  8
_0-0_計極細
  6
CONTINUOUS
 62
    2
 10
1277.9676894290358
 20
1060.0422274161724
 11
1261.4138671996182
 21
1088.7142891678027
  0
LINE
  8
_0-0_計極細
  6
CONTINUOUS
 62
    2
 10
1283.2083454167466
 20
1063.0069511804077
 11
1265.6142432500067
 21
1093.4808350061626
  0
LINE
  8
_0-0_計極細
  6
CONTINUOUS
 62
    2
 10
1232.8507416835366
 20
1072.1568002071931
 11
1246.0607760069076
 21
1072.1568002071931
  0
ARC
  8
_0-0_計極細
  6
CONTINUOUS
 62
    2
 10
1242.5846064609411
 20
1067.6411213997535
 40
1.0034861863992508
 50
329.99999999997061
 51
89.999999999999545
  0
ARC
  8
_0-0_計極細
  6
CONTINUOUS
 62
    2
 10
1264.4555140471118
 20
1099
 40
37.630656728658437
 50
233.77152299999995
 51
236.31964599999873
  0
ARC
  8
_0-0_計極細
  6
CONTINUOUS
 62
    2
 10
1238.6036261706388
 20
1067.6411213997535
 40
1.0034861863992508
 50
89.999999999999915
 51
230.49822999999429
  0
LINE
  8
_0-0_計極細
  6
CONTINUOUS
 62
    2
 10
1238.6036261706388
 20
1068.6446015652477
 11
1242.5846064609411
 21
1068.6446015652477
  0
ARC
  8
_0-0_計極細
  6
CONTINUOUS
 62
    2
 10
1264.4555140471118
 20
1099
 40
37.630656728658437
 50
272.6128920000001
 51
282.54239699999982
  0
ARC
  8
_0-0_計極細
  6
CONTINUOUS
 62
    2
 10
1268.6754520180937
 20
1058.0741380483564
 40
0.501740082747087
 50
210.00000000003024
 51
275.8870620000269
  0
LINE
  8
_0-0_計極細
  6
CONTINUOUS
 62
    2
 10
1263.5644562212076
 20
1058.8987612076471
 11
1254.606367000207
 21
1074.4146396109127
  0
LINE
  8
_0-0_計極細
  6
CONTINUOUS
 62
    2
 10
1257.0110081115033
 20
1058.2078623501102
 11
1250.4059909498185
 21
1069.6480877516478
  0
ARC
  8
_0-0_計極細
  6
CONTINUOUS
 62
    2
 10
1264.4555140471118
 20
1099
 40
37.630656728658437
 50
254.49322399999997
 51
266.40400500000044
  0
ARC
  8
_0-0_計極細
  6
CONTINUOUS
 62
    2
 10
1246.0607760069076
 20
1072.65854028994
 40
0.501740082747087
 50
269.99999999999977
 51
329.9999999999431
  0
ARC
  8
_0-0_計極細
  6
CONTINUOUS
 62
    2
 10
1250.2238766339658
 20
1060.9321653537318
 40
1.0034861863992508
 50
249.50177000008239
 51
29.999999999950756
  0
LINE
  8
_0-0_計極細
  6
CONTINUOUS
 62
    2
 10
1251.092916010007
 20
1061.4339054364791
 11
1249.1024288753076
 21
1064.8815358923807
  0
ARC
  8
_0-0_計極細
  6
CONTINUOUS
 62
    2
 10
1253.7373216032627
 20
1073.9128935072613
 40
1.0034861863992508
 50
29.999999999977071
 51
150.00000000000995
  0
ARC
  8
_0-0_計極細
  6
CONTINUOUS
 62
    2
 10
1264.4555140471118
 20
1099
 40
27.094072844634088
 50
244.78019200000111
 51
249.77896100000117
  0
ARC
  8
_0-0_計極細
  6
CONTINUOUS
 62
    2
 10
1264.4555140471118
 20
1099
 40
37.630656728658437
 50
243.68035399999945
 51
246.22847699999903
  0
ARC
  8
_0-0_計極細
  6
CONTINUOUS
 62
    2
 10
1248.2333834783633
 20
1064.3797958096357
 40
1.0034861863992508
 50
29.999999999990056
 51
150.00000000000995
  0
ARC
  8
_0-0_計極細
  6
CONTINUOUS
 62
    2
 10
1262.6954168451691
 20
1058.3970211249016
 40
1.0034861863992508
 50
267.51783600001954
 51
29.999999999989686
  0
ARC
  8
_0-0_計極細
  6
CONTINUOUS
 62
    2
 10
1257.4455308099748
 20
1058.4587354019359
 40
0.501740082747087
 50
210.00000000005619
 51
260.18999099994863
  0
ARC
  8
_0-0_計極細
  6
CONTINUOUS
 62
    2
 10
1264.4555140471118
 20
1099
 40
27.094072844634088
 50
260.29098300000004
 51
275.37568200000089
  0
ARC
  8
_0-0_計極細
  6
CONTINUOUS
 62
    2
 10
1264.4555140471118
 20
1099
 40
37.630656728658437
 50
288.07291800000053
 51
297.32522600000027
  0
ARC
  8
_0-0_計極細
  6
CONTINUOUS
 62
    2
 10
1264.4555140471118
 20
1099
 40
27.094072844634088
 50
283.31934900000215
 51
296.28378000000021
  0
ARC
  8
_0-0_計極細
  6
CONTINUOUS
 62
    2
 10
1278.4022061066023
 20
1060.2931004679986
 40
0.501740082747087
 50
210.00000000005619
 51
289.81487200001084
  0
ARC
  8
_0-0_計極細
  6
CONTINUOUS
 62
    2
 10
1273.1784628412518
 20
1059.306045331552
 40
1.0034861863992508
 50
282.39403400005705
 51
29.999999999989686
  0
ARC
  8
_0-0_計極細
  6
CONTINUOUS
 62
    2
 10
1264.4555140471118
 20
1099
 40
37.630656728658437
 50
302.67477399999979
 51
311.9270819999997
  0
ARC
  8
_0-0_計極細
  6
CONTINUOUS
 62
    2
 10
1287.1190376611846
 20
1065.2647905841272
 40
1.0034861863992508
 50
210.00000000001219
 51
303.89344999999258
  0
ARC
  8
_0-0_計極細
  6
CONTINUOUS
 62
    2
 10
1291.0033282368624
 20
1067.5683587619046
 40
0.501740082747087
 50
310.18512800003361
 51
29.999999999933351
  0
ARC
  8
_0-0_計極細
  6
CONTINUOUS
 62
    2
 10
1282.3393060407082
 20
1062.5052050767549
 40
1.0034861863992508
 50
296.10655000000122
 51
30.000000000012179
  0
LINE
  8
_0-0_計極細
  6
CONTINUOUS
 62
    2
 10
1230.1723541020294
 20
1078.1777052837788
 11
1248.0885445858396
 21
1078.1777052837788
  0
ARC
  8
_0-0_計極細
  6
CONTINUOUS
 62
    2
 10
1242.5846064609411
 20
1130.3588786002483
 40
1.0034861863992508
 50
269.99999999999977
 51
30.000000000051159
  0
LINE
  8
_0-0_計極細
  6
CONTINUOUS
 62
    2
 10
1232.8507416835366
 20
1125.8431997928087
 11
1246.0607760069076
 21
1125.8431997928087
  0
LINE
  8
_0-0_計極細
  6
CONTINUOUS
 62
    2
 10
1230.1723541020294
 20
1119.8222947162221
 11
1248.0885445858396
 21
1119.8222947162221
  0
LINE
  8
_0-0_計極細
  6
CONTINUOUS
 62
    2
 10
1226.9027136419998
 20
1116.3101020951835
 11
1251.5647141318075
 21
1116.3101020951835
  0
LINE
  8
_0-0_計極細
  6
CONTINUOUS
 62
    2
 10
1225.718070463656
 20
1110.2891970185983
 11
1253.5924827107408
 21
1110.2891970185983
  0
LINE
  8
_0-0_計極細
  6
CONTINUOUS
 62
    2
 10
1223.9610138187752
 20
1106.7770043975579
 11
1257.0686522567059
 21
1106.7770043975579
  0
LINE
  8
_0-0_計極細
  6
CONTINUOUS
 62
    2
 10
1223.908204460349
 20
1100.7560993209727
 11
1259.0964208356402
 21
1100.7560993209727
  0
LINE
  8
_0-0_計極細
  6
CONTINUOUS
 62
    2
 10
1226.9027136419998
 20
1081.6898979048183
 11
1251.5647141318075
 21
1081.6898979048183
  0
LINE
  8
_0-0_計極細
  6
CONTINUOUS
 62
    2
 10
1225.718070463656
 20
1087.710802981404
 11
1253.5924827107408
 21
1087.710802981404
  0
LINE
  8
_0-0_計極細
  6
CONTINUOUS
 62
    2
 10
1223.9610138187752
 20
1091.2229956024439
 11
1257.0686522567059
 21
1091.2229956024439
  0
LINE
  8
_0-0_計極細
  6
CONTINUOUS
 62
    2
 10
1223.908204460349
 20
1097.2439006790278
 11
1259.0964208356402
 21
1097.2439006790278
  0
ARC
  8
_0-0_計極細
  6
CONTINUOUS
 62
    2
 10
1264.4555140471118
 20
1099
 40
27.094072844634088
 50
140.2909829999995
 51
155.37568199999961
  0
ARC
  8
_0-0_計極細
  6
CONTINUOUS
 62
    2
 10
1264.4555140471118
 20
1099
 40
37.630656728658437
 50
152.61289199999976
 51
162.54239699999948
  0
ARC
  8
_0-0_計極細
  6
CONTINUOUS
 62
    2
 10
1225.718070463656
 20
1111.2926832049989
 40
1.0034861863992508
 50
162.39403400002894
 51
269.99999999999977
  0
ARC
  8
_0-0_計極細
  6
CONTINUOUS
 62
    2
 10
1230.1723541020294
 20
1077.1742190973782
 40
1.0034861863992508
 50
89.999999999999915
 51
212.48216399999936
  0
ARC
  8
_0-0_計極細
  6
CONTINUOUS
 62
    2
 10
1264.4555140471118
 20
1099
 40
37.630656728658437
 50
168.07291799999925
 51
177.3252260000001
  0
ARC
  8
_0-0_計極細
  6
CONTINUOUS
 62
    2
 10
1264.4555140471118
 20
1099
 40
37.630656728658437
 50
182.67477399999885
 51
191.9270819999997
  0
ARC
  8
_0-0_計極細
  6
CONTINUOUS
 62
    2
 10
1264.4555140471118
 20
1099
 40
37.630656728658437
 50
197.45760299999952
 51
207.38710799999927
  0
ARC
  8
_0-0_計極細
  6
CONTINUOUS
 62
    2
 10
1223.908204460349
 20
1096.2404205135344
 40
1.0034861863992508
 50
89.999999999999915
 51
183.89344999999844
  0
ARC
  8
_0-0_計極細
  6
CONTINUOUS
 62
    2
 10
1225.718070463656
 20
1086.7073167950048
 40
1.0034861863992508
 50
89.999999999999915
 51
197.60596599999548
  0
ARC
  8
_0-0_計極細
  6
CONTINUOUS
 62
    2
 10
1226.9027136419998
 20
1082.1916379875643
 40
0.501740082747087
 50
204.11293800004927
 51
269.99999999999977
  0
ARC
  8
_0-0_計極細
  6
CONTINUOUS
 62
    2
 10
1264.4555140471118
 20
1099
 40
27.094072844634088
 50
163.31934899999922
 51
176.2837799999995
  0
ARC
  8
_0-0_計極細
  6
CONTINUOUS
 62
    2
 10
1264.4555140471118
 20
1099
 40
27.094072844634088
 50
183.71621999999917
 51
196.68065099999947
  0
ARC
  8
_0-0_計極細
  6
CONTINUOUS
 62
    2
 10
1264.4555140471118
 20
1099
 40
27.094072844634088
 50
204.62431799999914
 51
219.70901699999865
  0
ARC
  8
_0-0_計極細
  6
CONTINUOUS
 62
    2
 10
1226.9027136419998
 20
1115.8083620124376
 40
0.501740082747087
 50
89.999999999999915
 51
155.88706199995036
  0
ARC
  8
_0-0_計極細
  6
CONTINUOUS
 62
    2
 10
1230.1723541020294
 20
1120.8257809026231
 40
1.0034861863992508
 50
147.51783600000024
 51
269.99999999999977
  0
ARC
  8
_0-0_計極細
  6
CONTINUOUS
 62
    2
 10
1264.4555140471118
 20
1099
 40
37.630656728658437
 50
123.68035400000058
 51
126.22847699999969
  0
ARC
  8
_0-0_計極細
  6
CONTINUOUS
 62
    2
 10
1264.4555140471118
 20
1099
 40
37.630656728658437
 50
134.49322399999971
 51
146.40400499999933
  0
ARC
  8
_0-0_計極細
  6
CONTINUOUS
 62
    2
 10
1232.8507416835366
 20
1125.3414597100623
 40
0.501740082747087
 50
89.999999999999915
 51
140.18999100005377
  0
ARC
  8
_0-0_計極細
  6
CONTINUOUS
 62
    2
 10
1238.6036261706388
 20
1130.3588786002483
 40
1.0034861863992508
 50
129.50177000000534
 51
269.99999999999977
  0
LINE
  8
_0-0_計極細
  6
CONTINUOUS
 62
    2
 10
1238.6036261706388
 20
1129.3553984347541
 11
1242.5846064609411
 21
1129.3553984347541
  0
ARC
  8
_0-0_計極細
  6
CONTINUOUS
 62
    2
 10
1264.4555140471118
 20
1099
 40
37.630656728658437
 50
77.457603000000148
 51
87.387107999999586
  0
ARC
  8
_0-0_計極細
  6
CONTINUOUS
 62
    2
 10
1264.4555140471118
 20
1099
 40
37.630656728658437
 50
77.457603000000148
 51
87.387107999999586
  0
ARC
  8
_0-0_計極細
  6
CONTINUOUS
 62
    2
 10
1269.524935494446
 20
1095.7386744098826
 40
1.0034861863992508
 50
89.999999999999915
 51
209.9999999999732
  0
ARC
  8
_0-0_計極細
  6
CONTINUOUS
 62
    2
 10
1269.524935494446
 20
1102.2613255901206
 40
1.0034861863992508
 50
150.00000000002643
 51
269.99999999999977
  0
ARC
  8
_0-0_計極細
  6
CONTINUOUS
 62
    2
 10
1268.6754520180937
 20
1139.9258619516427
 40
0.501740082747087
 50
84.112937999972772
 51
150.00000000001438
  0
LINE
  8
_0-0_計極細
  6
CONTINUOUS
 62
    2
 10
1274.0475082381961
 20
1138.1922085647961
 11
1260.1103051251055
 21
1114.0522626914644
  0
LINE
  8
_0-0_計極細
  6
CONTINUOUS
 62
    2
 10
1277.9676894290358
 20
1137.9577665629249
 11
1261.4138671996182
 21
1109.2857108321991
  0
LINE
  8
_0-0_計極細
  6
CONTINUOUS
 62
    2
 10
1283.2083454167466
 20
1134.9930488195942
 11
1265.6142432500067
 21
1104.5191649938392
  0
LINE
  8
_0-0_計極細
  6
CONTINUOUS
 62
    2
 10
1262.4485476952188
 20
1106.9918483534057
 11
1262.4485476952188
 21
1111.0778332282443
  0
LINE
  8
_0-0_計極細
  6
CONTINUOUS
 62
    2
 10
1262.9502877779657
 20
1106.1228089773667
 11
1262.9502877779657
 21
1111.9468786251873
  0
ARC
  8
_0-0_計極細
  6
CONTINUOUS
 62
    2
 10
1253.5924827107408
 20
1111.2926832049989
 40
1.0034861863992508
 50
269.99999999999977
 51
30.000000000012179
  0
LINE
  8
_0-0_計極細
  6
CONTINUOUS
 62
    2
 10
1265.9607403162593
 20
1105.1193227909689
 11
1265.9607403162593
 21
1117.1611329441384
  0
LINE
  8
_0-0_計極細
  6
CONTINUOUS
 62
    2
 10
1266.4624864199106
 20
1105.9883681879114
 11
1266.4624864199106
 21
1118.0301783410837
  0
ARC
  8
_0-0_計極細
  6
CONTINUOUS
 62
    2
 10
1253.5924827107408
 20
1086.7073167950048
 40
1.0034861863992508
 50
329.99999999996464
 51
89.999999999999545
  0
ARC
  8
_0-0_計極細
  6
CONTINUOUS
 62
    2
 10
1251.5647141318075
 20
1082.1916379875643
 40
0.501740082747087
 50
269.99999999999977
 51
329.9999999999431
  0
ARC
  8
_0-0_計極細
  6
CONTINUOUS
 62
    2
 10
1264.4555140471118
 20
1099
 40
27.094072844634088
 50
230.22103899999954
 51
235.21980799999949
  0
ARC
  8
_0-0_計極細
  6
CONTINUOUS
 62
    2
 10
1248.0885445858396
 20
1077.1742190973782
 40
1.0034861863992508
 50
329.9999999999871
 51
89.999999999999545
  0
ARC
  8
_0-0_計極細
  6
CONTINUOUS
 62
    2
 10
1256.3444517731898
 20
1079.4320585010987
 40
0.501740082747087
 50
149.9999999999884
 51
210.00000000005619
  0
LINE
  8
_0-0_計極細
  6
CONTINUOUS
 62
    2
 10
1262.4485476952188
 20
1086.9221667717575
 11
1262.4485476952188
 21
1091.0081516465962
  0
LINE
  8
_0-0_計極細
  6
CONTINUOUS
 62
    2
 10
1262.9502877779657
 20
1086.0531213748127
 11
1262.9502877779657
 21
1091.8771910226346
  0
ARC
  8
_0-0_計極細
  6
CONTINUOUS
 62
    2
 10
1257.0686522567059
 20
1091.7247417060953
 40
0.501740082747087
 50
269.99999999999977
 51
330.00000000006594
  0
ARC
  8
_0-0_計極細
  6
CONTINUOUS
 62
    2
 10
1261.848389898091
 20
1088.965156198723
 40
0.501740082747087
 50
150.00000000004732
 51
209.99999999990737
  0
ARC
  8
_0-0_計極細
  6
CONTINUOUS
 62
    2
 10
1259.2412597281611
 20
1083.4459972257901
 40
1.0034861863992508
 50
30.000000000012541
 51
149.99999999998747
  0
ARC
  8
_0-0_計極細
  6
CONTINUOUS
 62
    2
 10
1261.848389898091
 20
1109.0348438012779
 40
0.501740082747087
 50
150.00000000004732
 51
209.99999999990737
  0
ARC
  8
_0-0_計極細
  6
CONTINUOUS
 62
    2
 10
1264.745197853061
 20
1105.0209050765866
 40
1.0034861863992508
 50
210.00000000005113
 51
330.00000000002603
  0
ARC
  8
_0-0_計極細
  6
CONTINUOUS
 62
    2
 10
1257.0686522567059
 20
1106.2752582939052
 40
0.501740082747087
 50
29.999999999933703
 51
89.999999999999929
  0
ARC
  8
_0-0_計極細
  6
CONTINUOUS
 62
    2
 10
1259.0964208356402
 20
1101.7595794864674
 40
1.0034861863992508
 50
269.99999999999977
 51
29.999999999989686
  0
LINE
  8
_0-0_計極細
  6
CONTINUOUS
 62
    2
 10
1265.9607403162593
 20
1080.8388670558625
 11
1265.9607403162593
 21
1092.8806772090343
  0
LINE
  8
_0-0_計極細
  6
CONTINUOUS
 62
    2
 10
1266.4624864199106
 20
1079.9698216589195
 11
1266.4624864199106
 21
1092.0116318120895
  0
ARC
  8
_0-0_計極細
  6
CONTINUOUS
 62
    2
 10
1264.745197853061
 20
1105.0209050765866
 40
1.0034861863992508
 50
253.22134500003193
 51
330.00000000002603
  0
LINE
  8
_0-0_計極細
  6
CONTINUOUS
 62
    2
 10
1263.5644562212076
 20
1139.1012327714498
 11
1254.606367000207
 21
1123.5853603890887
  0
ARC
  8
_0-0_計極細
  6
CONTINUOUS
 62
    2
 10
1264.4555140471118
 20
1099
 40
37.630656728658437
 50
93.595994999999121
 51
105.50677599999949
  0
LINE
  8
_0-0_計極細
  6
CONTINUOUS
 62
    2
 10
1257.0110081115033
 20
1139.7921376498939
 11
1250.4059909498185
 21
1128.3519122483535
  0
LINE
  8
_0-0_計極細
  6
CONTINUOUS
 62
    2
 10
1268.2409293196222
 20
1140.1767350034697
 11
1255.909929074717
 21
1118.8188145507283
  0
ARC
  8
_0-0_計極細
  6
CONTINUOUS
 62
    2
 10
1256.3444517731898
 20
1118.5679414989031
 40
0.501740082747087
 50
149.9999999999884
 51
210.00000000001123
  0
ARC
  8
_0-0_計極細
  6
CONTINUOUS
 62
    2
 10
1264.4555140471118
 20
1099
 40
27.094072844634088
 50
110.2210389999981
 51
115.21980799999808
  0
ARC
  8
_0-0_計極細
  6
CONTINUOUS
 62
    2
 10
1253.7373216032627
 20
1124.0871064927419
 40
1.0034861863992508
 50
209.99999999998968
 51
330.00000000002257
  0
ARC
  8
_0-0_計極細
  6
CONTINUOUS
 62
    2
 10
1250.84051364829
 20
1128.1010391965274
 40
0.501740082747087
 50
150.00000000002132
 51
209.99999999993332
  0
ARC
  8
_0-0_計極細
  6
CONTINUOUS
 62
    2
 10
1264.4555140471118
 20
1099
 40
37.630656728658437
 50
113.77152300000034
 51
116.31964599999986
  0
ARC
  8
_0-0_計極細
  6
CONTINUOUS
 62
    2
 10
1250.2238766339658
 20
1137.0678346462701
 40
1.0034861863992508
 50
330.00000000004854
 51
110.49822999991692
  0
ARC
  8
_0-0_計極細
  6
CONTINUOUS
 62
    2
 10
1248.2333834783633
 20
1133.6202041903653
 40
1.0034861863992508
 50
210.00000000001219
 51
329.9999999999871
  0
LINE
  8
_0-0_計極細
  6
CONTINUOUS
 62
    2
 10
1251.092916010007
 20
1136.5660945635227
 11
1249.1024288753076
 21
1133.1184641076206
  0
ARC
  8
_0-0_計極細
  6
CONTINUOUS
 62
    2
 10
1264.4555140471118
 20
1099
 40
27.094072844634088
 50
124.78019199999905
 51
129.7789609999995
  0
ARC
  8
_0-0_計極細
  6
CONTINUOUS
 62
    2
 10
1246.0607760069076
 20
1125.3414597100623
 40
0.501740082747087
 50
30.000000000011593
 51
89.999999999999915
  0
ARC
  8
_0-0_計極細
  6
CONTINUOUS
 62
    2
 10
1248.0885445858396
 20
1120.8257809026231
 40
1.0034861863992508
 50
269.99999999999977
 51
30.000000000012179
  0
ARC
  8
_0-0_計極細
  6
CONTINUOUS
 62
    2
 10
1251.5647141318075
 20
1115.8083620124376
 40
0.501740082747087
 50
30.000000000011593
 51
89.999999999999915
  0
LINE
  8
_0-0_計極細
  6
CONTINUOUS
 62
    2
 10
1262.9502877779657
 20
1118.9712638672681
 11
1262.9502877779657
 21
1126.0522275543531
  0
LINE
  8
_0-0_計極細
  6
CONTINUOUS
 62
    2
 10
1262.4485476952188
 20
1118.1022244912297
 11
1262.4485476952188
 21
1126.0196363951732
  0
ARC
  8
_0-0_計極細
  6
CONTINUOUS
 62
    2
 10
1262.6954168451691
 20
1139.6029788751034
 40
1.0034861863992508
 50
329.9999999999871
 51
92.482163999979747
  0
ARC
  8
_0-0_計極細
  6
CONTINUOUS
 62
    2
 10
1264.4555140471118
 20
1099
 40
27.094072844634088
 50
84.624317999998866
 51
99.709016999999434
  0
ARC
  8
_0-0_計極細
  6
CONTINUOUS
 62
    2
 10
1257.4455308099748
 20
1139.5412645980687
 40
0.501740082747087
 50
99.810009000050982
 51
149.9999999999884
  0
ARC
  8
_0-0_計極細
  6
CONTINUOUS
 62
    2
 10
1259.2412597281611
 20
1114.5540027742104
 40
1.0034861863992508
 50
210.00000000001219
 51
329.9999999999871
  0
ARC
  8
_0-0_計極細
  6
CONTINUOUS
 62
    2
 10
1264.4555140471118
 20
1099
 40
27.094072844634088
 50
84.624317999998866
 51
89.999999999999915
  0
ARC
  8
_0-0_計極細
  6
CONTINUOUS
 62
    2
 10
1264.4555140471118
 20
1099
 40
27.094072844634088
 50
20.290983000001241
 51
35.375682000000126
  0
LINE
  8
_0-0_計極細
  6
CONTINUOUS
 62
    2
 10
1291.4378509353353
 20
1130.1807681862729
 11
1274.8840287059163
 21
1101.5087124555462
  0
LINE
  8
_0-0_計極細
  6
CONTINUOUS
 62
    2
 10
1286.2499982851461
 20
1133.2369555195269
 11
1268.6558900975003
 21
1102.7630656728661
  0
ARC
  8
_0-0_計極細
  6
CONTINUOUS
 62
    2
 10
1264.4555140471118
 20
1099
 40
27.094072844634088
 50
303.71622000000229
 51
316.6806509999999
  0
ARC
  8
_0-0_計極細
  6
CONTINUOUS
 62
    2
 10
1280.532805723338
 20
1095.7386744098826
 40
1.0034861863992508
 50
89.999999999999915
 51
210.00000000001216
  0
ARC
  8
_0-0_計極細
  6
CONTINUOUS
 62
    2
 10
1274.4495060074448
 20
1096.2404205135344
 40
0.501740082747087
 50
30.000000000056566
 51
89.999999999999915
  0
ARC
  8
_0-0_計極細
  6
CONTINUOUS
 62
    2
 10
1280.532805723338
 20
1102.2613255901206
 40
1.0034861863992508
 50
149.99999999998747
 51
269.99999999999977
  0
ARC
  8
_0-0_計極細
  6
CONTINUOUS
 62
    2
 10
1274.4495060074448
 20
1101.7595794864674
 40
0.501740082747087
 50
269.99999999999977
 51
329.9999999999431
  0
ARC
  8
_0-0_計極細
  6
CONTINUOUS
 62
    2
 10
1264.4555140471118
 20
1099
 40
27.094072844634088
 50
324.6243180000003
 51
339.70901700000019
  0
ARC
  8
_0-0_計極細
  6
CONTINUOUS
 62
    2
 10
1264.4555140471118
 20
1099
 40
27.094072844634088
 50
350.22103899999968
 51
355.21980800000068
  0
ARC
  8
_0-0_計極細
  6
CONTINUOUS
 62
    2
 10
1264.4555140471118
 20
1099
 40
27.094072844634088
 50
4.7801919999998796
 51
9.778961000000896
  0
ARC
  8
_0-0_計極細
  6
CONTINUOUS
 62
    2
 10
1291.5406819731377
 20
1095.7386744098826
 40
1.0034861863992508
 50
89.999999999999915
 51
210.00000000001216
  0
ARC
  8
_0-0_計極細
  6
CONTINUOUS
 62
    2
 10
1285.457382257244
 20
1096.2404205135344
 40
0.501740082747087
 50
30.0000000000306
 51
89.999999999999915
  0
ARC
  8
_0-0_計極細
  6
CONTINUOUS
 62
    2
 10
1291.5406819731377
 20
1102.2613255901206
 40
1.0034861863992508
 50
149.99999999998747
 51
269.99999999999977
  0
ARC
  8
_0-0_計極細
  6
CONTINUOUS
 62
    2
 10
1285.457382257244
 20
1101.7595794864674
 40
0.501740082747087
 50
269.99999999999977
 51
329.99999999996902
  0
ARC
  8
_0-0_計極細
  6
CONTINUOUS
 62
    2
 10
1264.4555140471118
 20
1099
 40
27.094072844634088
 50
43.319349000000443
 51
56.283779999998394
  0
ARC
  8
_0-0_計極細
  6
CONTINUOUS
 62
    2
 10
1264.4555140471118
 20
1099
 40
37.630656728658437
 50
62.674773999999701
 51
71.927081999999317
  0
ARC
  8
_0-0_計極細
  6
CONTINUOUS
 62
    2
 10
1264.4555140471118
 20
1099
 40
27.094072844634088
 50
63.716219999999879
 51
76.680650999997951
  0
ARC
  8
_0-0_計極細
  6
CONTINUOUS
 62
    2
 10
1278.4022061066023
 20
1137.7068995320028
 40
0.501740082747087
 50
70.185127999988836
 51
149.9999999999884
  0
ARC
  8
_0-0_計極細
  6
CONTINUOUS
 62
    2
 10
1273.1784628412518
 20
1138.6939546684498
 40
1.0034861863992508
 50
330.00000000000961
 51
77.605965999942228
  0
ARC
  8
_0-0_計極細
  6
CONTINUOUS
 62
    2
 10
1264.4555140471118
 20
1099
 40
37.630656728658437
 50
48.072918000000854
 51
57.3252260000002
  0
ARC
  8
_0-0_計極細
  6
CONTINUOUS
 62
    2
 10
1287.1190376611846
 20
1132.735209415875
 40
1.0034861863992508
 50
56.106549999992559
 51
150.00000000000995
  0
ARC
  8
_0-0_計極細
  6
CONTINUOUS
 62
    2
 10
1291.0033282368624
 20
1130.4316352171932
 40
0.501740082747087
 50
330.00000000006594
 51
49.814871999965682
  0
ARC
  8
_0-0_計極細
  6
CONTINUOUS
 62
    2
 10
1282.3393060407082
 20
1135.4947949232455
 40
1.0034861863992508
 50
329.9999999999871
 51
63.893449999998062
  0
ARC
  8
_0-0_計極細
  6
CONTINUOUS
 62
    2
 10
1294.4700148573322
 20
1071.5987285365491
 40
1.0034861863992508
 50
210.00000000001219
 51
317.60596600000804
  0
ARC
  8
_0-0_計極細
  6
CONTINUOUS
 62
    2
 10
1297.7883885230524
 20
1074.8824940398881
 40
0.501740082747087
 50
324.11293799996702
 51
29.99999999998526
  0
ARC
  8
_0-0_計極細
  6
CONTINUOUS
 62
    2
 10
1264.4555140471118
 20
1099
 40
37.630656728658437
 50
14.493223999999607
 51
26.404005000000225
  0
LINE
  8
_0-0_計極細
  6
CONTINUOUS
 62
    2
 10
1303.5047983672
 20
1112.9489378570852
 11
1296.8997812055152
 21
1101.5087124555462
  0
ARC
  8
_0-0_計極細
  6
CONTINUOUS
 62
    2
 10
1304.5390513785412
 20
1092.2910439539783
 40
1.0034861863992508
 50
209.99999999998968
 51
350.4982300000064
  0
ARC
  8
_0-0_計極細
  6
CONTINUOUS
 62
    2
 10
1304.5390513785412
 20
1105.7089560460236
 40
1.0034861863992508
 50
9.5017699999932326
 51
149.99999999998747
  0
ARC
  8
_0-0_計極細
  6
CONTINUOUS
 62
    2
 10
1264.4555140471118
 20
1099
 40
37.630656728658437
 50
3.6803540000001314
 51
6.2284770000002974
  0
ARC
  8
_0-0_計極細
  6
CONTINUOUS
 62
    2
 10
1264.4555140471118
 20
1099
 40
37.630656728658437
 50
353.77152300000074
 51
356.3196460000002
  0
ARC
  8
_0-0_計極細
  6
CONTINUOUS
 62
    2
 10
1264.4555140471118
 20
1099
 40
37.630656728658437
 50
333.59599500000002
 51
345.50677600000074
  0
ARC
  8
_0-0_計極細
  6
CONTINUOUS
 62
    2
 10
1300.4987772150441
 20
1080.2228020275215
 40
1.0034861863992508
 50
209.99999999998968
 51
332.48216400001218
  0
ARC
  8
_0-0_計極細
  6
CONTINUOUS
 62
    2
 10
1302.548558222936
 20
1095.7386744098826
 40
1.0034861863992508
 50
89.999999999999915
 51
210.00000000001216
  0
ARC
  8
_0-0_計極細
  6
CONTINUOUS
 62
    2
 10
1296.4652585070423
 20
1096.2404205135344
 40
0.501740082747087
 50
29.999999999978677
 51
89.999999999999901
  0
LINE
  8
_0-0_計極細
  6
CONTINUOUS
 62
    2
 10
1303.6700059815973
 20
1091.7893038712318
 11
1301.6795188468975
 21
1095.2369343271362
  0
LINE
  8
_0-0_計極細
  6
CONTINUOUS
 62
    2
 10
1303.5047983672
 20
1085.0510621429175
 11
1296.8997812055152
 21
1096.4912875444543
  0
ARC
  8
_0-0_計極細
  6
CONTINUOUS
 62
    2
 10
1302.548558222936
 20
1102.2613255901206
 40
1.0034861863992508
 50
149.99999999998747
 51
269.99999999999977
  0
ARC
  8
_0-0_計極細
  6
CONTINUOUS
 62
    2
 10
1296.4652585070423
 20
1101.7595794864674
 40
0.501740082747087
 50
269.99999999999977
 51
330.00000000002098
  0
LINE
  8
_0-0_計極細
  6
CONTINUOUS
 62
    2
 10
1303.6700059815973
 20
1106.21069612877
 11
1301.6795188468975
 21
1102.7630656728661
  0
ARC
  8
_0-0_計極細
  6
CONTINUOUS
 62
    2
 10
1294.4700148573322
 20
1126.4012714634528
 40
1.0034861863992508
 50
42.394033999991557
 51
149.99999999998747
  0
ARC
  8
_0-0_計極細
  6
CONTINUOUS
 62
    2
 10
1297.7883885230524
 20
1123.1175059601132
 40
0.501740082747087
 50
330.00000000001404
 51
35.887062000032259
  0
ARC
  8
_0-0_計極細
  6
CONTINUOUS
 62
    2
 10
1300.4987772150441
 20
1117.7771979724803
 40
1.0034861863992508
 50
27.517836000010465
 51
149.99999999998747
  0
LINE
  8
_0-0_計極細
  6
CONTINUOUS
 62
    2
 10
1265.9607403162593
 20
1071.947771308282
 11
1265.9607403162593
 21
1073.8144829583757
  0
LINE
  8
_0-0_計極細
  6
CONTINUOUS
 62
    2
 10
1266.4624864199106
 20
1071.9803618602105
 11
1266.4624864199106
 21
1072.9454329268174
  0
LINE
  8
_0-0_計極細
  6
CONTINUOUS
 62
    2
 10
1265.9607403162593
 20
1124.1855145142235
 11
1265.9607403162593
 21
1126.052228691718
  0
LINE
  8
_0-0_計極細
  6
CONTINUOUS
 62
    2
 10
1266.4624864199106
 20
1125.0545643290261
 11
1266.4624864199106
 21
1126.0196381397895
  0
LINE
  8
_0-1_計細線
  6
CONTINUOUS
 62
    3
 10
1332.4545169335299
 20
1159
 11
362.45451693352993
 21
1159
  0
LINE
  8
_0-1_計細線
  6
CONTINUOUS
 62
    3
 10
362.45451693352993
 20
1159
 11
362.45451693352993
 21
1039
  0
LINE
  8
_0-1_計細線
  6
CONTINUOUS
 62
    3
 10
362.45451693352993
 20
1039
 11
1332.4545169335299
 21
1039
  0
LINE
  8
_0-1_計細線
  6
CONTINUOUS
 62
    3
 10
1332.4545169335299
 20
1039
 11
1332.4545169335299
 21
1159
  0
LINE
  8
_0-1_計細線
  6
CONTINUOUS
 62
    3
 10
1236.4545169335299
 20
1159
 11
1236.4545169335299
 21
1157
  0
LINE
  8
_0-1_計細線
  6
CONTINUOUS
 62
    3
 10
1191.2192598377226
 20
1139
 11
1210.1702456860678
 21
1139
  0
LINE
  8
_0-1_計細線
  6
CONTINUOUS
 62
    3
 10
1236.4545169335299
 20
1157
 11
1224.3123813097989
 21
1144.8578643762689
  0
ARC
  8
_0-1_計細線
  6
CONTINUOUS
 62
    3
 10
1210.1702456860678
 20
1159
 40
20
 50
269.99999999999977
 51
314.99999999999966
  0
LINE
  8
_0-1_計細線
  6
CONTINUOUS
 62
    3
 10
1292.4545169335299
 20
1159
 11
1292.4545169335299
 21
1157
  0
LINE
  8
_0-1_計細線
  6
CONTINUOUS
 62
    3
 10
1292.4545169335299
 20
1157
 11
1304.5966525572605
 21
1144.8578643762689
  0
LINE
  8
_0-1_計細線
  6
CONTINUOUS
 62
    3
 10
1318.7387881809916
 20
1139
 11
1332.4545169335299
 21
1139
  0
ARC
  8
_0-1_計細線
  6
CONTINUOUS
 62
    3
 10
1318.7387881809916
 20
1159
 40
20
 50
224.99999999999963
 51
269.99999999999977
  0
LINE
  8
_0-1_計細線
  6
CONTINUOUS
 62
    3
 10
1236.4545169335299
 20
1039
 11
1236.4545169335299
 21
1041
  0
LINE
  8
_0-1_計細線
  6
CONTINUOUS
 62
    3
 10
1176.6897740293459
 20
1059
 11
1210.1702456860678
 21
1059
  0
LINE
  8
_0-1_計細線
  6
CONTINUOUS
 62
    3
 10
1236.4545169335299
 20
1041
 11
1224.3123813097989
 21
1053.1421356237308
  0
ARC
  8
_0-1_計細線
  6
CONTINUOUS
 62
    3
 10
1210.1702456860678
 20
1039
 40
20
 50
44.999999999999545
 51
89.999999999999915
  0
LINE
  8
_0-1_計細線
  6
CONTINUOUS
 62
    3
 10
1292.4545169335299
 20
1039
 11
1292.4545169335299
 21
1041
  0
LINE
  8
_0-1_計細線
  6
CONTINUOUS
 62
    3
 10
1292.4545169335299
 20
1041
 11
1304.5966525572605
 21
1053.1421356237308
  0
LINE
  8
_0-1_計細線
  6
CONTINUOUS
 62
    3
 10
1318.7387881809916
 20
1059
 11
1332.4545169335299
 21
1059
  0
ARC
  8
_0-1_計細線
  6
CONTINUOUS
 62
    3
 10
1318.7387881809916
 20
1039
 40
20
 50
89.999999999999915
 51
135.00000000000045
  0
ARC
  8
_0-1_計細線
  6
CONTINUOUS
 62
    3
 10
1547.9545169335302
 20
1158.0000000000002
 40
0.5
 50
179.99999999999983
 51
269.99999999999977
  0
LINE
  8
_0-1_計細線
  6
CONTINUOUS
 62
    3
 10
1547.9545169335302
 20
1157.5000000000002
 11
1549.9545169335302
 21
1157.5000000000002
  0
ARC
  8
_0-1_計細線
  6
CONTINUOUS
 62
    3
 10
1547.9545169335302
 20
1040
 40
0.5
 50
89.999999999999915
 51
179.99999999999983
  0
LINE
  8
_0-1_計細線
  6
CONTINUOUS
 62
    3
 10
1547.9545169335302
 20
1040.5
 11
1549.9545169335302
 21
1040.5
  0
ARC
  8
_0-1_計細線
  6
CONTINUOUS
 62
    3
 10
1549.9545169335302
 20
1156.0000000000002
 40
1.5
 50
0
 51
89.999999999999915
  0
LINE
  8
_0-1_計細線
  6
CONTINUOUS
 62
    3
 10
1551.4545169335302
 20
1042
 11
1551.4545169335302
 21
1156.0000000000002
  0
ARC
  8
_0-1_計細線
  6
CONTINUOUS
 62
    3
 10
1549.9545169335302
 20
1042
 40
1.5
 50
269.99999999999977
 51
359.99999999999966
  0
LINE
  8
_0-7_枠細線
  6
CONTINUOUS
 62
    5
 10
422.43819358137966
 20
998.50707291608489
 11
410.43819358137966
 21
1022.5070729160849
  0
LINE
  8
_0-7_枠細線
  6
CONTINUOUS
 62
    5
 10
398.43819358137966
 20
998.50707291608489
 11
422.43819358137966
 21
998.50707291608489
  0
LINE
  8
_0-7_枠細線
  6
CONTINUOUS
 62
    5
 10
410.43819358137966
 20
1022.5070729160849
 11
398.43819358137966
 21
998.50707291608489
  0
TEXT
  8
_0-7_枠細線
 62
    5
 10
402.22243561041682
 20
998.01586932347641
 40
20
 41
0.8
 50
0
  1
３
  0
LINE
  8
_0-7_枠細線
  6
CONTINUOUS
 62
    5
 10
440.3805678448939
 20
1022.5070729160849
 11
428.3805678448939
 21
998.50707291608489
  0
LINE
  8
_0-7_枠細線
  6
CONTINUOUS
 62
    5
 10
428.3805678448939
 20
998.50707291608489
 11
452.3805678448939
 21
998.50707291608489
  0
LINE
  8
_0-7_枠細線
  6
CONTINUOUS
 62
    5
 10
452.3805678448939
 20
998.50707291608489
 11
440.3805678448939
 21
1022.5070729160849
  0
TEXT
  8
_0-7_枠細線
 62
    5
 10
432.16480987393084
 20
997.63077869179472
 40
20
 41
0.8
 50
0
  1
５
  0
LINE
  8
_0-1_計細線
  6
CONTINUOUS
 62
    3
 10
1264.4545169335299
 20
710.99999999999989
 11
1189.4545166273786
 21
710.99999999999989
  0
LINE
  8
_0-1_計細線
  6
CONTINUOUS
 62
    3
 10
350.45451693352993
 20
802.99999999999989
 11
1264.4545169335299
 21
802.99999999999989
  0
LINE
  8
_0-1_計細線
  6
CONTINUOUS
 62
    3
 10
1189.4545166273786
 20
710.99999999999989
 11
855.48649631127705
 21
719.06686039709132
  0
LINE
  8
_0-1_計細線
  6
CONTINUOUS
 62
    3
 10
839.6805057812237
 20
719.44864760810333
 11
393.48649631127705
 21
730.2262806910727
  0
LINE
  8
_0-1_計細線
  6
CONTINUOUS
 62
    3
 10
379.6805057812237
 20
742.42028985485797
 11
377.6805057812237
 21
740.42028985485797
  0
LINE
  8
_0-1_計細線
  6
CONTINUOUS
 62
    3
 10
377.6805057812237
 20
730.42028985485797
 11
377.6805057812237
 21
740.42028985485797
  0
LINE
  8
_0-1_計細線
  6
CONTINUOUS
 62
    3
 10
393.68050547506232
 20
730.42028985485797
 11
393.68050547506232
 21
740.42028985485797
  0
LINE
  8
_0-1_計細線
  6
CONTINUOUS
 62
    3
 10
379.6805057812237
 20
726.42028985485797
 11
377.6805057812237
 21
724.42028985485797
  0
LINE
  8
_0-1_計細線
  6
CONTINUOUS
 62
    3
 10
379.6805057812237
 20
728.42028985485797
 11
379.6805057812237
 21
726.42028985485797
  0
LINE
  8
_0-1_計細線
  6
CONTINUOUS
 62
    3
 10
377.6805057812237
 20
730.42028985485797
 11
379.6805057812237
 21
728.42028985485797
  0
LINE
  8
_0-1_計細線
  6
CONTINUOUS
 62
    3
 10
391.68050547506232
 20
726.42028985485797
 11
393.68050547506232
 21
724.42028985485797
  0
LINE
  8
_0-1_計細線
  6
CONTINUOUS
 62
    3
 10
391.68050547506232
 20
728.42028985485797
 11
391.68050547506232
 21
726.42028985485797
  0
LINE
  8
_0-1_計細線
  6
CONTINUOUS
 62
    3
 10
393.68050547506232
 20
730.42028985485797
 11
391.68050547506232
 21
728.42028985485797
  0
LINE
  8
_0-1_計細線
  6
CONTINUOUS
 62
    3
 10
377.6805057812237
 20
724.42028985485797
 11
377.6805057812237
 21
710.42028985485797
  0
ARC
  8
_0-1_計細線
  6
CONTINUOUS
 62
    3
 10
380.6805057812237
 20
710.42028985485797
 40
3
 50
179.99999999999983
 51
269.99999999999977
  0
LINE
  8
_0-1_計細線
  6
CONTINUOUS
 62
    3
 10
380.6805057812237
 20
707.42028985485797
 11
390.68050547506232
 21
707.42028985485797
  0
LINE
  8
_0-1_計細線
  6
CONTINUOUS
 62
    3
 10
393.68050547506232
 20
724.42028985485797
 11
393.68050547506232
 21
710.42028985485797
  0
ARC
  8
_0-1_計細線
  6
CONTINUOUS
 62
    3
 10
390.68050547506232
 20
710.42028985485797
 40
3
 50
269.99999999999977
 51
359.99999999999966
  0
LINE
  8
_0-1_計細線
  6
CONTINUOUS
 62
    3
 10
379.6805057812237
 20
742.42028985485797
 11
391.68050547506232
 21
742.42028985485797
  0
LINE
  8
_0-1_計細線
  6
CONTINUOUS
 62
    3
 10
393.68050547506232
 20
740.42028985485797
 11
391.68050547506232
 21
742.42028985485797
  0
LINE
  8
_0-0_計極細
  6
CENTER1
 62
    2
 10
385.45451693352993
 20
746.07100928115381
 11
385.45451693352993
 21
703.87437328750809
  0
LINE
  8
_0-1_計細線
  6
CONTINUOUS
 62
    3
 10
841.6805057812237
 20
731.26086956087681
 11
839.6805057812237
 21
729.26086956087681
  0
LINE
  8
_0-1_計細線
  6
CONTINUOUS
 62
    3
 10
839.6805057812237
 20
719.26086956087681
 11
839.6805057812237
 21
729.26086956087681
  0
LINE
  8
_0-1_計細線
  6
CONTINUOUS
 62
    3
 10
855.68050547506232
 20
719.26086956087681
 11
855.68050547506232
 21
729.26086956087681
  0
LINE
  8
_0-1_計細線
  6
CONTINUOUS
 62
    3
 10
841.6805057812237
 20
715.26086956087681
 11
839.6805057812237
 21
713.26086956087681
  0
LINE
  8
_0-1_計細線
  6
CONTINUOUS
 62
    3
 10
841.6805057812237
 20
717.26086956087681
 11
841.6805057812237
 21
715.26086956087681
  0
LINE
  8
_0-1_計細線
  6
CONTINUOUS
 62
    3
 10
839.6805057812237
 20
719.26086956087681
 11
841.6805057812237
 21
717.26086956087681
  0
LINE
  8
_0-1_計細線
  6
CONTINUOUS
 62
    3
 10
853.68050547506232
 20
715.26086956087681
 11
855.68050547506232
 21
713.26086956087681
  0
LINE
  8
_0-1_計細線
  6
CONTINUOUS
 62
    3
 10
853.68050547506232
 20
717.26086956087681
 11
853.68050547506232
 21
715.26086956087681
  0
LINE
  8
_0-1_計細線
  6
CONTINUOUS
 62
    3
 10
855.68050547506232
 20
719.26086956087681
 11
853.68050547506232
 21
717.26086956087681
  0
LINE
  8
_0-1_計細線
  6
CONTINUOUS
 62
    3
 10
839.6805057812237
 20
713.26086956087681
 11
839.6805057812237
 21
699.26086956087681
  0
ARC
  8
_0-1_計細線
  6
CONTINUOUS
 62
    3
 10
842.6805057812237
 20
699.26086956087681
 40
3
 50
179.99999999999983
 51
269.99999999999977
  0
LINE
  8
_0-1_計細線
  6
CONTINUOUS
 62
    3
 10
842.6805057812237
 20
696.26086956087681
 11
852.68050547506232
 21
696.26086956087681
  0
LINE
  8
_0-1_計細線
  6
CONTINUOUS
 62
    3
 10
855.68050547506232
 20
713.26086956087681
 11
855.68050547506232
 21
699.26086956087681
  0
ARC
  8
_0-1_計細線
  6
CONTINUOUS
 62
    3
 10
852.68050547506232
 20
699.26086956087681
 40
3
 50
269.99999999999977
 51
359.99999999999966
  0
LINE
  8
_0-1_計細線
  6
CONTINUOUS
 62
    3
 10
841.6805057812237
 20
731.26086956087681
 11
853.68050547506232
 21
731.26086956087681
  0
LINE
  8
_0-1_計細線
  6
CONTINUOUS
 62
    3
 10
855.68050547506232
 20
729.26086956087681
 11
853.68050547506232
 21
731.26086956087681
  0
LINE
  8
_0-0_計極細
  6
CENTER1
 62
    2
 10
847.45451693352993
 20
734.91158898717265
 11
847.45451693352993
 21
692.71495299352694
  0
LINE
  8
_0-5_寸法線
  6
CONTINUOUS
 62
    7
 10
385.45451693352993
 20
707.42028985485797
 11
394.1798043538663
 21
694.00875156007157
  0
LINE
  8
_0-5_寸法線
  6
CONTINUOUS
 62
    7
 10
385.45451693352993
 20
707.42028985485797
 11
386.30506834746882
 21
691.44291327757696
  0
LINE
  8
_0-5_寸法線
  6
CONTINUOUS
 62
    7
 10
385.45451693352993
 20
707.42028985485797
 11
398.59507023820311
 21
667.09101853706909
  0
LINE
  8
_0-5_寸法線
  6
CONTINUOUS
 62
    7
 10
398.59507023820311
 20
667.09101853706909
 11
475.39507023820317
 21
667.09101853706909
  0
TEXT
  8
_0-5_寸法線
 62
    7
 10
398.59507023820311
 20
667.09101853706909
 40
24
 41
0.8000000000000001
 50
0
  1
アンカー
  0
LINE
  8
_0-1_計細線
  6
CONTINUOUS
 62
    3
 10
1333.4545169335299
 20
809.99999999999989
 11
1333.4545169335299
 21
711.99999999999989
  0
ARC
  8
_0-1_計細線
  6
CONTINUOUS
 62
    3
 10
1333.4545169335299
 20
809.99999999999989
 40
1
 50
89.999999999999915
 51
179.99999999999983
  0
LINE
  8
_0-1_計細線
  6
CONTINUOUS
 62
    3
 10
1343.4545169335299
 20
810.99999999999989
 11
1333.4545169335299
 21
810.99999999999989
  0
ARC
  8
_0-1_計細線
  6
CONTINUOUS
 62
    3
 10
1343.4545169335299
 20
809.99999999999989
 40
1
 50
0
 51
89.999999999999915
  0
LINE
  8
_0-1_計細線
  6
CONTINUOUS
 62
    3
 10
1344.4545169335299
 20
802.99999999999989
 11
1344.4545169335299
 21
809.99999999999989
  0
LINE
  8
_0-1_計細線
  6
CONTINUOUS
 62
    3
 10
1343.4545169335299
 20
802.99999999999989
 11
1344.4545169335299
 21
802.99999999999989
  0
LINE
  8
_0-1_計細線
  6
CONTINUOUS
 62
    3
 10
1343.4545169335299
 20
809.99999999999989
 11
1333.4545169335299
 21
809.99999999999989
  0
LINE
  8
_0-1_計細線
  6
CONTINUOUS
 62
    3
 10
1343.4545169335299
 20
802.99999999999989
 11
1343.4545169335299
 21
809.99999999999989
  0
LINE
  8
_0-1_計細線
  6
CONTINUOUS
 62
    3
 10
1333.4545169335299
 20
810.99999999999989
 11
351.45451693352993
 21
810.99999999999989
  0
LINE
  8
_0-1_計細線
  6
CONTINUOUS
 62
    3
 10
350.45451693352993
 20
802.99999999999989
 11
350.45451693352993
 21
809.99999999999989
  0
ARC
  8
_0-1_計細線
  6
CONTINUOUS
 62
    3
 10
351.45451693352993
 20
809.99999999999989
 40
1
 50
89.999999999999915
 51
179.99999999999983
  0
LINE
  8
_0-1_計細線
  6
CONTINUOUS
 62
    3
 10
377.6805057812237
 20
730.60806790208471
 11
362.43036938749469
 21
730.97642868467801
  0
LINE
  8
_0-1_計細線
  6
CONTINUOUS
 62
    3
 10
361.45451693352993
 20
731.97613709017457
 11
361.45451693352993
 21
802.99999999999989
  0
ARC
  8
_0-1_計細線
  6
CONTINUOUS
 62
    3
 10
362.45451693352993
 20
731.97613709017457
 40
1
 50
179.99999999999983
 51
268.61631303212988
  0
LINE
  8
_0-5_寸法線
  6
CONTINUOUS
 62
    7
 10
350.45451693352993
 20
826.99999999999989
 11
350.45451693352993
 21
898.99999999999989
  0
LINE
  8
_0-5_寸法線
  6
CONTINUOUS
 62
    7
 10
350.45451693352993
 20
890.99999999999989
 11
365.90933015415499
 21
895.1411047216402
  0
LINE
  8
_0-5_寸法線
  6
CONTINUOUS
 62
    7
 10
350.45451693352993
 20
890.99999999999989
 11
365.90933015415499
 21
886.85889527835957
  0
LINE
  8
_0-5_寸法線
  6
CONTINUOUS
 62
    7
 10
385.45451693352993
 20
826.99999999999989
 11
385.45451693352993
 21
898.99999999999989
  0
LINE
  8
_0-5_寸法線
  6
CONTINUOUS
 62
    7
 10
385.45451693352993
 20
890.99999999999989
 11
369.99970371290487
 21
886.85889527835957
  0
LINE
  8
_0-5_寸法線
  6
CONTINUOUS
 62
    7
 10
385.45451693352993
 20
890.99999999999989
 11
369.99970371290487
 21
895.14110472164032
  0
LINE
  8
_0-5_寸法線
  6
CONTINUOUS
 62
    7
 10
350.45451693352993
 20
890.99999999999989
 11
385.45451693352993
 21
890.99999999999989
  0
TEXT
  8
_0-5_寸法線
 62
    7
 10
355.95451693352993
 20
890.99999999999989
 40
24
 41
1
 50
0
  1
35
  0
LINE
  8
_0-5_寸法線
  6
CONTINUOUS
 62
    7
 10
385.45451693352993
 20
890.99999999999989
 11
400.90933015415499
 21
895.14110472164009
  0
LINE
  8
_0-5_寸法線
  6
CONTINUOUS
 62
    7
 10
385.45451693352993
 20
890.99999999999989
 11
400.90933015415499
 21
886.85889527835946
  0
LINE
  8
_0-5_寸法線
  6
CONTINUOUS
 62
    7
 10
1309.4545169335299
 20
826.99999999999989
 11
1309.4545169335299
 21
898.99999999999989
  0
LINE
  8
_0-5_寸法線
  6
CONTINUOUS
 62
    7
 10
1309.4545169335299
 20
890.99999999999989
 11
1293.9997037129049
 21
886.85889527835957
  0
LINE
  8
_0-5_寸法線
  6
CONTINUOUS
 62
    7
 10
1309.4545169335299
 20
890.99999999999989
 11
1293.9997037129049
 21
895.14110472164032
  0
LINE
  8
_0-5_寸法線
  6
CONTINUOUS
 62
    7
 10
385.45451693352993
 20
890.99999999999989
 11
1309.4545169335299
 21
890.99999999999989
  0
TEXT
  8
_0-5_寸法線
 62
    7
 10
787.45451693352993
 20
890.99999999999989
 40
24
 41
1
 50
0
  1
Ｄ＝Ｎ×Ｅ
  0
LINE
  8
_0-5_寸法線
  6
CONTINUOUS
 62
    7
 10
1309.4545169335299
 20
890.99999999999989
 11
1324.909330154155
 21
895.14110472164009
  0
LINE
  8
_0-5_寸法線
  6
CONTINUOUS
 62
    7
 10
1309.4545169335299
 20
890.99999999999989
 11
1324.909330154155
 21
886.85889527835946
  0
LINE
  8
_0-5_寸法線
  6
CONTINUOUS
 62
    7
 10
1344.4545169335299
 20
826.99999999999989
 11
1344.4545169335299
 21
898.99999999999989
  0
LINE
  8
_0-5_寸法線
  6
CONTINUOUS
 62
    7
 10
1344.4545169335299
 20
890.99999999999989
 11
1328.9997037129049
 21
886.85889527835957
  0
LINE
  8
_0-5_寸法線
  6
CONTINUOUS
 62
    7
 10
1344.4545169335299
 20
890.99999999999989
 11
1328.9997037129049
 21
895.14110472164032
  0
LINE
  8
_0-5_寸法線
  6
CONTINUOUS
 62
    7
 10
1309.4545169335299
 20
890.99999999999989
 11
1344.4545169335299
 21
890.99999999999989
  0
TEXT
  8
_0-5_寸法線
 62
    7
 10
1314.9545169335299
 20
890.99999999999989
 40
24
 41
1
 50
0
  1
35
  0
LINE
  8
_0-5_寸法線
  6
CONTINUOUS
 62
    7
 10
345.45451693352993
 20
730.99999999999989
 11
262.45451693352993
 21
731.00000000000011
  0
LINE
  8
_0-5_寸法線
  6
CONTINUOUS
 62
    7
 10
270.45451693352993
 20
731.00000000000011
 11
266.31341221188961
 21
746.45481322062517
  0
LINE
  8
_0-5_寸法線
  6
CONTINUOUS
 62
    7
 10
270.45451693352993
 20
731.00000000000011
 11
274.59562165517036
 21
746.45481322062517
  0
LINE
  8
_0-5_寸法線
  6
CONTINUOUS
 62
    7
 10
334.45451693352993
 20
810.99999999999989
 11
262.45451693352993
 21
811.00000000000011
  0
LINE
  8
_0-5_寸法線
  6
CONTINUOUS
 62
    7
 10
270.45451693352993
 20
811.00000000000011
 11
274.59562165517036
 21
795.54518677937506
  0
LINE
  8
_0-5_寸法線
  6
CONTINUOUS
 62
    7
 10
270.45451693352993
 20
811.00000000000011
 11
266.31341221188961
 21
795.54518677937506
  0
LINE
  8
_0-5_寸法線
  6
CONTINUOUS
 62
    7
 10
270.45451693352993
 20
731.00000000000011
 11
270.45451693352993
 21
811.00000000000011
  0
TEXT
  8
_0-5_寸法線
 62
    7
 10
270.45451693352993
 20
759
 40
24
 41
1
 50
90
  1
80
  0
LINE
  8
_0-0_計極細
  6
CONTINUOUS
 62
    2
 10
1304.2045169335295
 20
701.81317600000045
 11
1304.2045169335295
 21
701.31317600000045
  0
LINE
  8
_0-0_計極細
  6
DASHED2
 62
    2
 10
1309.4545169335299
 20
726.65071942629572
 11
1309.4545169335299
 21
684.45408343265001
  0
LINE
  8
_0-1_計細線
  6
DASHED2
 62
    3
 10
1317.6805054750614
 20
720.99999999999989
 11
1315.6805054750614
 21
722.99999999999989
  0
LINE
  8
_0-1_計細線
  6
DASHED2
 62
    3
 10
1303.6805057812232
 20
722.99999999999989
 11
1315.6805054750614
 21
722.99999999999989
  0
ARC
  8
_0-1_計細線
  6
DASHED2
 62
    3
 10
1314.6805054750614
 20
690.99999999999989
 40
3
 50
269.99999999999977
 51
359.99999999999966
  0
LINE
  8
_0-1_計細線
  6
DASHED2
 62
    3
 10
1317.6805054750614
 20
704.99999999999989
 11
1317.6805054750614
 21
690.99999999999989
  0
LINE
  8
_0-1_計細線
  6
DASHED2
 62
    3
 10
1304.6805057812232
 20
687.99999999999989
 11
1314.6805054750614
 21
687.99999999999989
  0
ARC
  8
_0-1_計細線
  6
DASHED2
 62
    3
 10
1304.6805057812232
 20
690.99999999999989
 40
3
 50
179.99999999999983
 51
269.99999999999977
  0
LINE
  8
_0-1_計細線
  6
DASHED2
 62
    3
 10
1301.6805057812232
 20
704.99999999999989
 11
1301.6805057812232
 21
690.99999999999989
  0
LINE
  8
_0-1_計細線
  6
DASHED2
 62
    3
 10
1317.6805054750614
 20
710.99999999999989
 11
1315.6805054750614
 21
708.99999999999989
  0
LINE
  8
_0-1_計細線
  6
DASHED2
 62
    3
 10
1315.6805054750614
 20
708.99999999999989
 11
1315.6805054750614
 21
706.99999999999989
  0
LINE
  8
_0-1_計細線
  6
DASHED2
 62
    3
 10
1315.6805054750614
 20
706.99999999999989
 11
1317.6805054750614
 21
704.99999999999989
  0
LINE
  8
_0-1_計細線
  6
DASHED2
 62
    3
 10
1301.6805057812232
 20
710.99999999999989
 11
1303.6805057812232
 21
708.99999999999989
  0
LINE
  8
_0-1_計細線
  6
DASHED2
 62
    3
 10
1303.6805057812232
 20
708.99999999999989
 11
1303.6805057812232
 21
706.99999999999989
  0
LINE
  8
_0-1_計細線
  6
DASHED2
 62
    3
 10
1303.6805057812232
 20
706.99999999999989
 11
1301.6805057812232
 21
704.99999999999989
  0
LINE
  8
_0-1_計細線
  6
DASHED2
 62
    3
 10
1317.6805054750614
 20
710.99999999999989
 11
1317.6805054750614
 21
720.99999999999989
  0
LINE
  8
_0-1_計細線
  6
DASHED2
 62
    3
 10
1301.6805057812232
 20
710.99999999999989
 11
1301.6805057812232
 21
720.99999999999989
  0
LINE
  8
_0-1_計細線
  6
DASHED2
 62
    3
 10
1303.6805057812232
 20
722.99999999999989
 11
1301.6805057812232
 21
720.99999999999989
  0
LINE
  8
_0-5_寸法線
  6
CONTINUOUS
 62
    7
 10
1307.9545169335295
 20
569.99999999999977
 11
1488.4545169335299
 21
569.99999999999784
  0
LINE
  8
_0-5_寸法線
  6
CONTINUOUS
 62
    7
 10
1480.4545169335299
 20
569.99999999999795
 11
1476.3134122118897
 21
585.45481322062301
  0
LINE
  8
_0-5_寸法線
  6
CONTINUOUS
 62
    7
 10
1480.4545169335299
 20
569.99999999999795
 11
1484.5956216551704
 21
585.45481322062301
  0
LINE
  8
_0-5_寸法線
  6
CONTINUOUS
 62
    7
 10
1360.4545169335299
 20
810.99999999999989
 11
1488.4545169335299
 21
810.99999999999943
  0
LINE
  8
_0-5_寸法線
  6
CONTINUOUS
 62
    7
 10
1480.4545169335299
 20
810.99999999999943
 11
1484.5956216551704
 21
795.54518677937438
  0
LINE
  8
_0-5_寸法線
  6
CONTINUOUS
 62
    7
 10
1480.4545169335299
 20
810.99999999999943
 11
1476.3134122118897
 21
795.54518677937438
  0
LINE
  8
_0-5_寸法線
  6
CONTINUOUS
 62
    7
 10
1480.4545169335299
 20
569.99999999999795
 11
1480.4545169335299
 21
810.99999999999943
  0
TEXT
  8
_0-5_寸法線
 62
    7
 10
1480.4545169335299
 20
672.49999999999818
 40
24
 41
1
 50
90
  1
241
  0
LINE
  8
_0-5_寸法線
  6
CONTINUOUS
 62
    7
 10
1307.9545169335295
 20
569.99999999999977
 11
1432.4545169335299
 21
569.99999999999841
  0
LINE
  8
_0-5_寸法線
  6
CONTINUOUS
 62
    7
 10
1424.4545169335299
 20
569.99999999999852
 11
1420.3134122118897
 21
585.45481322062358
  0
LINE
  8
_0-5_寸法線
  6
CONTINUOUS
 62
    7
 10
1424.4545169335299
 20
569.99999999999852
 11
1428.5956216551704
 21
585.45481322062358
  0
LINE
  8
_0-5_寸法線
  6
CONTINUOUS
 62
    7
 10
1349.4545169335299
 20
710.99999999999977
 11
1432.4545169335299
 21
710.99999999999955
  0
LINE
  8
_0-5_寸法線
  6
CONTINUOUS
 62
    7
 10
1424.4545169335299
 20
710.99999999999955
 11
1428.5956216551704
 21
695.54518677937449
  0
LINE
  8
_0-5_寸法線
  6
CONTINUOUS
 62
    7
 10
1424.4545169335299
 20
710.99999999999955
 11
1420.3134122118897
 21
695.54518677937449
  0
LINE
  8
_0-5_寸法線
  6
CONTINUOUS
 62
    7
 10
1424.4545169335299
 20
569.99999999999852
 11
1424.4545169335299
 21
710.99999999999955
  0
TEXT
  8
_0-5_寸法線
 62
    7
 10
1424.4545169335299
 20
622.49999999999886
 40
24
 41
1
 50
90
  1
141
  0
LINE
  8
_0-5_寸法線
  6
CONTINUOUS
 62
    7
 10
1349.4545169335299
 20
710.99999999999977
 11
1432.4545169335299
 21
710.99999999999955
  0
LINE
  8
_0-5_寸法線
  6
CONTINUOUS
 62
    7
 10
1424.4545169335299
 20
710.99999999999955
 11
1420.3134122118897
 21
726.4548132206246
  0
LINE
  8
_0-5_寸法線
  6
CONTINUOUS
 62
    7
 10
1424.4545169335299
 20
710.99999999999955
 11
1428.5956216551704
 21
726.4548132206246
  0
LINE
  8
_0-5_寸法線
  6
CONTINUOUS
 62
    7
 10
1360.4545169335299
 20
810.99999999999989
 11
1432.4545169335299
 21
810.99999999999966
  0
LINE
  8
_0-5_寸法線
  6
CONTINUOUS
 62
    7
 10
1424.4545169335299
 20
810.99999999999966
 11
1428.5956216551704
 21
795.5451867793746
  0
LINE
  8
_0-5_寸法線
  6
CONTINUOUS
 62
    7
 10
1424.4545169335299
 20
810.99999999999966
 11
1420.3134122118897
 21
795.5451867793746
  0
LINE
  8
_0-5_寸法線
  6
CONTINUOUS
 62
    7
 10
1424.4545169335299
 20
710.99999999999955
 11
1424.4545169335299
 21
810.99999999999966
  0
TEXT
  8
_0-5_寸法線
 62
    7
 10
1424.4545169335299
 20
742.99999999999886
 40
24
 41
1
 50
90
  1
100
  0
LINE
  8
_0-5_寸法線
  6
CONTINUOUS
 62
    7
 10
1232.9271264861516
 20
659.45263168688541
 11
1228.7860217645114
 21
643.99781846626024
  0
LINE
  8
_0-5_寸法線
  6
CONTINUOUS
 62
    7
 10
1232.9271264861516
 20
659.45263168688541
 11
1221.6134179871669
 21
648.13892318790056
  0
LINE
  8
_0-5_寸法線
  6
CONTINUOUS
 62
    7
 10
1232.9271264861516
 20
659.45263168688541
 11
1181.7049094699494
 21
570.73314933850168
  0
LINE
  8
_0-5_寸法線
  6
CONTINUOUS
 62
    7
 10
1181.7049094699494
 20
570.73314933850168
 11
970.50490946994944
 21
570.73314933850259
  0
TEXT
  8
_0-5_寸法線
 62
    7
 10
970.50490946994933
 20
570.73314933850168
 40
24
 41
0.8000000000000001
 50
0
  1
縦引き排水トラップ一式
  0
LINE
  8
_0-5_寸法線
  6
CONTINUOUS
 62
    7
 10
1226.2045169335292
 20
558.99999999999989
 11
1226.2045169335283
 21
425.99999999999989
  0
LINE
  8
_0-5_寸法線
  6
CONTINUOUS
 62
    7
 10
1226.2045169335283
 20
433.99999999999989
 11
1241.6593301541534
 21
438.1411047216402
  0
LINE
  8
_0-5_寸法線
  6
CONTINUOUS
 62
    7
 10
1226.2045169335283
 20
433.99999999999989
 11
1241.6593301541534
 21
429.85889527835957
  0
LINE
  8
_0-5_寸法線
  6
CONTINUOUS
 62
    7
 10
1302.7045169335292
 20
558.99999999999989
 11
1302.7045169335283
 21
425.99999999999989
  0
LINE
  8
_0-5_寸法線
  6
CONTINUOUS
 62
    7
 10
1302.7045169335283
 20
433.99999999999989
 11
1287.2497037129033
 21
429.85889527835963
  0
LINE
  8
_0-5_寸法線
  6
CONTINUOUS
 62
    7
 10
1302.7045169335283
 20
433.99999999999989
 11
1287.2497037129033
 21
438.14110472164026
  0
LINE
  8
_0-5_寸法線
  6
CONTINUOUS
 62
    7
 10
1226.2045169335283
 20
433.99999999999989
 11
1302.7045169335283
 21
433.99999999999989
  0
TEXT
  8
_0-5_寸法線
 62
    7
 10
1234.4545169335283
 20
433.99999999999989
 40
24
 41
1
 50
0
  1
VU-65
  0
LINE
  8
_0-5_寸法線
  6
CONTINUOUS
 62
    7
 10
1223.3545169335291
 20
558.99999999999989
 11
1223.354516933528
 21
369.99999999999989
  0
LINE
  8
_0-5_寸法線
  6
CONTINUOUS
 62
    7
 10
1223.354516933528
 20
377.99999999999989
 11
1238.809330154153
 21
382.1411047216402
  0
LINE
  8
_0-5_寸法線
  6
CONTINUOUS
 62
    7
 10
1223.354516933528
 20
377.99999999999989
 11
1238.809330154153
 21
373.85889527835957
  0
LINE
  8
_0-5_寸法線
  6
CONTINUOUS
 62
    7
 10
1305.5545169335296
 20
558.99999999999989
 11
1305.554516933528
 21
369.99999999999989
  0
LINE
  8
_0-5_寸法線
  6
CONTINUOUS
 62
    7
 10
1305.554516933528
 20
377.99999999999989
 11
1290.099703712903
 21
373.85889527835963
  0
LINE
  8
_0-5_寸法線
  6
CONTINUOUS
 62
    7
 10
1305.554516933528
 20
377.99999999999989
 11
1290.099703712903
 21
382.14110472164026
  0
LINE
  8
_0-5_寸法線
  6
CONTINUOUS
 62
    7
 10
1223.354516933528
 20
377.99999999999989
 11
1305.554516933528
 21
377.99999999999989
  0
TEXT
  8
_0-5_寸法線
 62
    7
 10
1234.4545169335281
 20
377.99999999999989
 40
24
 41
1
 50
0
  1
VU-75
  0
LINE
  8
_0-5_寸法線
  6
CONTINUOUS
 62
    7
 10
1236.9545169335295
 20
553.99999999999989
 11
1236.9545169335295
 21
481.99999999999989
  0
LINE
  8
_0-5_寸法線
  6
CONTINUOUS
 62
    7
 10
1236.9545169335295
 20
489.99999999999989
 11
1252.4093301541545
 21
494.1411047216402
  0
LINE
  8
_0-5_寸法線
  6
CONTINUOUS
 62
    7
 10
1236.9545169335295
 20
489.99999999999989
 11
1252.4093301541545
 21
485.85889527835957
  0
LINE
  8
_0-5_寸法線
  6
CONTINUOUS
 62
    7
 10
1291.9545169335292
 20
553.99999999999989
 11
1291.9545169335288
 21
481.99999999999989
  0
LINE
  8
_0-5_寸法線
  6
CONTINUOUS
 62
    7
 10
1291.9545169335288
 20
489.99999999999989
 11
1276.4997037129037
 21
485.85889527835963
  0
LINE
  8
_0-5_寸法線
  6
CONTINUOUS
 62
    7
 10
1291.9545169335288
 20
489.99999999999989
 11
1276.4997037129037
 21
494.14110472164026
  0
LINE
  8
_0-5_寸法線
  6
CONTINUOUS
 62
    7
 10
1236.9545169335295
 20
489.99999999999989
 11
1291.9545169335288
 21
489.99999999999989
  0
TEXT
  8
_0-5_寸法線
 62
    7
 10
1234.4545169335295
 20
489.99999999999989
 40
24
 41
1
 50
0
  1
VU-50
  0
LINE
  8
_0-0_計極細
  6
CENTER1
 62
    2
 10
1264.4545169335299
 20
1184.0933182138194
 11
1264.4545169335299
 21
565.6542572416472
  0
LINE
  8
_0-1_計細線
  6
CONTINUOUS
 62
    3
 10
1317.4545169335299
 20
685.49999999999989
 11
1317.4545169335299
 21
693.49999999999989
  0
ARC
  8
_0-1_計細線
  6
CONTINUOUS
 62
    3
 10
1319.9545169335299
 20
681.16987200000028
 40
5
 50
119.99999999999989
 51
179.99999999999983
  0
LINE
  8
_0-1_計細線
  6
CONTINUOUS
 62
    3
 10
1305.5545169335298
 20
574.99999999999989
 11
1305.9545169335295
 21
599.99999999999989
  0
LINE
  8
_0-1_計細線
  6
CONTINUOUS
 62
    3
 10
1305.9545169335295
 20
599.99999999999989
 11
1306.9545169335295
 21
599.99999999999989
  0
ARC
  8
_0-1_計細線
  6
CONTINUOUS
 62
    3
 10
1306.9545169335295
 20
607.99999999999989
 40
8
 50
269.99999999999977
 51
359.99999999999966
  0
LINE
  8
_0-1_計細線
  6
CONTINUOUS
 62
    3
 10
1292.0378449335301
 20
574.99999999999989
 11
1305.5545169335298
 21
574.99999999999989
  0
LINE
  8
_0-1_計細線
  6
CONTINUOUS
 62
    3
 10
1314.9545169335299
 20
607.99999999999989
 11
1314.9545169335299
 21
681.16987200000028
  0
LINE
  8
_0-1_計細線
  6
CONTINUOUS
 62
    3
 10
1264.4545169335295
 20
693.49999999999989
 11
1262.4545169335295
 21
693.49999999999989
  0
LINE
  8
_0-1_計細線
  6
CONTINUOUS
 62
    3
 10
1262.4545169335295
 20
693.49999999999989
 11
1262.4545169335295
 21
703.49999999999989
  0
LINE
  8
_0-1_計細線
  6
CONTINUOUS
 62
    3
 10
1238.9545169335295
 20
693.49999999999989
 11
1238.9545169335295
 21
703.49999999999989
  0
LINE
  8
_0-1_計細線
  6
CONTINUOUS
 62
    3
 10
1211.4545169335295
 20
685.49999999999989
 11
1211.4545169335295
 21
703.49999999999989
  0
ARC
  8
_0-1_計細線
  6
CONTINUOUS
 62
    3
 10
1208.9545169335295
 20
681.16987200000028
 40
5
 50
0
 51
60.000000000000107
  0
LINE
  8
_0-1_計細線
  6
CONTINUOUS
 62
    3
 10
1234.9545169335295
 20
693.49999999999989
 11
1234.9545169335295
 21
703.49999999999989
  0
LINE
  8
_0-1_計細線
  6
CONTINUOUS
 62
    3
 10
1264.4545169335295
 20
685.49999999999989
 11
1211.4545169335295
 21
685.49999999999989
  0
LINE
  8
_0-1_計細線
  6
CONTINUOUS
 62
    3
 10
1238.9545169335295
 20
693.49999999999989
 11
1234.9545169335295
 21
693.49999999999989
  0
LINE
  8
_0-1_計細線
  6
CONTINUOUS
 62
    3
 10
1223.3545169335291
 20
574.99999999999989
 11
1222.9545169335295
 21
599.99999999999989
  0
ARC
  8
_0-1_計細線
  6
CONTINUOUS
 62
    3
 10
1221.9545169335295
 20
607.99999999999989
 40
8
 50
179.99999999999983
 51
269.99999999999977
  0
LINE
  8
_0-1_計細線
  6
CONTINUOUS
 62
    3
 10
1264.4545169335295
 20
574.99999999999989
 11
1223.3545169335291
 21
574.99999999999989
  0
LINE
  8
_0-1_計細線
  6
CONTINUOUS
 62
    3
 10
1264.4545169335295
 20
599.99999999999989
 11
1221.9545169335295
 21
599.99999999999989
  0
LINE
  8
_0-1_計細線
  6
CONTINUOUS
 62
    3
 10
1213.9545169335295
 20
607.99999999999989
 11
1213.9545169335295
 21
681.16987200000028
  0
LINE
  8
_0-1_計細線
  6
CONTINUOUS
 62
    3
 10
1264.4545169335295
 20
569.99999999999989
 11
1236.9545169335295
 21
569.99999999999989
  0
LINE
  8
_0-1_計細線
  6
CONTINUOUS
 62
    3
 10
1264.4545169335295
 20
569.99999999999989
 11
1291.9545169335295
 21
569.99999999999989
  0
LINE
  8
_0-1_計細線
  6
CONTINUOUS
 62
    3
 10
1236.9545169335295
 20
569.99999999999989
 11
1236.8711809335298
 21
574.99999999999989
  0
LINE
  8
_0-0_計極細
  6
CONTINUOUS
 62
    2
 10
1312.9545169335299
 20
688.49999999999989
 11
1312.9545169335299
 21
691.40706399999988
  0
LINE
  8
_0-0_計極細
  6
CONTINUOUS
 62
    2
 10
1314.4335169335311
 20
687.6999999999997
 11
1312.9545169335299
 21
688.49999999999989
  0
LINE
  8
_0-0_計極細
  6
CONTINUOUS
 62
    2
 10
1304.7045169335295
 20
695.40706399999988
 11
1308.754516933531
 21
695.40706399999988
  0
LINE
  8
_0-0_計極細
  6
CONTINUOUS
 62
    2
 10
1311.6957409335294
 20
706.40706399999988
 11
1310.504516933531
 21
706.40706399999988
  0
LINE
  8
_0-0_計極細
  6
CONTINUOUS
 62
    2
 10
1308.754516933531
 20
694.10706400000061
 11
1308.754516933531
 21
704.65706399999988
  0
ARC
  8
_0-0_計極細
  6
CONTINUOUS
 62
    2
 10
1310.504516933531
 20
704.65706399999988
 40
1.75
 50
89.999999999999915
 51
179.99999999999983
  0
ARC
  8
_0-0_計極細
  6
CONTINUOUS
 62
    2
 10
1314.4335169335311
 20
707.15706399999988
 40
1.75
 50
89.999999999999915
 51
173.71630243580054
  0
ARC
  8
_0-0_計極細
  6
CONTINUOUS
 62
    2
 10
1311.6957409335294
 20
707.40706399999988
 40
1
 50
269.99999999999977
 51
356.64911199999977
  0
ARC
  8
_0-0_計極細
  6
CONTINUOUS
 62
    2
 10
1314.4335169335311
 20
707.15706399999988
 40
1.05
 50
89.999999999999915
 51
172.98761645885341
  0
ARC
  8
_0-0_計極細
  6
CONTINUOUS
 62
    2
 10
1311.6957409335294
 20
707.40706399999988
 40
1.7
 50
269.99999999999977
 51
355.89100209803809
  0
LINE
  8
_0-0_計極細
  6
CONTINUOUS
 62
    2
 10
1311.6957409335294
 20
705.70706400000006
 11
1310.504516933531
 21
705.70706400000006
  0
ARC
  8
_0-0_計極細
  6
CONTINUOUS
 62
    2
 10
1310.504516933531
 20
704.65706399999988
 40
1.05
 50
89.999999999999915
 51
179.99999999999983
  0
LINE
  8
_0-0_計極細
  6
CONTINUOUS
 62
    2
 10
1309.4545169335299
 20
693.40706399999988
 11
1309.4545169335299
 21
704.65706399999988
  0
LINE
  8
_0-0_計極細
  6
CONTINUOUS
 62
    2
 10
1314.4335169335311
 20
692.88606400000015
 11
1314.4335169335311
 21
708.20706400000006
  0
LINE
  8
_0-0_計極細
  6
CONTINUOUS
 62
    2
 10
1314.4335169335311
 20
692.88606400000015
 11
1312.9545169335299
 21
691.40706399999988
  0
LINE
  8
_0-0_計極細
  6
CONTINUOUS
 62
    2
 10
1307.4545169335295
 20
689.40706399999988
 11
1307.4545169335295
 21
695.40706399999988
  0
LINE
  8
_0-0_計極細
  6
CONTINUOUS
 62
    2
 10
1305.2045169335295
 20
691.5078400000001
 11
1305.2045169335295
 21
695.40706399999988
  0
LINE
  8
_0-0_計極細
  6
CONTINUOUS
 62
    2
 10
1307.4545169335295
 20
693.40706399999988
 11
1309.4545169335299
 21
693.40706399999988
  0
LINE
  8
_0-0_計極細
  6
CONTINUOUS
 62
    2
 10
1307.4545169335295
 20
694.10706400000061
 11
1308.754516933531
 21
694.10706400000061
  0
LINE
  8
_0-0_計極細
  6
CONTINUOUS
 62
    2
 10
1306.6243329335291
 20
689.40706399999988
 11
1307.4545169335295
 21
689.40706399999988
  0
LINE
  8
_0-0_計極細
  6
CONTINUOUS
 62
    2
 10
1307.4545169335295
 20
691.40706399999988
 11
1312.9545169335299
 21
691.40706399999988
  0
LINE
  8
_0-0_計極細
  6
CONTINUOUS
 62
    2
 10
1308.754516933531
 20
706.40706399999988
 11
1310.7045169335299
 21
706.40706399999988
  0
LINE
  8
_0-0_計極細
  6
CONTINUOUS
 62
    2
 10
1308.754516933531
 20
703.40706399999988
 11
1308.754516933531
 21
706.40706399999988
  0
LINE
  8
_0-0_計極細
  6
CONTINUOUS
 62
    2
 10
1307.6545169335302
 20
702.90706399999988
 11
1307.6545169335302
 21
703.90706399999988
  0
ARC
  8
_0-0_計極細
  6
CONTINUOUS
 62
    2
 10
1308.254516933531
 20
703.40706399999988
 40
0.5
 50
269.99999999999977
 51
359.99999999999966
  0
LINE
  8
_0-0_計極細
  6
CONTINUOUS
 62
    2
 10
1307.8045169335298
 20
700.31317600000045
 11
1308.6045169335296
 21
701.81317600000045
  0
LINE
  8
_0-0_計極細
  6
CONTINUOUS
 62
    2
 10
1303.7045169335295
 20
698.51317600000027
 11
1304.2045169335295
 21
699.01317600000027
  0
LINE
  8
_0-0_計極細
  6
CONTINUOUS
 62
    2
 10
1304.2045169335295
 20
698.01317600000027
 11
1303.7045169335295
 21
698.51317600000027
  0
LINE
  8
_0-0_計極細
  6
CONTINUOUS
 62
    2
 10
1304.2045169335295
 20
700.31317600000045
 11
1303.7045169335295
 21
700.81317600000045
  0
LINE
  8
_0-0_計極細
  6
CONTINUOUS
 62
    2
 10
1303.7045169335295
 20
700.81317600000045
 11
1304.2045169335295
 21
701.31317600000045
  0
LINE
  8
_0-0_計極細
  6
CONTINUOUS
 62
    2
 10
1307.8045169335298
 20
700.31317600000045
 11
1307.8045169335298
 21
697.51317600000027
  0
LINE
  8
_0-0_計極細
  6
CONTINUOUS
 62
    2
 10
1304.2045169335295
 20
698.01317600000027
 11
1304.2045169335295
 21
697.51317600000027
  0
LINE
  8
_0-0_計極細
  6
CONTINUOUS
 62
    2
 10
1304.2045169335295
 20
700.31317600000045
 11
1304.2045169335295
 21
699.01317600000027
  0
ARC
  8
_0-0_計極細
  6
CONTINUOUS
 62
    2
 10
1304.9545169335295
 20
690.5078400000001
 40
2
 50
269.99999999999977
 51
359.99999999999966
  0
LINE
  8
_0-0_計極細
  6
CONTINUOUS
 62
    2
 10
1306.9545169335295
 20
690.5078400000001
 11
1306.9545169335295
 21
691.5078400000001
  0
LINE
  8
_0-0_計極細
  6
CONTINUOUS
 62
    2
 10
1306.9545169335295
 20
691.5078400000001
 11
1304.7045169335295
 21
691.5078400000001
  0
LINE
  8
_0-0_計極細
  6
CONTINUOUS
 62
    2
 10
1307.9545169335299
 20
695.90784000000065
 11
1307.9545169335299
 21
697.40784000000065
  0
LINE
  8
_0-0_計極細
  6
CONTINUOUS
 62
    2
 10
1307.9545169335299
 20
702.0078400000001
 11
1307.9545169335299
 21
702.90706399999988
  0
LINE
  8
_0-0_計極細
  6
CONTINUOUS
 62
    2
 10
1304.7045169335295
 20
691.5078400000001
 11
1304.7045169335295
 21
695.90784000000065
  0
ARC
  8
_0-0_計極細
  6
CONTINUOUS
 62
    2
 10
1302.7045169335295
 20
681.49999999999989
 40
1
 50
89.999999999999915
 51
179.99999999999983
  0
LINE
  8
_0-0_計極細
  6
CONTINUOUS
 62
    2
 10
1302.7045169335295
 20
682.49999999999989
 11
1291.4545169335295
 21
682.49999999999989
  0
LINE
  8
_0-0_計極細
  6
CONTINUOUS
 62
    2
 10
1292.0116769335298
 20
691.40706399999988
 11
1301.9528209335301
 21
691.40706399999988
  0
LINE
  8
_0-0_計極細
  6
CONTINUOUS
 62
    2
 10
1294.2408289335297
 20
689.70706400000006
 11
1299.2408289335297
 21
689.70706400000006
  0
LINE
  8
_0-0_計極細
  6
CONTINUOUS
 62
    2
 10
1294.2408289335297
 20
689.70706400000006
 11
1294.2408289335297
 21
691.40706399999988
  0
LINE
  8
_0-0_計極細
  6
CONTINUOUS
 62
    2
 10
1299.2408289335297
 20
689.70706400000006
 11
1299.2408289335297
 21
691.40706399999988
  0
LINE
  8
_0-0_計極細
  6
CONTINUOUS
 62
    2
 10
1295.7408289335297
 20
689.70706400000006
 11
1295.7408289335297
 21
691.40706399999988
  0
ARC
  8
_0-0_計極細
  6
CONTINUOUS
 62
    2
 10
1297.4545169335295
 20
688.88208800000018
 40
6
 50
55.166294000000143
 51
179.99999999999983
  0
ARC
  8
_0-0_計極細
  6
CONTINUOUS
 62
    2
 10
1298.9545169335295
 20
691.5078400000001
 40
3
 50
0
 51
50.029503000001569
  0
LINE
  8
_0-0_計極細
  6
CONTINUOUS
 62
    2
 10
1301.9545169335295
 20
688.5078400000001
 11
1301.9545169335295
 21
691.5078400000001
  0
ARC
  8
_0-0_計極細
  6
CONTINUOUS
 62
    2
 10
1302.7045169335295
 20
681.49999999999989
 40
1
 50
0
 51
89.999999999999915
  0
LINE
  8
_0-0_計極細
  6
CONTINUOUS
 62
    2
 10
1304.9545169335295
 20
688.5078400000001
 11
1301.9545169335295
 21
688.5078400000001
  0
LINE
  8
_0-0_計極細
  6
CONTINUOUS
 62
    2
 10
1291.4545169335295
 20
688.49999999999989
 11
1312.9545169335299
 21
688.49999999999989
  0
LINE
  8
_0-0_計極細
  6
CONTINUOUS
 62
    2
 10
1291.35738893353
 20
687.6999999999997
 11
1314.4335169335311
 21
687.6999999999997
  0
LINE
  8
_0-0_計極細
  6
CONTINUOUS
 62
    2
 10
1303.7045169335295
 20
624.49999999999989
 11
1303.7045169335295
 21
651.49999999999989
  0
ARC
  8
_0-0_計極細
  6
CONTINUOUS
 62
    2
 10
1311.4545169335299
 20
661.42156800000055
 40
1
 50
277.18075599995041
 51
359.99999999999966
  0
LINE
  8
_0-0_計極細
  6
CONTINUOUS
 62
    2
 10
1303.7045169335295
 20
660.42940799999985
 11
1311.5795169335299
 21
660.42940799999985
  0
ARC
  8
_0-0_計極細
  6
CONTINUOUS
 62
    2
 10
1290.4545169335295
 20
632.70783999999992
 40
1
 50
269.99999999999977
 51
359.99999999999966
  0
ARC
  8
_0-0_計極細
  6
CONTINUOUS
 62
    2
 10
1290.4545009335295
 20
632.70783999999992
 40
1
 50
179.99999999999983
 51
269.99999999999977
  0
LINE
  8
_0-0_計極細
  6
CONTINUOUS
 62
    2
 10
1291.4460449335299
 20
632.57806400000015
 11
1291.4460609335299
 21
632.57808000000011
  0
ARC
  8
_0-0_計極細
  6
CONTINUOUS
 62
    2
 10
1304.4545169335295
 20
610.49999999999989
 40
8
 50
269.99999999999977
 51
359.99999999999966
  0
LINE
  8
_0-0_計極細
  6
CONTINUOUS
 62
    2
 10
1292.4545169335295
 20
599.99999999999989
 11
1302.4545169335295
 21
599.99999999999989
  0
LINE
  8
_0-0_計極細
  6
CONTINUOUS
 62
    2
 10
1289.45609293353
 20
602.3973279999999
 11
1289.4545169335295
 21
602.49999999999989
  0
LINE
  8
_0-0_計極細
  6
CONTINUOUS
 62
    2
 10
1291.7045169335295
 20
612.49999999999989
 11
1289.4545169335295
 21
612.49999999999989
  0
LINE
  8
_0-0_計極細
  6
CONTINUOUS
 62
    2
 10
1289.4545169335295
 20
602.49999999999989
 11
1289.4545169335295
 21
612.49999999999989
  0
LINE
  8
_0-0_計極細
  6
CONTINUOUS
 62
    2
 10
1302.7045169335295
 20
574.99999999999989
 11
1302.4545169335295
 21
599.99999999999989
  0
LINE
  8
_0-0_計極細
  6
CONTINUOUS
 62
    2
 10
1304.4545169335295
 20
602.49999999999989
 11
1289.4545169335295
 21
602.49999999999989
  0
LINE
  8
_0-0_計極細
  6
CONTINUOUS
 62
    2
 10
1312.4545169335299
 20
610.49999999999989
 11
1312.4545169335299
 21
661.42156800000055
  0
ARC
  8
_0-0_計極細
  6
CONTINUOUS
 62
    2
 10
1291.7045169335295
 20
624.49999999999989
 40
12
 50
269.99999999999977
 51
359.99999999999966
  0
ARC
  8
_0-0_計極細
  6
CONTINUOUS
 62
    2
 10
1291.7045169335295
 20
624.49999999999989
 40
10
 50
269.99999999999977
 51
359.99999999999966
  0
LINE
  8
_0-0_計極細
  6
CONTINUOUS
 62
    2
 10
1312.4545169335299
 20
661.42156800000055
 11
1312.4545169335299
 21
687.6999999999997
  0
LINE
  8
_0-0_計極細
  6
CONTINUOUS
 62
    2
 10
1303.7045169335295
 20
624.49999999999989
 11
1303.7045169335295
 21
681.49999999999989
  0
LINE
  8
_0-0_計極細
  6
CONTINUOUS
 62
    2
 10
1301.7045169335295
 20
624.49999999999989
 11
1301.7045169335295
 21
681.49999999999989
  0
LINE
  8
_0-0_計極細
  6
CONTINUOUS
 62
    2
 10
1291.4545169335295
 20
632.70783999999992
 11
1291.4545169335295
 21
688.88208800000018
  0
LINE
  8
_0-0_計極細
  6
CONTINUOUS
 62
    2
 10
1289.4545009335295
 20
632.70783999999992
 11
1289.4545009335295
 21
687.6999999999997
  0
LINE
  8
_0-0_計極細
  6
CONTINUOUS
 62
    2
 10
1265.451092933529
 20
602.99655200000041
 11
1265.3856209335306
 21
612.48972000000037
  0
ARC
  8
_0-0_計極細
  6
CONTINUOUS
 62
    2
 10
1265.9510769335309
 20
602.99999999999989
 40
0.5
 50
180.39513700000634
 51
269.99999999999977
  0
LINE
  8
_0-0_計極細
  6
CONTINUOUS
 62
    2
 10
1264.4545169335295
 20
612.49999999999989
 11
1265.3855489335299
 21
612.49999999999989
  0
LINE
  8
_0-0_計極細
  6
CONTINUOUS
 62
    2
 10
1264.4545169335295
 20
687.6999999999997
 11
1289.4545009335295
 21
687.6999999999997
  0
LINE
  8
_0-0_計極細
  6
CONTINUOUS
 62
    2
 10
1289.4545169335295
 20
602.49999999999989
 11
1264.4545169335295
 21
602.49999999999989
  0
LINE
  8
_0-0_計極細
  6
CONTINUOUS
 62
    2
 10
1265.3855489335299
 20
612.49999999999989
 11
1291.7045169335295
 21
612.49999999999989
  0
LINE
  8
_0-0_計極細
  6
CONTINUOUS
 62
    2
 10
1264.4545169335295
 20
614.49999999999989
 11
1291.7045169335295
 21
614.49999999999989
  0
LINE
  8
_0-0_計極細
  6
CONTINUOUS
 62
    2
 10
1264.4545169335295
 20
708.90706399999988
 11
1314.4335169335311
 21
708.90706399999988
  0
LINE
  8
_0-0_計極細
  6
CONTINUOUS
 62
    2
 10
1264.6545169335302
 20
703.90706399999988
 11
1307.6545169335302
 21
703.90706399999988
  0
LINE
  8
_0-0_計極細
  6
CONTINUOUS
 62
    2
 10
1264.6545169335302
 20
702.90706399999988
 11
1308.254516933531
 21
702.90706399999988
  0
LINE
  8
_0-0_計極細
  6
CONTINUOUS
 62
    2
 10
1264.4545169335295
 20
701.81317600000045
 11
1308.6045169335296
 21
701.81317600000045
  0
LINE
  8
_0-0_計極細
  6
CONTINUOUS
 62
    2
 10
1264.4545169335295
 20
700.81317600000045
 11
1303.7045169335295
 21
700.81317600000045
  0
LINE
  8
_0-0_計極細
  6
CONTINUOUS
 62
    2
 10
1264.4545169335295
 20
698.51317600000027
 11
1303.7045169335295
 21
698.51317600000027
  0
LINE
  8
_0-0_計極細
  6
CONTINUOUS
 62
    2
 10
1264.4545169335295
 20
697.51317600000027
 11
1307.8045169335298
 21
697.51317600000027
  0
LINE
  8
_0-0_計極細
  6
CONTINUOUS
 62
    2
 10
1290.4545169335295
 20
631.70783999999992
 11
1264.4545169335295
 21
631.70783999999992
  0
LINE
  8
_0-0_計極細
  6
CONTINUOUS
 62
    2
 10
1307.9545169335299
 20
695.90784000000065
 11
1264.4545169335295
 21
695.90784000000065
  0
LINE
  8
_0-0_計極細
  6
CONTINUOUS
 62
    2
 10
1307.9545169335299
 20
697.40784000000065
 11
1264.4545169335295
 21
697.40784000000065
  0
LINE
  8
_0-0_計極細
  6
CONTINUOUS
 62
    2
 10
1307.9545169335299
 20
702.0078400000001
 11
1264.4545169335295
 21
702.0078400000001
  0
LINE
  8
_0-0_計極細
  6
CONTINUOUS
 62
    2
 10
1289.9545169335295
 20
569.99999999999989
 11
1289.4545169335295
 21
602.49999999999989
  0
LINE
  8
_0-0_計極細
  6
CONTINUOUS
 62
    2
 10
1264.4545169335295
 20
681.16987200000028
 11
1213.9545169335295
 21
681.16987200000028
  0
LINE
  8
_0-0_計極細
  6
CONTINUOUS
 62
    2
 10
1292.0378502668625
 20
574.99999999999989
 11
1292.4545169335295
 21
599.99999999999989
  0
LINE
  8
_0-1_計細線
  6
CONTINUOUS
 62
    3
 10
1291.9545169335295
 20
569.99999999999989
 11
1292.0378502668625
 21
574.99999999999989
  0
LINE
  8
_0-1_計細線
  6
CONTINUOUS
 62
    3
 10
1320.4545169335299
 20
693.49999999999989
 11
1320.4545169335299
 21
709.90706399999988
  0
LINE
  8
_0-0_計極細
  6
CONTINUOUS
 62
    2
 10
1314.4335169335311
 20
708.90706399999988
 11
1320.4545169335299
 21
709.90706399999988
  0
LINE
  8
_0-0_計極細
  6
CONTINUOUS
 62
    2
 10
1314.4335169335311
 20
708.19999752590036
 11
1320.4545169335299
 21
709.20000298532966
  0
LINE
  8
_0-0_計極細
  6
CONTINUOUS
 62
    2
 10
1320.4545169335299
 20
707.49999999999989
 11
1314.4335169335311
 21
706.6999999999997
  0
LINE
  8
_0-1_計細線
  6
CONTINUOUS
 62
    3
 10
1264.4545169335295
 20
709.90706399999988
 11
1320.4545169335299
 21
709.90706399999988
  0
LINE
  8
_0-1_計細線
  6
CONTINUOUS
 62
    3
 10
1317.4545169335299
 20
693.49999999999989
 11
1320.4545169335299
 21
693.49999999999989
  0
LINE
  8
_0-1_計細線
  6
CONTINUOUS
 62
    3
 10
1211.4545169335295
 20
693.49999999999989
 11
1208.4545169335295
 21
693.49999999999989
  0
LINE
  8
_0-1_計細線
  6
CONTINUOUS
 62
    3
 10
1264.4545169335295
 20
703.49999999999989
 11
1208.4545169335295
 21
703.49999999999989
  0
LINE
  8
_0-1_計細線
  6
CONTINUOUS
 62
    3
 10
1208.4545169335295
 20
707.5000167200036
 11
1264.4545169335295
 21
707.5000167200036
  0
LINE
  8
_0-1_計細線
  6
CONTINUOUS
 62
    3
 10
1208.4545169335295
 20
693.49999999999989
 11
1208.4545169335295
 21
707.5000167200036
  0
LINE
  8
_0-1_計細線
  6
CONTINUOUS
 62
    3
 10
1207.4545169335295
 20
706.99999999999989
 11
1208.4545169335295
 21
706.99999999999989
  0
ARC
  8
_0-1_計細線
  6
CONTINUOUS
 62
    3
 10
1207.4545169335295
 20
708.49999999999989
 40
1.5
 50
179.99999999999983
 51
269.99999999999977
  0
LINE
  8
_0-1_計細線
  6
CONTINUOUS
 62
    3
 10
1205.9545169335295
 20
710.49999999999989
 11
1205.9545169335295
 21
708.49999999999989
  0
ARC
  8
_0-1_計細線
  6
CONTINUOUS
 62
    3
 10
1205.4545169335295
 20
710.49999999999989
 40
0.5
 50
0
 51
89.999999999999915
  0
LINE
  8
_0-1_計細線
  6
CONTINUOUS
 62
    3
 10
1264.4545169335299
 20
790.99999999999989
 11
1330.9545169335299
 21
790.99999999999989
  0
LINE
  8
_0-1_計細線
  6
CONTINUOUS
 62
    3
 10
1264.4545169335299
 20
807.10000000000002
 11
1330.9545169335299
 21
807.10000000000002
  0
LINE
  8
_0-1_計細線
  6
CONTINUOUS
 62
    3
 10
1330.9545169335299
 20
810.99999999999989
 11
1330.9545169335299
 21
790.99999999999989
  0
LINE
  8
_0-0_計極細
  6
CONTINUOUS
 62
    2
 10
1264.4545169335299
 20
809.89999999999998
 11
1330.9545169335299
 21
809.89999999999998
  0
LINE
  8
_0-7_枠細線
  6
CONTINUOUS
 62
    5
 10
428.15116214018508
 20
696.8488863101577
 11
416.15116214018508
 21
720.8488863101577
  0
LINE
  8
_0-7_枠細線
  6
CONTINUOUS
 62
    5
 10
404.15116214018508
 20
696.8488863101577
 11
428.15116214018508
 21
696.8488863101577
  0
LINE
  8
_0-7_枠細線
  6
CONTINUOUS
 62
    5
 10
416.15116214018508
 20
720.8488863101577
 11
404.15116214018508
 21
696.8488863101577
  0
TEXT
  8
_0-7_枠細線
 62
    5
 10
407.93540416922269
 20
696.35768271754921
 40
20
 41
0.8
 50
0
  1
１
  0
ARC
  8
_0-1_計細線
  6
CONTINUOUS
 62
    3
 10
1323.4545169335297
 20
710.49999999999989
 40
1.5
 50
89.999999999999915
 51
179.99999999999983
  0
LINE
  8
_0-1_計細線
  6
CONTINUOUS
 62
    3
 10
1321.9545169335297
 20
710.49999999999989
 11
1321.9545169335297
 21
708.5
  0
ARC
  8
_0-1_計細線
  6
CONTINUOUS
 62
    3
 10
1321.4545169335297
 20
708.5
 40
1.5
 50
269.99999999999977
 51
359.99999999999966
  0
LINE
  8
_0-1_計細線
  6
CONTINUOUS
 62
    3
 10
1322.9545169335297
 20
710.5
 11
1322.9545169335297
 21
708.5
  0
LINE
  8
_0-1_計細線
  6
CONTINUOUS
 62
    3
 10
1321.4545169335297
 20
707
 11
1315.4545169335297
 21
707
  0
ARC
  8
_0-1_計細線
  6
CONTINUOUS
 62
    3
 10
1323.4545169335297
 20
710.5
 40
0.5
 50
89.999999999999915
 51
179.99999999999983
  0
ARC
  8
_0-1_計細線
  6
CONTINUOUS
 62
    3
 10
1321.4545169335297
 20
708.5
 40
0.5
 50
269.99999999999977
 51
359.99999999999966
  0
LINE
  8
_0-1_計細線
  6
CONTINUOUS
 62
    3
 10
1321.4545169335297
 20
708
 11
1315.4545169335297
 21
708
  0
LINE
  8
_0-1_計細線
  6
CONTINUOUS
 62
    3
 10
1315.4545169335297
 20
708
 11
1315.4545169335297
 21
707
  0
LINE
  8
_0-1_計細線
  6
CONTINUOUS
 62
    3
 10
1332.4545169335299
 20
711
 11
1323.4545169335297
 21
711
  0
ARC
  8
_0-1_計細線
  6
CONTINUOUS
 62
    3
 10
1332.4545169335299
 20
711.99999999999989
 40
1
 50
269.99999999999977
 51
359.99999999999966
  0
LINE
  8
_0-1_計細線
  6
CONTINUOUS
 62
    3
 10
1332.4545169335299
 20
711.99999999999989
 11
1323.4545169335297
 21
711.99999999999989
  0
LINE
  8
_0-1_計細線
  6
CONTINUOUS
 62
    3
 10
1332.4545169335299
 20
809.99999999999989
 11
1332.4545169335299
 21
711.99999999999989
  0
TEXT
  8
_0-7_枠細線
 62
    5
 10
560.5132044450329
 20
120.81099460578457
 40
39.999999999999993
 41
0.8000000000000001
 50
0
  1
断面詳細図
  0
TEXT
  8
_0-7_枠細線
 62
    5
 10
744.43155604370168
 20
124.77325875672796
 40
32
 41
0.5999999999999998
 50
0
  1
Ｓ＝１：３
  0
TEXT
  8
_0-7_枠細線
 62
    5
 10
1804.2635219031135
 20
602.79037476040685
 40
24
 41
0.7999999999999999
 50
0
  1
ライトグレー
  0
TEXT
  8
_0-7_枠細線
 62
    5
 10
1823.4635219031134
 20
642.79037476040639
 40
24
 41
0.7999999999999999
 50
0
  1
ベージュ
  0
TEXT
  8
_0-7_枠細線
 62
    5
 10
1833.0635219031135
 20
482.79037476040679
 40
24
 41
0.7999999999999999
 50
0
  1
ブルー
  0
TEXT
  8
_0-7_枠細線
 62
    5
 10
1833.0635219031135
 20
522.79037476040673
 40
24
 41
0.7999999999999999
 50
0
  1
ピンク
  0
TEXT
  8
_0-7_枠細線
 62
    5
 10
1823.4635219031134
 20
562.79037476040673
 40
24
 41
0.7999999999999999
 50
0
  1
ホワイト
  0
TEXT
  8
_0-7_枠細線
 62
    5
 10
1804.2635219031135
 20
442.79037476040679
 40
24
 41
0.7999999999999999
 50
0
  1
ダークグレー
  0
TEXT
  8
_0-7_枠細線
 62
    5
 10
1833.0635219031135
 20
402.79037476040639
 40
24
 41
0.7999999999999999
 50
0
  1
ウッド
  0
TEXT
  8
_0-7_枠細線
 62
    5
 10
1823.4635219031134
 20
322.79037476040594
 40
24
 41
0.7999999999999999
 50
0
  1
ブラック
  0
TEXT
  8
_0-7_枠細線
 62
    5
 10
1823.4635219031134
 20
362.79037476040639
 40
24
 41
0.7999999999999999
 50
0
  1
ブラウン
  0
TEXT
  8
_0-7_枠細線
 62
    5
 10
1756.2635219031131
 20
642.79037476040639
 40
24
 41
0.7999999999999999
 50
0
  1
Ｂ
  0
TEXT
  8
_0-7_枠細線
 62
    5
 10
1756.2635219031131
 20
602.79037476040685
 40
24
 41
0.7999999999999999
 50
0
  1
Ｇ
  0
TEXT
  8
_0-7_枠細線
 62
    5
 10
1756.2635219031131
 20
522.79037476040673
 40
24
 41
0.7999999999999999
 50
0
  1
Ｐ
  0
TEXT
  8
_0-7_枠細線
 62
    5
 10
1756.2635219031131
 20
482.79037476040679
 40
24
 41
0.7999999999999999
 50
0
  1
Ａ
  0
TEXT
  8
_0-7_枠細線
 62
    5
 10
1756.2635219031131
 20
562.79037476040673
 40
24
 41
0.7999999999999999
 50
0
  1
Ｓ
  0
TEXT
  8
_0-7_枠細線
 62
    5
 10
1756.2635219031131
 20
402.79037476040639
 40
24
 41
0.7999999999999999
 50
0
  1
Ｍ
  0
TEXT
  8
_0-7_枠細線
 62
    5
 10
1756.2635219031131
 20
442.79037476040679
 40
24
 41
0.7999999999999999
 50
0
  1
Ｄ
  0
TEXT
  8
_0-7_枠細線
 62
    5
 10
1756.2635219031131
 20
322.79037476040594
 40
24
 41
0.7999999999999999
 50
0
  1
Ｋ
  0
TEXT
  8
_0-7_枠細線
 62
    5
 10
1756.2635219031131
 20
362.79037476040639
 40
24
 41
0.7999999999999999
 50
0
  1
Ｃ
  0
ENDSEC
  0
EOF
