  0
SECTION
  2
HEADER
  9
$ACADVER
  1
AC1009
  9
$INSBASE
 10
0
 20
0
 30
0
  9
$EXTMIN
 10
0
 20
0
  9
$EXTMAX
 10
2376
 20
1680
  9
$LIMMIN
 10
0
 20
0
  9
$LIMMAX
 10
2376
 20
1680
  9
$LTSCALE
 40
8
  0
ENDSEC
  0
SECTION
  2
TABLES
  0
TABLE
  2
LTYPE
 70
     9
  0
LTYPE
  2
CONTINUOUS
 70
    64
  3
実線
 72
    65
 73
     0
 40
0.0
  0
LTYPE
  2
DASHED1
 70
    64
  3
--  --  --  --  --  --  --  --  
 72
    65
 73
     2
 40
2.5
 49
1.25
 49
-1.25
  0
LTYPE
  2
DASHED2
 70
    64
  3
----    ----    ----    ----    
 72
    65
 73
     2
 40
5.0
 49
2.5
 49
-2.5
  0
LTYPE
  2
DASHED3
 70
    64
  3
------  ------  ------  ------  
 72
    65
 73
     2
 40
5.0
 49
3.75
 49
-1.25
  0
LTYPE
  2
CENTER1
 70
    64
  3
----- - ----- - ----- - ----- - 
 72
    65
 73
     4
 40
10.0
 49
6.25
 49
-1.25
 49
1.25
 49
-1.25
  0
LTYPE
  2
CENTER2
 70
    64
  3
----------  --  ----------  --  
 72
    65
 73
     4
 40
20.0
 49
12.5
 49
-2.5
 49
2.5
 49
-2.5
  0
LTYPE
  2
PHANTOM1
 70
    64
  3
--- - - --- - - --- - - --- - - 
 72
    65
 73
     6
 40
10.0
 49
3.25
 49
-1.25
 49
1.25
 49
-1.25
 49
1.25
 49
-1.25
  0
LTYPE
  2
PHANTOM2
 70
    64
  3
--------  -  -  --------  -  -  
 72
    65
 73
     6
 40
20.0
 49
10.0
 49
-2.5
 49
1.25
 49
-2.5
 49
1.25
 49
-2.5
  0
LTYPE
  2
DOT
 70
    64
  3
-   -   -   -   -   -   -   -   
 72
    65
 73
     2
 40
2.5
 49
0.625
 49
-1.875
  0
LTYPE
  2
DUMMY
 70
    64
  3
ダミー
 72
    65
 73
     0
 40
0.0
  0
LTYPE
  2
RAND1
 70
    64
  3
ランダム線1
 72
    65
 73
     4
 40
10.0
 49
1.0
 49
-2.0
 49
3.0
 49
-4.0
  0
LTYPE
  2
RAND2
 70
    64
  3
ランダム線2
 72
    65
 73
     4
 40
14.0
 49
2.0
 49
-3.0
 49
4.0
 49
-5.0
  0
LTYPE
  2
RAND3
 70
    64
  3
ランダム線3
 72
    65
 73
     4
 40
18.0
 49
3.0
 49
-4.0
 49
5.0
 49
-6.0
  0
LTYPE
  2
RAND4
 70
    64
  3
ランダム線4
 72
    65
 73
     4
 40
22.0
 49
4.0
 49
-5.0
 49
6.0
 49
-7.0
  0
LTYPE
  2
RAND5
 70
    64
  3
ランダム線5
 72
    65
 73
     4
 40
26.0
 49
5.0
 49
-6.0
 49
7.0
 49
-8.0
  0
LTYPE
  2
LONG1
 70
    64
  3
----------  --  ----------  --  
 72
    65
 73
     4
 40
40.0
 49
32.5
 49
-2.5
 49
2.5
 49
-2.5
  0
LTYPE
  2
LONG2
 70
    64
  3
--------  -  -  --------  -  -  
 72
    65
 73
     6
 40
40.0
 49
30.0
 49
-2.5
 49
1.25
 49
-2.5
 49
1.25
 49
-2.5
  0
LTYPE
  2
LONG3
 70
    64
  3
+++++++++++++++..+++++++++++++++
 72
    65
 73
     2
 40
40.0
 49
37.5
 49
-2.5
  0
LTYPE
  2
LONG4
 70
    64
  3
+++++++++++++++..+++++++++++++++
 72
    65
 73
     2
 40
80.0
 49
75.0
 49
-5.0
  0
LTYPE
  2
LONG5
 70
    64
  3
----------  --  ----------  --  
 72
    65
 73
     4
 40
60.0
 49
37.5
 49
-7.5
 49
7.5
 49
-7.5
  0
LTYPE
  2
dashed
 70
   64
  3
-------   -------------   ------
 72
   65
 73
    2
 40
7.5
 49
6
 49
-1.5
  0
LTYPE
  2
dashed_spaced
 70
   64
  3
----        --------        ----
 72
   65
 73
    2
 40
12
 49
6
 49
-6
  0
LTYPE
  2
long_dashed_dotted
 70
   64
  3
------------- --- --------------
 72
   65
 73
    4
 40
15.25
 49
12
 49
-1.5
 49
0.25
 49
-1.5
  0
LTYPE
  2
long_dashed_double-dotted
 70
   64
  3
----------- --- --- ------------
 72
   65
 73
    6
 40
17
 49
12
 49
-1.5
 49
0.25
 49
-1.5
 49
0.25
 49
-1.5
  0
LTYPE
  2
long_dashed_triplicate-dotted
 70
   64
  3
--------- --- --- --- ----------
 72
   65
 73
    8
 40
18.75
 49
12
 49
-1.5
 49
0.25
 49
-1.5
 49
0.25
 49
-1.5
 49
0.25
 49
-1.5
  0
LTYPE
  2
dotted
 70
   64
  3
   -       -       -       -    
 72
   65
 73
    2
 40
1.75
 49
0.25
 49
-1.5
  0
LTYPE
  2
chain
 70
   64
  3
-------------- -- --------------
 72
   65
 73
    4
 40
18.5
 49
12
 49
-1.5
 49
3.5
 49
-1.5
  0
LTYPE
  2
chain_double_dash
 70
   64
  3
------------ -- -- -------------
 72
   65
 73
    6
 40
23.5
 49
12
 49
-1.5
 49
3.5
 49
-1.5
 49
3.5
 49
-1.5
  0
LTYPE
  2
dashed_dotted
 70
   64
  3
-----------     -     ----------
 72
   65
 73
    4
 40
9.25
 49
6
 49
-1.5
 49
0.25
 49
-1.5
  0
LTYPE
  2
double-dashed_dotted
 70
   64
  3
------   -----------   -   -----
 72
   65
 73
    6
 40
16.75
 49
6
 49
-1.5
 49
6
 49
-1.5
 49
0.25
 49
-1.5
  0
LTYPE
  2
dashed_double-dotted
 70
   64
  3
---------    -    -    ---------
 72
   65
 73
    6
 40
11
 49
6
 49
-1.5
 49
0.25
 49
-1.5
 49
0.25
 49
-1.5
  0
LTYPE
  2
double-dashed_double-dotted
 70
   64
  3
-----   ---------   -   -   ----
 72
   65
 73
    8
 40
18.5
 49
6
 49
-1.5
 49
6
 49
-1.5
 49
0.25
 49
-1.5
 49
0.25
 49
-1.5
  0
LTYPE
  2
dashed_triplicate-dotted
 70
   64
  3
-------    -    -    -    ------
 72
   65
 73
    8
 40
12.75
 49
6
 49
-1.5
 49
0.25
 49
-1.5
 49
0.25
 49
-1.5
 49
0.25
 49
-1.5
  0
LTYPE
  2
double-dashed_triplicate-dotted
 70
   64
  3
-----  ---------  -  -  -  -----
 72
   65
 73
   10
 40
20.25
 49
6
 49
-1.5
 49
6
 49
-1.5
 49
0.25
 49
-1.5
 49
0.25
 49
-1.5
 49
0.25
 49
-1.5
  0
LTYPE
  2
undefined
 70
   64
  3
--------------------------------
 72
   65
 73
    0
 40
0
  0
ENDTAB
  0
TABLE
  2
STYLE
  5
3
100
AcDbSymbolTable
 70
     1
  0
STYLE
  5
10
100
AcDbSymbolTableRecord
100
AcDbTextStyleTableRecord
  2
STANDARD
 70
     0
 40
0.0
 41
1.0
 50
0.0
 71
     0
 42
0.2
  3
txt
  4
bigfont.shx
  0
STYLE
  5
26
100
AcDbSymbolTableRecord
100
AcDbTextStyleTableRecord
  2
TATEGAKI
 70
    68
 40
0.0
 41
1.0
 50
0.0
 71
     0
 42
1.0
  3
txt
  4
bigfont.shx
  0
ENDTAB
  0
TABLE
  2
LAYER
 70
    9
  0
LAYER
  2
_0-0_計極細
 70
   64
 62
    7
  6
CONTINUOUS
  0
LAYER
  2
_0-1_計細線
 70
   64
 62
    7
  6
CONTINUOUS
  0
LAYER
  2
_0-5_寸法線
 70
   64
 62
    7
  6
CONTINUOUS
  0
LAYER
  2
_0-7_枠細線
 70
   64
 62
    7
  6
CONTINUOUS
  0
LAYER
  2
_0-8_枠中線
 70
   64
 62
    7
  6
CONTINUOUS
  0
LAYER
  2
_0-a_極細3
 70
   64
 62
    7
  6
CONTINUOUS
  0
LAYER
  2
_0-b_細線3
 70
   64
 62
    7
  6
CONTINUOUS
  0
LAYER
  2
_0-d_寸法3
 70
   64
 62
    7
  6
CONTINUOUS
  0
LAYER
  2
ADD_LINE
 70
   64
 62
    7
  6
CONTINUOUS
  0
ENDTAB
  0
ENDSEC
  0
SECTION
  2
BLOCKS
  0
ENDSEC
  0
SECTION
  2
ENTITIES
  0
LINE
  8
_0-8_枠中線
  6
CONTINUOUS
 62
    5
 10
96.000000000001364
 20
95.999999999999886
 11
96.000000000001364
 21
1536
  0
LINE
  8
_0-8_枠中線
  6
CONTINUOUS
 62
    5
 10
96.000000000001364
 20
1536
 11
2280.0000000000014
 21
1536
  0
LINE
  8
_0-8_枠中線
  6
CONTINUOUS
 62
    5
 10
2280.0000000000014
 20
1536
 11
2280.0000000000014
 21
95.999999999999886
  0
LINE
  8
_0-8_枠中線
  6
CONTINUOUS
 62
    5
 10
2280.0000000000014
 20
95.999999999999886
 11
96.000000000001364
 21
95.999999999999886
  0
LINE
  8
_0-7_枠細線
  6
CONTINUOUS
 62
    5
 10
1896.0000000000014
 20
287.99999999999989
 11
1896.0000000000014
 21
159.99999999999989
  0
TEXT
  8
_0-7_枠細線
 62
    5
 10
1500.0000000000014
 20
155.99999999999989
 40
28
 41
1
 50
0
  1
備考
  7
TATEGAKI
  0
TEXT
  8
_0-7_枠細線
 62
    5
 10
1500.0000000000014
 20
219.99999999999989
 40
28
 41
1
 50
0
  1
品番
  7
TATEGAKI
  0
TEXT
  8
_0-7_枠細線
 62
    5
 10
1500.0000000000014
 20
283.99999999999989
 40
28
 41
1
 50
0
  1
品名
  7
TATEGAKI
  0
LINE
  8
_0-7_枠細線
  6
CONTINUOUS
 62
    5
 10
1520.0000000000014
 20
287.99999999999989
 11
1520.0000000000014
 21
95.999999999999886
  0
LINE
  8
_0-7_枠細線
  6
CONTINUOUS
 62
    5
 10
1992.0000000000014
 20
287.99999999999989
 11
1992.0000000000014
 21
95.999999999999886
  0
TEXT
  8
_0-7_枠細線
 62
    5
 10
1908.0000000000014
 20
255.99999999999989
 40
24
 41
1
 50
0
  1
縮　尺
  0
LINE
  8
_0-7_枠細線
  6
CONTINUOUS
 62
    5
 10
1896.0000000000014
 20
247.99999999999989
 11
1992.0000000000014
 21
247.99999999999989
  0
LINE
  8
_0-7_枠細線
  6
CONTINUOUS
 62
    5
 10
1992.0000000000014
 20
159.99999999999989
 11
1480.0000000000014
 21
159.99999999999989
  0
LINE
  8
_0-7_枠細線
  6
CONTINUOUS
 62
    5
 10
2280.0000000000014
 20
143.99999999999989
 11
1992.0000000000014
 21
143.99999999999989
  0
LINE
  8
_0-7_枠細線
  6
CONTINUOUS
 62
    5
 10
1992.0000000000014
 20
191.99999999999989
 11
2280.0000000000014
 21
191.99999999999989
  0
LINE
  8
_0-7_枠細線
  6
CONTINUOUS
 62
    5
 10
2280.0000000000014
 20
223.99999999999989
 11
1992.0000000000014
 21
223.99999999999989
  0
TEXT
  8
_0-7_枠細線
 62
    5
 10
2008.0000000000014
 20
235.99999999999989
 40
40
 41
0.8
 50
0
  1
株式会社シマブン
  0
TEXT
  8
_0-7_枠細線
 62
    5
 10
2004.0000000000014
 20
95.999999999999773
 40
24
 41
1
 50
0
  1
年月日
  0
TEXT
  8
_0-7_枠細線
 62
    5
 10
2004.0000000000014
 20
119.99999999999989
 40
24
 41
1
 50
0
  1
作　成
  0
TEXT
  8
_0-7_枠細線
 62
    5
 10
2010.0000000000014
 20
195.99999999999989
 40
24
 41
1
 50
0
  1
承 認
  0
LINE
  8
_0-7_枠細線
  6
CONTINUOUS
 62
    5
 10
2088.0000000000014
 20
223.99999999999989
 11
2088.0000000000014
 21
95.999999999999886
  0
TEXT
  8
_0-7_枠細線
 62
    5
 10
2106.0000000000014
 20
195.99999999999989
 40
24
 41
1
 50
0
  1
検 図
  0
LINE
  8
_0-7_枠細線
  6
CONTINUOUS
 62
    5
 10
2184.0000000000014
 20
223.99999999999989
 11
2184.0000000000014
 21
143.99999999999989
  0
TEXT
  8
_0-7_枠細線
 62
    5
 10
2200.0000000000014
 20
151.99999999999989
 40
32
 41
1
 50
0
  1
藤戸
  0
TEXT
  8
_0-7_枠細線
 62
    5
 10
2202.0000000000014
 20
195.99999999999989
 40
24
 41
1
 50
0
  1
設 計
  0
TEXT
  8
_0-7_枠細線
 62
    5
 10
1536.8000000000011
 20
111.99999999999977
 40
32
 41
0.5999999999999998
 50
0
  1
品番・色については表参照のこと
  0
TEXT
  8
_0-7_枠細線
 62
    5
 10
2008.0000000000014
 20
152
 40
32
 41
1
 50
0
  1
隠塚
  0
TEXT
  8
_0-7_枠細線
 62
    5
 10
2104.0000000000014
 20
152
 40
32
 41
1
 50
0
  1
渋田
  0
TEXT
  8
_0-7_枠細線
 62
    5
 10
2096.0000000000014
 20
107.99999999999977
 40
24
 41
0.6666666666666666
 50
0
  1
２０１１年０６月２４日
  0
LINE
  8
_0-8_枠中線
  6
CONTINUOUS
 62
    5
 10
1480.0000000000014
 20
287.99999999999989
 11
1480.0000000000014
 21
95.999999999999886
  0
LINE
  8
_0-8_枠中線
  6
CONTINUOUS
 62
    5
 10
2280.0000000000014
 20
287.99999999999989
 11
1480.0000000000014
 21
287.99999999999989
  0
LINE
  8
_0-7_枠細線
  6
CONTINUOUS
 62
    5
 10
1896.0000000000014
 20
223.99999999999989
 11
1480.0000000000014
 21
223.99999999999989
  0
TEXT
  8
_0-7_枠細線
 62
    5
 10
1910.4000000000015
 20
187.99999999999989
 40
32
 41
0.6999999999999999
 50
0
  1
１：８
  0
TEXT
  8
_0-7_枠細線
 62
    5
 10
1536.8000000000011
 20
239.24855752183828
 40
32
 41
0.6
 50
0
  1
排水ユニット 樹脂グレーチング 深型
  0
TEXT
  8
_0-7_枠細線
 62
    5
 10
1536.8000000000011
 20
175.99999999999989
 40
32.000000000000014
 41
0.5999999999999998
 50
0
  1
ＨＲＦＹ－１５Ｌ１０００～１８００
  0
LINE
  8
_0-7_枠細線
  6
CONTINUOUS
 62
    5
 10
2280.0000000000014
 20
1508
 11
1424.0000000000014
 21
1508
  0
TEXT
  8
_0-7_枠細線
 62
    5
 10
1432.0000000000014
 20
1511.9999999999995
 40
20
 41
1
 50
0
  1
記号
  0
TEXT
  8
_0-7_枠細線
 62
    5
 10
1595.0000000000014
 20
1512
 40
20
 41
1
 50
0
  1
訂　 正　 記　 事
  0
TEXT
  8
_0-7_枠細線
 62
    5
 10
1890.0000000000014
 20
1512
 40
20
 41
1
 50
0
  1
訂 正 年 月 日
  0
TEXT
  8
_0-7_枠細線
 62
    5
 10
2090.0000000000014
 20
1512
 40
20
 41
1
 50
0
  1
備　　　　　考
  0
LINE
  8
_0-7_枠細線
  6
CONTINUOUS
 62
    5
 10
2280.0000000000014
 20
1480
 11
1424.0000000000014
 21
1480
  0
TEXT
  8
_0-7_枠細線
 62
    5
 10
1502.1605925925937
 20
1484
 40
20
 41
1
 50
0
  1
品番・色記号変更
  0
TEXT
  8
_0-7_枠細線
 62
    5
 10
1888.0000000000014
 20
1484
 40
20
 41
0.7199999999999999
 50
0
  1
２０１３．０３．１３
  0
LINE
  8
_0-7_枠細線
  6
CONTINUOUS
 62
    5
 10
2280.0000000000014
 20
1452
 11
1424.0000000000014
 21
1452
  0
LINE
  8
_0-7_枠細線
  6
CONTINUOUS
 62
    5
 10
2280.0000000000014
 20
1424
 11
1424.0000000000014
 21
1424
  0
TEXT
  8
_0-7_枠細線
 62
    5
 10
1502.1605925925937
 20
1428
 40
20
 41
1
 50
0
  1
クロスバーピッチ変更
  0
TEXT
  8
_0-7_枠細線
 62
    5
 10
1888.0000000000014
 20
1428
 40
20
 41
0.7199999999999999
 50
0
  1
２０１５．１１．２０
  0
TEXT
  8
_0-7_枠細線
 62
    5
 10
1443.7842420290383
 20
1425.8165307621866
 40
20
 41
0.8
 50
0
  1
２
  0
LINE
  8
_0-7_枠細線
  6
CONTINUOUS
 62
    5
 10
1464.0000000000014
 20
1426.3077343547952
 11
1452.0000000000014
 21
1450.3077343547952
  0
LINE
  8
_0-7_枠細線
  6
CONTINUOUS
 62
    5
 10
1440.0000000000014
 20
1426.3077343547952
 11
1464.0000000000014
 21
1426.3077343547952
  0
LINE
  8
_0-7_枠細線
  6
CONTINUOUS
 62
    5
 10
1452.0000000000014
 20
1450.3077343547952
 11
1440.0000000000014
 21
1426.3077343547952
  0
LINE
  8
_0-7_枠細線
  6
CONTINUOUS
 62
    5
 10
2280.0000000000014
 20
1396
 11
1424.0000000000014
 21
1396
  0
TEXT
  8
_0-7_枠細線
 62
    5
 10
1443.7842420290383
 20
1397.4314401305048
 40
20
 41
0.8
 50
0
  1
３
  0
TEXT
  8
_0-7_枠細線
 62
    5
 10
1888.0000000000014
 20
1400
 40
20
 41
0.7199999999999999
 50
0
  1
２０１７．０４．０１
  0
LINE
  8
_0-7_枠細線
  6
CONTINUOUS
 62
    5
 10
1464.0000000000014
 20
1370.307734354795
 11
1452.0000000000014
 21
1394.307734354795
  0
LINE
  8
_0-7_枠細線
  6
CONTINUOUS
 62
    5
 10
1440.0000000000014
 20
1370.307734354795
 11
1464.0000000000014
 21
1370.307734354795
  0
LINE
  8
_0-7_枠細線
  6
CONTINUOUS
 62
    5
 10
1452.0000000000014
 20
1394.307734354795
 11
1440.0000000000014
 21
1370.307734354795
  0
TEXT
  8
_0-7_枠細線
 62
    5
 10
1888.0000000000014
 20
1372
 40
20
 41
0.7199999999999999
 50
0
  1
２０１７．０４．０１
  0
TEXT
  8
_0-7_枠細線
 62
    5
 10
1502.1605925925937
 20
1372
 40
20
 41
1
 50
0
  1
ブラウン色（Ｃ）追加
  0
LINE
  8
_0-7_枠細線
  6
CONTINUOUS
 62
    5
 10
2280.0000000000014
 20
1368
 11
1424.0000000000014
 21
1368
  0
LINE
  8
_0-7_枠細線
  6
CONTINUOUS
 62
    5
 10
1452.0000000000014
 20
1422.307734354795
 11
1440.0000000000014
 21
1398.307734354795
  0
LINE
  8
_0-7_枠細線
  6
CONTINUOUS
 62
    5
 10
1440.0000000000014
 20
1398.307734354795
 11
1464.0000000000014
 21
1398.307734354795
  0
LINE
  8
_0-7_枠細線
  6
CONTINUOUS
 62
    5
 10
1464.0000000000014
 20
1398.307734354795
 11
1452.0000000000014
 21
1422.307734354795
  0
TEXT
  8
_0-7_枠細線
 62
    5
 10
1443.7842420290383
 20
1368.789622411035
 40
20
 41
0.8
 50
0
  1
４
  0
TEXT
  8
_0-7_枠細線
 62
    5
 10
1502.1605925925937
 20
1400
 40
20
 41
1
 50
0
  1
取外具形状変更
  0
LINE
  8
_0-7_枠細線
  6
CONTINUOUS
 62
    5
 10
2280.0000000000014
 20
1340
 11
1424.0000000000014
 21
1340
  0
LINE
  8
_0-7_枠細線
  6
CONTINUOUS
 62
    5
 10
1452.0000000000014
 20
1366.307734354795
 11
1440.0000000000014
 21
1342.307734354795
  0
LINE
  8
_0-7_枠細線
  6
CONTINUOUS
 62
    5
 10
1440.0000000000014
 20
1342.307734354795
 11
1464.0000000000014
 21
1342.307734354795
  0
LINE
  8
_0-7_枠細線
  6
CONTINUOUS
 62
    5
 10
1464.0000000000014
 20
1342.307734354795
 11
1452.0000000000014
 21
1366.307734354795
  0
TEXT
  8
_0-7_枠細線
 62
    5
 10
1443.7842420290383
 20
1341.4314401305048
 40
20
 41
0.8
 50
0
  1
５
  0
LINE
  8
_0-7_枠細線
  6
CONTINUOUS
 62
    5
 10
1424.0000000000014
 20
1340
 11
1424.0000000000014
 21
1535.9999999999991
  0
LINE
  8
_0-7_枠細線
  6
CONTINUOUS
 62
    5
 10
1480.0000000000014
 20
1340
 11
1480.0000000000014
 21
1535.9999999999991
  0
LINE
  8
_0-7_枠細線
  6
CONTINUOUS
 62
    5
 10
1880.0000000000014
 20
1340
 11
1880.0000000000014
 21
1535.9999999999991
  0
LINE
  8
_0-7_枠細線
  6
CONTINUOUS
 62
    5
 10
2040.0000000000014
 20
1340
 11
2040.0000000000014
 21
1535.9999999999991
  0
LINE
  8
_0-7_枠細線
  6
CONTINUOUS
 62
    5
 10
1464.0000000000014
 20
1454.3077343547952
 11
1452.0000000000014
 21
1478.3077343547952
  0
LINE
  8
_0-7_枠細線
  6
CONTINUOUS
 62
    5
 10
1440.0000000000014
 20
1454.3077343547952
 11
1464.0000000000014
 21
1454.3077343547952
  0
LINE
  8
_0-7_枠細線
  6
CONTINUOUS
 62
    5
 10
1452.0000000000014
 20
1478.3077343547952
 11
1440.0000000000014
 21
1454.3077343547952
  0
TEXT
  8
_0-7_枠細線
 62
    5
 10
1443.7842420290383
 20
1453.8165307621866
 40
20
 41
0.8
 50
0
  1
１
  0
TEXT
  8
_0-7_枠細線
 62
    5
 10
1502.1605925925937
 20
1456
 40
20
 41
1
 50
0
  1
アンカー材追加
  0
TEXT
  8
_0-7_枠細線
 62
    5
 10
1888.0000000000014
 20
1456
 40
20
 41
0.7199999999999999
 50
0
  1
２０１４．０４．０１
  0
TEXT
  8
_0-7_枠細線
 62
    5
 10
1502.1605925925937
 20
1344
 40
20
 41
1
 50
0
  1
取外具形状変更
  0
TEXT
  8
_0-7_枠細線
 62
    5
 10
1888.0000000000014
 20
1344
 40
20
 41
0.7199999999999999
 50
0
  1
２０２１．０５．０６
  0
TEXT
  8
_0-7_枠細線
 62
    5
 10
1940.2635219031133
 20
1249.051118840448
 40
24
 41
0.7999999999999998
 50
0
  1
Ｌ
  0
TEXT
  8
_0-7_枠細線
 62
    5
 10
1783.4635219031131
 20
1249.051118840448
 40
24
 41
0.7999999999999998
 50
0
  1
品　　番
  0
LINE
  8
_0-7_枠細線
  6
CONTINUOUS
 62
    5
 10
1733.8635219031137
 20
1281.051118840448
 11
2229.8635219031112
 21
1281.051118840448
  0
LINE
  8
_0-7_枠細線
  6
CONTINUOUS
 62
    5
 10
1733.8635219031137
 20
1241.051118840448
 11
2229.8635219031112
 21
1241.051118840448
  0
LINE
  8
_0-7_枠細線
  6
CONTINUOUS
 62
    5
 10
1733.8635219031137
 20
1201.051118840448
 11
2229.8635219031112
 21
1201.051118840448
  0
LINE
  8
_0-7_枠細線
  6
CONTINUOUS
 62
    5
 10
1733.8635219031137
 20
1161.051118840448
 11
2229.8635219031112
 21
1161.051118840448
  0
LINE
  8
_0-7_枠細線
  6
CONTINUOUS
 62
    5
 10
1733.8635219031137
 20
1121.051118840448
 11
2229.8635219031112
 21
1121.051118840448
  0
LINE
  8
_0-7_枠細線
  6
CONTINUOUS
 62
    5
 10
1733.8635219031137
 20
1081.051118840448
 11
2229.8635219031112
 21
1081.051118840448
  0
TEXT
  8
_0-7_枠細線
 62
    5
 10
1744.9997564710081
 20
1289.051118840448
 40
28
 41
1
 50
0
  1
品番寸法表
  0
LINE
  8
_0-7_枠細線
  6
CONTINUOUS
 62
    5
 10
1733.8635219031137
 20
1281.051118840448
 11
1733.8635219031137
 21
1081.051118840448
  0
LINE
  8
_0-7_枠細線
  6
CONTINUOUS
 62
    5
 10
1909.8635219031137
 20
1281.051118840448
 11
1909.8635219031137
 21
1081.051118840448
  0
LINE
  8
_0-7_枠細線
  6
CONTINUOUS
 62
    5
 10
1989.8635219031128
 20
1281.051118840448
 11
1989.8635219031128
 21
1081.051118840448
  0
LINE
  8
_0-7_枠細線
  6
CONTINUOUS
 62
    5
 10
2069.8635219031112
 20
1281.051118840448
 11
2069.8635219031112
 21
1081.051118840448
  0
LINE
  8
_0-7_枠細線
  6
CONTINUOUS
 62
    5
 10
2149.8635219031103
 20
1281.051118840448
 11
2149.8635219031103
 21
1081.051118840448
  0
LINE
  8
_0-7_枠細線
  6
CONTINUOUS
 62
    5
 10
2229.8635219031094
 20
1281.051118840448
 11
2229.8635219031094
 21
1081.051118840448
  0
TEXT
  8
_0-7_枠細線
 62
    5
 10
2020.2635219031124
 20
1249.051118840448
 40
24
 41
0.7999999999999998
 50
0
  1
Ａ
  0
TEXT
  8
_0-7_枠細線
 62
    5
 10
2100.2635219031108
 20
1249.051118840448
 40
24
 41
0.7999999999999998
 50
0
  1
Ｂ
  0
TEXT
  8
_0-7_枠細線
 62
    5
 10
2180.2635219031099
 20
1249.051118840448
 40
24
 41
0.7999999999999998
 50
0
  1
Ｃ
  0
TEXT
  8
_0-7_枠細線
 62
    5
 10
1925.8635219031137
 20
1169.051118840448
 40
24
 41
1
 50
0
  1
1194
  0
TEXT
  8
_0-7_枠細線
 62
    5
 10
1937.8635219031137
 20
1209.0511188404487
 40
24
 41
1
 50
0
  1
994
  0
TEXT
  8
_0-7_枠細線
 62
    5
 10
1925.8635219031137
 20
1129.051118840448
 40
24
 41
1
 50
0
  1
1494
  0
TEXT
  8
_0-7_枠細線
 62
    5
 10
2017.8635219031119
 20
1209.0511188404487
 40
24
 41
1
 50
0
  1
970
  0
TEXT
  8
_0-7_枠細線
 62
    5
 10
2005.8635219031119
 20
1169.051118840448
 40
24
 41
1
 50
0
  1
1170
  0
TEXT
  8
_0-7_枠細線
 62
    5
 10
2005.8635219031119
 20
1129.051118840448
 40
24
 41
1
 50
0
  1
1470
  0
TEXT
  8
_0-7_枠細線
 62
    5
 10
2097.8635219031112
 20
1209.0511188404487
 40
24
 41
1
 50
0
  1
967
  0
TEXT
  8
_0-7_枠細線
 62
    5
 10
2085.8635219031112
 20
1169.051118840448
 40
24
 41
1
 50
0
  1
1167
  0
TEXT
  8
_0-7_枠細線
 62
    5
 10
2073.8635219031112
 20
1129.051118840448
 40
24
 41
1
 50
0
  1
733×2
  0
TEXT
  8
_0-7_枠細線
 62
    5
 10
2177.8635219031094
 20
1209.0511188404487
 40
24
 41
1
 50
0
  1
914
  0
TEXT
  8
_0-7_枠細線
 62
    5
 10
2165.8635219031094
 20
1169.051118840448
 40
24
 41
1
 50
0
  1
1114
  0
TEXT
  8
_0-7_枠細線
 62
    5
 10
2165.8635219031094
 20
1129.051118840448
 40
24
 41
1
 50
0
  1
1414
  0
TEXT
  8
_0-7_枠細線
 62
    5
 10
1925.8635219031137
 20
1089.051118840448
 40
24
 41
1
 50
0
  1
1794
  0
TEXT
  8
_0-7_枠細線
 62
    5
 10
2005.8635219031119
 20
1089.051118840448
 40
24
 41
1
 50
0
  1
1770
  0
TEXT
  8
_0-7_枠細線
 62
    5
 10
2073.8635219031112
 20
1089.051118840448
 40
24
 41
1
 50
0
  1
883×2
  0
TEXT
  8
_0-7_枠細線
 62
    5
 10
2165.8635219031094
 20
1089.051118840448
 40
24
 41
1
 50
0
  1
1714
  0
TEXT
  8
_0-7_枠細線
 62
    5
 10
1737.8635219031137
 20
1209.051118840448
 40
24
 41
0.9333333333333331
 50
0
  1
HRFY-15L1000-○
  0
TEXT
  8
_0-7_枠細線
 62
    5
 10
1737.8635219031137
 20
1169.051118840448
 40
24
 41
0.9333333333333331
 50
0
  1
HRFY-15L1200-○
  0
TEXT
  8
_0-7_枠細線
 62
    5
 10
1737.8635219031137
 20
1129.051118840448
 40
24
 41
0.9333333333333331
 50
0
  1
HRFY-15L1500-○
  0
TEXT
  8
_0-7_枠細線
 62
    5
 10
1737.8635219031137
 20
1089.051118840448
 40
24
 41
0.9333333333333331
 50
0
  1
HRFY-15L1800-○
  0
TEXT
  8
_0-7_枠細線
 62
    5
 10
1783.4635219031131
 20
980.0525315193529
 40
24
 41
0.7999999999999998
 50
0
  1
品　　番
  0
LINE
  8
_0-7_枠細線
  6
CONTINUOUS
 62
    5
 10
1733.8635219031137
 20
1012.0525315193529
 11
1733.8635219031137
 21
812.0525315193529
  0
LINE
  8
_0-7_枠細線
  6
CONTINUOUS
 62
    5
 10
1909.8635219031137
 20
1012.0525315193529
 11
1909.8635219031137
 21
812.0525315193529
  0
LINE
  8
_0-7_枠細線
  6
CONTINUOUS
 62
    5
 10
1989.8635219031128
 20
1012.0525315193529
 11
1989.8635219031128
 21
812.0525315193529
  0
LINE
  8
_0-7_枠細線
  6
CONTINUOUS
 62
    5
 10
2069.8635219031112
 20
1012.0525315193529
 11
2069.8635219031112
 21
812.0525315193529
  0
TEXT
  8
_0-7_枠細線
 62
    5
 10
1741.7946505818361
 20
1020.0525315193529
 40
28
 41
1
 50
0
  1
アンカー位置寸法表
  0
TEXT
  8
_0-7_枠細線
 62
    5
 10
1937.8635219031128
 20
940.05253151935358
 40
24
 41
1
 50
0
  1
924
  0
TEXT
  8
_0-7_枠細線
 62
    5
 10
1925.8635219031128
 20
900.0525315193529
 40
24
 41
1
 50
0
  1
1124
  0
TEXT
  8
_0-7_枠細線
 62
    5
 10
1925.8635219031128
 20
860.0525315193529
 40
24
 41
1
 50
0
  1
1424
  0
TEXT
  8
_0-7_枠細線
 62
    5
 10
1925.8635219031128
 20
820.0525315193529
 40
24
 41
1
 50
0
  1
1724
  0
LINE
  8
_0-7_枠細線
  6
CONTINUOUS
 62
    5
 10
2149.8635219031103
 20
1012.0525315193529
 11
2149.8635219031103
 21
812.0525315193529
  0
LINE
  8
_0-7_枠細線
  6
CONTINUOUS
 62
    5
 10
1733.8635219031137
 20
1012.0525315193529
 11
2149.8635219031103
 21
1012.0525315193529
  0
LINE
  8
_0-7_枠細線
  6
CONTINUOUS
 62
    5
 10
1733.8635219031137
 20
972.0525315193529
 11
2149.8635219031103
 21
972.0525315193529
  0
LINE
  8
_0-7_枠細線
  6
CONTINUOUS
 62
    5
 10
1733.8635219031137
 20
932.0525315193529
 11
2149.8635219031103
 21
932.0525315193529
  0
LINE
  8
_0-7_枠細線
  6
CONTINUOUS
 62
    5
 10
1733.8635219031137
 20
892.0525315193529
 11
2149.8635219031103
 21
892.0525315193529
  0
LINE
  8
_0-7_枠細線
  6
CONTINUOUS
 62
    5
 10
1733.8635219031137
 20
852.0525315193529
 11
2149.8635219031103
 21
852.0525315193529
  0
LINE
  8
_0-7_枠細線
  6
CONTINUOUS
 62
    5
 10
1733.8635219031137
 20
812.0525315193529
 11
2149.8635219031103
 21
812.0525315193529
  0
TEXT
  8
_0-7_枠細線
 62
    5
 10
2000.8667130838437
 20
860.0525315193529
 40
24
 41
1
 50
0
  1
474.7
  0
TEXT
  8
_0-7_枠細線
 62
    5
 10
2000.6060032878775
 20
940.0525315193529
 40
24
 41
1
 50
0
  1
462
  0
TEXT
  8
_0-7_枠細線
 62
    5
 10
2000.6060032878775
 20
900.0525315193529
 40
24
 41
1
 50
0
  1
562
  0
TEXT
  8
_0-7_枠細線
 62
    5
 10
2000.6060032878775
 20
820.0525315193529
 40
24
 41
1
 50
0
  1
431
  0
TEXT
  8
_0-7_枠細線
 62
    5
 10
2104.0718189730142
 20
940.05253151935358
 40
24
 41
1
 50
0
  1
2
  0
TEXT
  8
_0-7_枠細線
 62
    5
 10
2104.0718189730142
 20
900.0525315193529
 40
24
 41
1
 50
0
  1
2
  0
TEXT
  8
_0-7_枠細線
 62
    5
 10
2104.0718189730142
 20
860.0525315193529
 40
24
 41
1
 50
0
  1
3
  0
TEXT
  8
_0-7_枠細線
 62
    5
 10
2104.0718189730142
 20
820.0525315193529
 40
24
 41
1
 50
0
  1
4
  0
TEXT
  8
_0-7_枠細線
 62
    5
 10
1940.2635219031142
 20
980.0525315193529
 40
24
 41
0.7999999999999998
 50
0
  1
Ｄ
  0
TEXT
  8
_0-7_枠細線
 62
    5
 10
2021.3318905328358
 20
980.0525315193529
 40
24
 41
0.7999999999999998
 50
0
  1
Ｅ
  0
TEXT
  8
_0-7_枠細線
 62
    5
 10
2101.1005782806315
 20
980.0525315193529
 40
24
 41
0.7999999999999998
 50
0
  1
Ｎ
  0
TEXT
  8
_0-7_枠細線
 62
    5
 10
1742.2101885697809
 20
779.83602330431677
 40
24
 41
1
 50
0
  1
※ ○に色記号を付記
  0
TEXT
  8
_0-7_枠細線
 62
    5
 10
1737.8635219031137
 20
940.05253151935358
 40
24
 41
0.9333333333333331
 50
0
  1
HRFY-15L1000-○
  0
TEXT
  8
_0-7_枠細線
 62
    5
 10
1737.8635219031137
 20
900.0525315193529
 40
24
 41
0.9333333333333331
 50
0
  1
HRFY-15L1200-○
  0
TEXT
  8
_0-7_枠細線
 62
    5
 10
1737.8635219031137
 20
860.0525315193529
 40
24
 41
0.9333333333333331
 50
0
  1
HRFY-15L1500-○
  0
TEXT
  8
_0-7_枠細線
 62
    5
 10
1737.8635219031137
 20
820.0525315193529
 40
24
 41
0.9333333333333331
 50
0
  1
HRFY-15L1800-○
  0
TEXT
  8
_0-7_枠細線
 62
    5
 10
1746.6635219031139
 20
682.79037476040639
 40
24
 41
0.8000000000000001
 50
0
  1
記号
  0
TEXT
  8
_0-7_枠細線
 62
    5
 10
1852.2635219031142
 20
682.79037476040639
 40
24
 41
0.8000000000000001
 50
0
  1
色
  0
LINE
  8
_0-7_枠細線
  6
CONTINUOUS
 62
    5
 10
1733.8635219031137
 20
434.79037476040673
 11
2037.8635219031146
 21
434.79037476040673
  0
LINE
  8
_0-7_枠細線
  6
CONTINUOUS
 62
    5
 10
1733.8635219031137
 20
474.79037476040673
 11
2037.8635219031146
 21
474.79037476040673
  0
LINE
  8
_0-7_枠細線
  6
CONTINUOUS
 62
    5
 10
1733.8635219031137
 20
514.79037476040673
 11
2037.8635219031146
 21
514.79037476040673
  0
LINE
  8
_0-7_枠細線
  6
CONTINUOUS
 62
    5
 10
1733.8635219031137
 20
554.79037476040673
 11
2037.8635219031146
 21
554.79037476040673
  0
LINE
  8
_0-7_枠細線
  6
CONTINUOUS
 62
    5
 10
1733.8635219031137
 20
594.79037476040673
 11
2037.8635219031146
 21
594.79037476040673
  0
LINE
  8
_0-7_枠細線
  6
CONTINUOUS
 62
    5
 10
1733.8635219031137
 20
634.79037476040673
 11
2037.8635219031146
 21
634.79037476040673
  0
LINE
  8
_0-7_枠細線
  6
CONTINUOUS
 62
    5
 10
1733.8635219031137
 20
674.79037476040639
 11
2037.8635219031146
 21
674.79037476040639
  0
LINE
  8
_0-7_枠細線
  6
CONTINUOUS
 62
    5
 10
1733.8635219031137
 20
714.79037476040639
 11
2037.8635219031146
 21
714.79037476040639
  0
LINE
  8
_0-7_枠細線
  6
CONTINUOUS
 62
    5
 10
1733.8635219031137
 20
394.79037476040639
 11
2037.8635219031146
 21
394.79037476040639
  0
TEXT
  8
_0-7_枠細線
 62
    5
 10
1953.0635219031153
 20
682.79037476040639
 40
24
 41
0.8000000000000001
 50
0
  1
備　考
  0
TEXT
  8
_0-7_枠細線
 62
    5
 10
1752.5997564710076
 20
722.79037476040639
 40
28
 41
1
 50
0
  1
色記号表
  0
LINE
  8
_0-7_枠細線
  6
CONTINUOUS
 62
    5
 10
1733.8635219031137
 20
354.79037476040594
 11
2037.8635219031146
 21
354.79037476040594
  0
LINE
  8
_0-7_枠細線
  6
CONTINUOUS
 62
    5
 10
1733.8635219031137
 20
314.79037476040571
 11
2037.8635219031146
 21
314.79037476040571
  0
LINE
  8
_0-7_枠細線
  6
CONTINUOUS
 62
    5
 10
1733.8635219031137
 20
714.79037476040639
 11
1733.8635219031137
 21
314.79037476040571
  0
LINE
  8
_0-7_枠細線
  6
CONTINUOUS
 62
    5
 10
1797.8635219031146
 20
714.79037476040639
 11
1797.8635219031146
 21
314.79037476040571
  0
LINE
  8
_0-7_枠細線
  6
CONTINUOUS
 62
    5
 10
1925.8635219031146
 20
714.79037476040639
 11
1925.8635219031146
 21
314.79037476040571
  0
LINE
  8
_0-7_枠細線
  6
CONTINUOUS
 62
    5
 10
2037.8635219031146
 20
714.79037476040639
 11
2037.8635219031146
 21
314.79037476040571
  0
LINE
  8
_0-7_枠細線
  6
CONTINUOUS
 62
    5
 10
1722.523016794006
 20
362.81012100960697
 11
1710.523016794006
 21
386.81012100960697
  0
LINE
  8
_0-7_枠細線
  6
CONTINUOUS
 62
    5
 10
1698.523016794006
 20
362.81012100960697
 11
1722.523016794006
 21
362.81012100960697
  0
LINE
  8
_0-7_枠細線
  6
CONTINUOUS
 62
    5
 10
1710.523016794006
 20
386.81012100960697
 11
1698.523016794006
 21
362.81012100960697
  0
TEXT
  8
_0-7_枠細線
 62
    5
 10
1702.3072588230427
 20
361.2920090658472
 40
20
 41
0.8
 50
0
  1
４
  0
LINE
  8
_0-1_計細線
  6
CONTINUOUS
 62
    3
 10
350.45451693353129
 20
1027
 11
350.45451693353129
 21
1171
  0
LINE
  8
_0-1_計細線
  6
CONTINUOUS
 62
    3
 10
350.45451693353129
 20
1171
 11
1344.4545169335313
 21
1171
  0
LINE
  8
_0-1_計細線
  6
CONTINUOUS
 62
    3
 10
1344.4545169335313
 20
1171
 11
1344.4545169335313
 21
1027
  0
LINE
  8
_0-1_計細線
  6
CONTINUOUS
 62
    3
 10
1344.4545169335313
 20
1027
 11
350.45451693353129
 21
1027
  0
LINE
  8
_0-0_計極細
  6
CENTER1
 62
    2
 10
338.15451693353157
 20
1099
 11
1366.404516933532
 21
1099
  0
ARC
  8
_0-0_計極細
  6
CONTINUOUS
 62
    2
 10
1138.0324850510094
 20
1127.9999999999138
 40
54.312365187078854
 50
327.72737804884275
 51
32.272621951156516
  0
ARC
  8
_0-0_計極細
  6
CONTINUOUS
 62
    2
 10
1229.8765488160614
 20
1070.00000000009
 40
54.312365187078854
 50
147.72737804884292
 51
212.27262195115645
  0
LINE
  8
_0-1_計細線
  6
CONTINUOUS
 62
    3
 10
363.95451693353402
 20
1145.5999999998271
 11
363.95451693353402
 21
1156.9999999998277
  0
LINE
  8
_0-1_計細線
  6
CONTINUOUS
 62
    3
 10
363.95451693353402
 20
1156.9999999998277
 11
1183.954516933534
 21
1156.9999999998277
  0
LINE
  8
_0-0_計極細
  6
CONTINUOUS
 62
    2
 10
363.95451693353402
 20
1153.7999999998274
 11
1185.8257169172382
 21
1153.7999999998274
  0
LINE
  8
_0-0_計極細
  6
CONTINUOUS
 62
    2
 10
363.95451693353402
 20
1148.7999999998274
 11
1188.2041205856237
 21
1148.7999999998274
  0
LINE
  8
_0-1_計細線
  6
CONTINUOUS
 62
    3
 10
363.95451693353402
 20
1145.5999999998271
 11
1189.4141258599373
 21
1145.5999999998271
  0
LINE
  8
_0-1_計細線
  6
CONTINUOUS
 62
    3
 10
363.95451693353402
 20
1128.0999999996129
 11
363.95451693353402
 21
1139.4999999996135
  0
LINE
  8
_0-1_計細線
  6
CONTINUOUS
 62
    3
 10
363.95451693353402
 20
1139.4999999996135
 11
1191.113395105581
 21
1139.4999999996135
  0
LINE
  8
_0-0_計極細
  6
CONTINUOUS
 62
    2
 10
363.95451693353402
 20
1136.2999999996132
 11
1191.706901789523
 21
1136.2999999996132
  0
LINE
  8
_0-0_計極細
  6
CONTINUOUS
 62
    2
 10
363.95451693353402
 20
1131.2999999996132
 11
1192.2445041262715
 21
1131.2999999996132
  0
LINE
  8
_0-1_計細線
  6
CONTINUOUS
 62
    3
 10
363.95451693353402
 20
1128.0999999996129
 11
1192.3447581779435
 21
1128.0999999996129
  0
LINE
  8
_0-1_計細線
  6
CONTINUOUS
 62
    3
 10
363.95451693353402
 20
1075.9000000001593
 11
363.95451693353402
 21
1087.3000000001598
  0
LINE
  8
_0-1_計細線
  6
CONTINUOUS
 62
    3
 10
363.95451693353402
 20
1087.3000000001598
 11
1178.3931241804346
 21
1087.3000000001598
  0
LINE
  8
_0-0_計極細
  6
CONTINUOUS
 62
    2
 10
363.95451693353402
 20
1084.1000000001595
 11
1177.4263532757898
 21
1084.1000000001595
  0
LINE
  8
_0-0_計極細
  6
CONTINUOUS
 62
    2
 10
363.95451693353402
 20
1079.1000000001595
 11
1176.3319598064015
 21
1079.1000000001595
  0
LINE
  8
_0-1_計細線
  6
CONTINUOUS
 62
    3
 10
363.95451693353402
 20
1075.9000000001593
 11
1175.8855957571102
 21
1075.9000000001593
  0
LINE
  8
_0-1_計細線
  6
CONTINUOUS
 62
    3
 10
363.95451693353402
 20
1058.4999999994961
 11
363.95451693353402
 21
1069.8999999994967
  0
LINE
  8
_0-1_計細線
  6
CONTINUOUS
 62
    3
 10
363.95451693353402
 20
1069.8999999994967
 11
1175.5642756891286
 21
1069.8999999994967
  0
LINE
  8
_0-0_計極細
  6
CONTINUOUS
 62
    2
 10
363.95451693353402
 20
1066.6999999994964
 11
1175.6645297408529
 21
1066.6999999994964
  0
LINE
  8
_0-0_計極細
  6
CONTINUOUS
 62
    2
 10
363.95451693353402
 20
1061.6999999994964
 11
1176.2021320776855
 21
1061.6999999994964
  0
LINE
  8
_0-1_計細線
  6
CONTINUOUS
 62
    3
 10
363.95451693353402
 20
1058.4999999994961
 11
1176.795638761683
 21
1058.4999999994961
  0
LINE
  8
_0-1_計細線
  6
CONTINUOUS
 62
    3
 10
363.95451693353402
 20
1040.9999999974489
 11
363.95451693353402
 21
1052.3999999974494
  0
LINE
  8
_0-1_計細線
  6
CONTINUOUS
 62
    3
 10
363.95451693353402
 20
1040.9999999974489
 11
1183.954516933534
 21
1040.9999999974489
  0
LINE
  8
_0-1_計細線
  6
CONTINUOUS
 62
    3
 10
363.95451693353402
 20
1052.3999999974494
 11
1178.494908008068
 21
1052.3999999974494
  0
LINE
  8
_0-0_計極細
  6
CONTINUOUS
 62
    2
 10
363.95451693353402
 20
1049.1999999974491
 11
1179.7049132825775
 21
1049.1999999974491
  0
LINE
  8
_0-0_計極細
  6
CONTINUOUS
 62
    2
 10
363.95451693353402
 20
1044.1999999974491
 11
1182.0833169513055
 21
1044.1999999974491
  0
LINE
  8
_0-5_寸法線
  6
CONTINUOUS
 62
    7
 10
350.45451693353129
 20
1187
 11
350.45451693353175
 21
1370.9999999999998
  0
LINE
  8
_0-5_寸法線
  6
CONTINUOUS
 62
    7
 10
350.45451693353175
 20
1362.9999999999998
 11
365.90933015415681
 21
1367.1411047216402
  0
LINE
  8
_0-5_寸法線
  6
CONTINUOUS
 62
    7
 10
350.45451693353175
 20
1362.9999999999998
 11
365.90933015415681
 21
1358.8588952783593
  0
LINE
  8
_0-5_寸法線
  6
CONTINUOUS
 62
    7
 10
1344.4545169335313
 20
1187
 11
1344.4545169335317
 21
1370.9999999999998
  0
LINE
  8
_0-5_寸法線
  6
CONTINUOUS
 62
    7
 10
1344.4545169335317
 20
1362.9999999999998
 11
1328.9997037129067
 21
1358.8588952783596
  0
LINE
  8
_0-5_寸法線
  6
CONTINUOUS
 62
    7
 10
1344.4545169335317
 20
1362.9999999999998
 11
1328.9997037129067
 21
1367.1411047216402
  0
LINE
  8
_0-5_寸法線
  6
CONTINUOUS
 62
    7
 10
350.45451693353175
 20
1362.9999999999998
 11
1344.4545169335317
 21
1362.9999999999998
  0
TEXT
  8
_0-5_寸法線
 62
    7
 10
835.45451693353175
 20
1362.9999999999998
 40
24
 41
1
 50
0
  1
Ｌ
  0
LINE
  8
_0-5_寸法線
  6
CONTINUOUS
 62
    7
 10
350.45451693353107
 20
1011
 11
350.45451693353027
 21
938.99999999999989
  0
LINE
  8
_0-5_寸法線
  6
CONTINUOUS
 62
    7
 10
350.45451693353039
 20
946.99999999999989
 11
365.90933015415544
 21
951.1411047216402
  0
LINE
  8
_0-5_寸法線
  6
CONTINUOUS
 62
    7
 10
350.45451693353039
 20
946.99999999999989
 11
365.90933015415544
 21
942.85889527835957
  0
LINE
  8
_0-5_寸法線
  6
CONTINUOUS
 62
    7
 10
1264.4545169335311
 20
1011
 11
1264.4545169335304
 21
938.99999999999989
  0
LINE
  8
_0-5_寸法線
  6
CONTINUOUS
 62
    7
 10
1264.4545169335304
 20
946.99999999999989
 11
1248.9997037129053
 21
942.85889527835957
  0
LINE
  8
_0-5_寸法線
  6
CONTINUOUS
 62
    7
 10
1264.4545169335304
 20
946.99999999999989
 11
1248.9997037129053
 21
951.14110472164032
  0
LINE
  8
_0-5_寸法線
  6
CONTINUOUS
 62
    7
 10
350.45451693353039
 20
946.99999999999989
 11
1264.4545169335304
 21
946.99999999999989
  0
TEXT
  8
_0-5_寸法線
 62
    7
 10
795.45451693353039
 20
946.99999999999989
 40
24
 41
1
 50
0
  1
Ｃ
  0
LINE
  8
_0-5_寸法線
  6
CONTINUOUS
 62
    7
 10
1264.4545169335304
 20
946.99999999999989
 11
1279.9093301541554
 21
951.14110472164009
  0
LINE
  8
_0-5_寸法線
  6
CONTINUOUS
 62
    7
 10
1264.4545169335304
 20
946.99999999999989
 11
1279.9093301541554
 21
942.85889527835946
  0
LINE
  8
_0-5_寸法線
  6
CONTINUOUS
 62
    7
 10
1344.4545169335311
 20
1011
 11
1344.4545169335304
 21
938.99999999999989
  0
LINE
  8
_0-5_寸法線
  6
CONTINUOUS
 62
    7
 10
1344.4545169335304
 20
946.99999999999989
 11
1328.9997037129053
 21
942.85889527835957
  0
LINE
  8
_0-5_寸法線
  6
CONTINUOUS
 62
    7
 10
1344.4545169335304
 20
946.99999999999989
 11
1328.9997037129053
 21
951.14110472164032
  0
LINE
  8
_0-5_寸法線
  6
CONTINUOUS
 62
    7
 10
1264.4545169335304
 20
946.99999999999989
 11
1344.4545169335304
 21
946.99999999999989
  0
TEXT
  8
_0-5_寸法線
 62
    7
 10
1292.4545169335308
 20
946.99999999999989
 40
24
 41
1
 50
0
  1
80
  0
LINE
  8
_0-0_計極細
  6
CENTER1
 62
    2
 10
370.95451693353402
 20
1162.6507194262958
 11
370.95451693353402
 21
1034.9736898045371
  0
LINE
  8
_0-0_計極細
  6
CONTINUOUS
 62
    2
 10
364.45451693353675
 20
1087.3000000001598
 11
364.45451693353675
 21
1093.2999999999602
  0
LINE
  8
_0-0_計極細
  6
CONTINUOUS
 62
    2
 10
377.45451693353675
 20
1087.3000000001598
 11
377.45451693353675
 21
1093.2999999999602
  0
LINE
  8
_0-0_計極細
  6
CONTINUOUS
 62
    2
 10
364.45451693353675
 20
1104.6999999999607
 11
364.45451693353675
 21
1110.7000000021676
  0
LINE
  8
_0-0_計極細
  6
CONTINUOUS
 62
    2
 10
377.45451693353675
 20
1104.6999999999607
 11
377.45451693353675
 21
1110.7000000021676
  0
LINE
  8
_0-0_計極細
  6
CONTINUOUS
 62
    2
 10
377.45451693353675
 20
1122.1000000021681
 11
377.45451693353675
 21
1128.0999999996129
  0
LINE
  8
_0-0_計極細
  6
CONTINUOUS
 62
    2
 10
364.45451693353675
 20
1122.1000000021681
 11
364.45451693353675
 21
1128.0999999996129
  0
LINE
  8
_0-0_計極細
  6
CONTINUOUS
 62
    2
 10
364.45451693353675
 20
1069.8999999994967
 11
364.45451693353675
 21
1075.9000000001593
  0
LINE
  8
_0-0_計極細
  6
CONTINUOUS
 62
    2
 10
377.45451693353675
 20
1069.8999999994967
 11
377.45451693353675
 21
1075.9000000001593
  0
LINE
  8
_0-0_計極細
  6
CONTINUOUS
 62
    2
 10
364.45451693353675
 20
1139.4999999996135
 11
364.45451693353675
 21
1145.5999999998271
  0
LINE
  8
_0-0_計極細
  6
CONTINUOUS
 62
    2
 10
377.45451693353675
 20
1139.4999999996135
 11
377.45451693353675
 21
1145.5999999998271
  0
LINE
  8
_0-0_計極細
  6
CONTINUOUS
 62
    2
 10
377.45451693353675
 20
1052.3999999974494
 11
377.45451693353675
 21
1058.4999999994961
  0
LINE
  8
_0-0_計極細
  6
CONTINUOUS
 62
    2
 10
364.45451693353675
 20
1052.3999999974494
 11
364.45451693353675
 21
1058.4999999994961
  0
LINE
  8
_0-0_計極細
  6
CENTER1
 62
    2
 10
467.95451693353402
 20
1162.6507194262958
 11
467.95451693353402
 21
1036.5000000018335
  0
LINE
  8
_0-0_計極細
  6
CONTINUOUS
 62
    2
 10
474.45451693353675
 20
1087.3000000001598
 11
474.45451693353675
 21
1093.2999999999602
  0
LINE
  8
_0-0_計極細
  6
CONTINUOUS
 62
    2
 10
474.45451693353675
 20
1087.3000000001598
 11
474.45451693353675
 21
1093.2999999999602
  0
LINE
  8
_0-0_計極細
  6
CONTINUOUS
 62
    2
 10
461.45451693353675
 20
1087.3000000001598
 11
461.45451693353675
 21
1093.2999999999602
  0
LINE
  8
_0-0_計極細
  6
CONTINUOUS
 62
    2
 10
461.45451693353675
 20
1087.3000000001598
 11
461.45451693353675
 21
1093.2999999999602
  0
LINE
  8
_0-0_計極細
  6
CONTINUOUS
 62
    2
 10
474.45451693353675
 20
1122.1000000021681
 11
474.45451693353675
 21
1128.0999999996129
  0
LINE
  8
_0-0_計極細
  6
CONTINUOUS
 62
    2
 10
461.45451693353675
 20
1122.1000000021681
 11
461.45451693353675
 21
1128.0999999996129
  0
LINE
  8
_0-0_計極細
  6
CONTINUOUS
 62
    2
 10
461.45451693353675
 20
1069.8999999994967
 11
461.45451693353675
 21
1075.9000000001593
  0
LINE
  8
_0-0_計極細
  6
CONTINUOUS
 62
    2
 10
474.45451693353675
 20
1069.8999999994967
 11
474.45451693353675
 21
1075.9000000001593
  0
LINE
  8
_0-0_計極細
  6
CONTINUOUS
 62
    2
 10
474.45451693353675
 20
1139.4999999996135
 11
474.45451693353675
 21
1145.5999999998271
  0
LINE
  8
_0-0_計極細
  6
CONTINUOUS
 62
    2
 10
474.45451693353675
 20
1139.4999999996135
 11
474.45451693353675
 21
1145.5999999998271
  0
LINE
  8
_0-0_計極細
  6
CONTINUOUS
 62
    2
 10
461.45451693353675
 20
1139.4999999996135
 11
461.45451693353675
 21
1145.5999999998271
  0
LINE
  8
_0-0_計極細
  6
CONTINUOUS
 62
    2
 10
461.45451693353675
 20
1139.4999999996135
 11
461.45451693353675
 21
1145.5999999998271
  0
LINE
  8
_0-0_計極細
  6
CONTINUOUS
 62
    2
 10
474.45451693353675
 20
1052.3999999974494
 11
474.45451693353675
 21
1058.4999999994961
  0
LINE
  8
_0-0_計極細
  6
CONTINUOUS
 62
    2
 10
461.45451693353675
 20
1052.3999999974494
 11
461.45451693353675
 21
1058.4999999994961
  0
LINE
  8
_0-0_計極細
  6
CENTER1
 62
    2
 10
564.95451693353402
 20
1162.6507194262958
 11
564.95451693353402
 21
1036.5000000018335
  0
LINE
  8
_0-0_計極細
  6
CONTINUOUS
 62
    2
 10
558.45451693353675
 20
1087.3000000001598
 11
558.45451693353675
 21
1093.2999999999602
  0
LINE
  8
_0-0_計極細
  6
CONTINUOUS
 62
    2
 10
571.45451693353675
 20
1087.3000000001598
 11
571.45451693353675
 21
1093.2999999999602
  0
LINE
  8
_0-0_計極細
  6
CONTINUOUS
 62
    2
 10
558.45451693353675
 20
1104.6999999999607
 11
558.45451693353675
 21
1110.7000000021676
  0
LINE
  8
_0-0_計極細
  6
CONTINUOUS
 62
    2
 10
571.45451693353675
 20
1104.6999999999607
 11
571.45451693353675
 21
1110.7000000021676
  0
LINE
  8
_0-0_計極細
  6
CONTINUOUS
 62
    2
 10
571.45451693353675
 20
1122.1000000021681
 11
571.45451693353675
 21
1128.0999999996129
  0
LINE
  8
_0-0_計極細
  6
CONTINUOUS
 62
    2
 10
558.45451693353675
 20
1122.1000000021681
 11
558.45451693353675
 21
1128.0999999996129
  0
LINE
  8
_0-0_計極細
  6
CONTINUOUS
 62
    2
 10
558.45451693353675
 20
1069.8999999994967
 11
558.45451693353675
 21
1075.9000000001593
  0
LINE
  8
_0-0_計極細
  6
CONTINUOUS
 62
    2
 10
571.45451693353675
 20
1069.8999999994967
 11
571.45451693353675
 21
1075.9000000001593
  0
LINE
  8
_0-0_計極細
  6
CONTINUOUS
 62
    2
 10
558.45451693353675
 20
1139.4999999996135
 11
558.45451693353675
 21
1145.5999999998271
  0
LINE
  8
_0-0_計極細
  6
CONTINUOUS
 62
    2
 10
571.45451693353675
 20
1139.4999999996135
 11
571.45451693353675
 21
1145.5999999998271
  0
LINE
  8
_0-0_計極細
  6
CONTINUOUS
 62
    2
 10
571.45451693353675
 20
1052.3999999974494
 11
571.45451693353675
 21
1058.4999999994961
  0
LINE
  8
_0-0_計極細
  6
CONTINUOUS
 62
    2
 10
558.45451693353675
 20
1052.3999999974494
 11
558.45451693353675
 21
1058.4999999994961
  0
LINE
  8
_0-0_計極細
  6
CENTER1
 62
    2
 10
661.95451693353402
 20
1162.6507194262958
 11
661.95451693353402
 21
1036.5000000018335
  0
LINE
  8
_0-0_計極細
  6
CONTINUOUS
 62
    2
 10
655.45451693353675
 20
1087.3000000001598
 11
655.45451693353675
 21
1093.2999999999602
  0
LINE
  8
_0-0_計極細
  6
CONTINUOUS
 62
    2
 10
668.45451693353675
 20
1087.3000000001598
 11
668.45451693353675
 21
1093.2999999999602
  0
LINE
  8
_0-0_計極細
  6
CONTINUOUS
 62
    2
 10
655.45451693353675
 20
1104.6999999999607
 11
655.45451693353675
 21
1110.7000000021676
  0
LINE
  8
_0-0_計極細
  6
CONTINUOUS
 62
    2
 10
668.45451693353675
 20
1104.6999999999607
 11
668.45451693353675
 21
1110.7000000021676
  0
LINE
  8
_0-0_計極細
  6
CONTINUOUS
 62
    2
 10
668.45451693353675
 20
1122.1000000021681
 11
668.45451693353675
 21
1128.0999999996129
  0
LINE
  8
_0-0_計極細
  6
CONTINUOUS
 62
    2
 10
655.45451693353675
 20
1122.1000000021681
 11
655.45451693353675
 21
1128.0999999996129
  0
LINE
  8
_0-0_計極細
  6
CONTINUOUS
 62
    2
 10
655.45451693353675
 20
1069.8999999994967
 11
655.45451693353675
 21
1075.9000000001593
  0
LINE
  8
_0-0_計極細
  6
CONTINUOUS
 62
    2
 10
668.45451693353675
 20
1069.8999999994967
 11
668.45451693353675
 21
1075.9000000001593
  0
LINE
  8
_0-0_計極細
  6
CONTINUOUS
 62
    2
 10
655.45451693353675
 20
1139.4999999996135
 11
655.45451693353675
 21
1145.5999999998271
  0
LINE
  8
_0-0_計極細
  6
CONTINUOUS
 62
    2
 10
668.45451693353675
 20
1139.4999999996135
 11
668.45451693353675
 21
1145.5999999998271
  0
LINE
  8
_0-0_計極細
  6
CONTINUOUS
 62
    2
 10
668.45451693353675
 20
1052.3999999974494
 11
668.45451693353675
 21
1058.4999999994961
  0
LINE
  8
_0-0_計極細
  6
CONTINUOUS
 62
    2
 10
655.45451693353675
 20
1052.3999999974494
 11
655.45451693353675
 21
1058.4999999994961
  0
LINE
  8
_0-0_計極細
  6
CENTER1
 62
    2
 10
758.95451693353402
 20
1162.6507194262958
 11
758.95451693353402
 21
1036.5000000018335
  0
LINE
  8
_0-0_計極細
  6
CONTINUOUS
 62
    2
 10
752.45451693353675
 20
1087.3000000001598
 11
752.45451693353675
 21
1093.2999999999602
  0
LINE
  8
_0-0_計極細
  6
CONTINUOUS
 62
    2
 10
765.45451693353675
 20
1087.3000000001598
 11
765.45451693353675
 21
1093.2999999999602
  0
LINE
  8
_0-0_計極細
  6
CONTINUOUS
 62
    2
 10
752.45451693353675
 20
1104.6999999999607
 11
752.45451693353675
 21
1110.7000000021676
  0
LINE
  8
_0-0_計極細
  6
CONTINUOUS
 62
    2
 10
765.45451693353675
 20
1104.6999999999607
 11
765.45451693353675
 21
1110.7000000021676
  0
LINE
  8
_0-0_計極細
  6
CONTINUOUS
 62
    2
 10
765.45451693353675
 20
1122.1000000021681
 11
765.45451693353675
 21
1128.0999999996129
  0
LINE
  8
_0-0_計極細
  6
CONTINUOUS
 62
    2
 10
752.45451693353675
 20
1122.1000000021681
 11
752.45451693353675
 21
1128.0999999996129
  0
LINE
  8
_0-0_計極細
  6
CONTINUOUS
 62
    2
 10
752.45451693353675
 20
1069.8999999994967
 11
752.45451693353675
 21
1075.9000000001593
  0
LINE
  8
_0-0_計極細
  6
CONTINUOUS
 62
    2
 10
765.45451693353675
 20
1069.8999999994967
 11
765.45451693353675
 21
1075.9000000001593
  0
LINE
  8
_0-0_計極細
  6
CONTINUOUS
 62
    2
 10
752.45451693353675
 20
1139.4999999996135
 11
752.45451693353675
 21
1145.5999999998271
  0
LINE
  8
_0-0_計極細
  6
CONTINUOUS
 62
    2
 10
765.45451693353675
 20
1139.4999999996135
 11
765.45451693353675
 21
1145.5999999998271
  0
LINE
  8
_0-0_計極細
  6
CONTINUOUS
 62
    2
 10
765.45451693353675
 20
1052.3999999974494
 11
765.45451693353675
 21
1058.4999999994961
  0
LINE
  8
_0-0_計極細
  6
CONTINUOUS
 62
    2
 10
752.45451693353675
 20
1052.3999999974494
 11
752.45451693353675
 21
1058.4999999994961
  0
LINE
  8
_0-0_計極細
  6
CENTER1
 62
    2
 10
855.95451693353402
 20
1162.6507194262958
 11
855.95451693353402
 21
1036.5000000018335
  0
LINE
  8
_0-0_計極細
  6
CONTINUOUS
 62
    2
 10
849.45451693353675
 20
1087.3000000001598
 11
849.45451693353675
 21
1093.2999999999602
  0
LINE
  8
_0-0_計極細
  6
CONTINUOUS
 62
    2
 10
862.45451693353675
 20
1087.3000000001598
 11
862.45451693353675
 21
1093.2999999999602
  0
LINE
  8
_0-0_計極細
  6
CONTINUOUS
 62
    2
 10
849.45451693353675
 20
1104.6999999999607
 11
849.45451693353675
 21
1110.7000000021676
  0
LINE
  8
_0-0_計極細
  6
CONTINUOUS
 62
    2
 10
862.45451693353675
 20
1104.6999999999607
 11
862.45451693353675
 21
1110.7000000021676
  0
LINE
  8
_0-0_計極細
  6
CONTINUOUS
 62
    2
 10
862.45451693353675
 20
1122.1000000021681
 11
862.45451693353675
 21
1128.0999999996129
  0
LINE
  8
_0-0_計極細
  6
CONTINUOUS
 62
    2
 10
849.45451693353675
 20
1122.1000000021681
 11
849.45451693353675
 21
1128.0999999996129
  0
LINE
  8
_0-0_計極細
  6
CONTINUOUS
 62
    2
 10
849.45451693353675
 20
1069.8999999994967
 11
849.45451693353675
 21
1075.9000000001593
  0
LINE
  8
_0-0_計極細
  6
CONTINUOUS
 62
    2
 10
862.45451693353675
 20
1069.8999999994967
 11
862.45451693353675
 21
1075.9000000001593
  0
LINE
  8
_0-0_計極細
  6
CONTINUOUS
 62
    2
 10
849.45451693353675
 20
1139.4999999996135
 11
849.45451693353675
 21
1145.5999999998271
  0
LINE
  8
_0-0_計極細
  6
CONTINUOUS
 62
    2
 10
862.45451693353675
 20
1139.4999999996135
 11
862.45451693353675
 21
1145.5999999998271
  0
LINE
  8
_0-0_計極細
  6
CONTINUOUS
 62
    2
 10
862.45451693353675
 20
1052.3999999974494
 11
862.45451693353675
 21
1058.4999999994961
  0
LINE
  8
_0-0_計極細
  6
CONTINUOUS
 62
    2
 10
849.45451693353675
 20
1052.3999999974494
 11
849.45451693353675
 21
1058.4999999994961
  0
LINE
  8
_0-0_計極細
  6
CENTER1
 62
    2
 10
855.9545172396854
 20
1162.6507194262958
 11
855.9545172396854
 21
1036.5000000018335
  0
LINE
  8
_0-0_計極細
  6
CONTINUOUS
 62
    2
 10
862.45451723968267
 20
1087.3000000001598
 11
862.45451723968267
 21
1093.2999999999602
  0
LINE
  8
_0-0_計極細
  6
CONTINUOUS
 62
    2
 10
849.45451723968267
 20
1087.3000000001598
 11
849.45451723968267
 21
1093.2999999999602
  0
LINE
  8
_0-0_計極細
  6
CONTINUOUS
 62
    2
 10
862.45451723968267
 20
1104.6999999999607
 11
862.45451723968267
 21
1110.7000000021676
  0
LINE
  8
_0-0_計極細
  6
CONTINUOUS
 62
    2
 10
849.45451723968267
 20
1104.6999999999607
 11
849.45451723968267
 21
1110.7000000021676
  0
LINE
  8
_0-0_計極細
  6
CONTINUOUS
 62
    2
 10
849.45451723968267
 20
1122.1000000021681
 11
849.45451723968267
 21
1128.0999999996129
  0
LINE
  8
_0-0_計極細
  6
CONTINUOUS
 62
    2
 10
862.45451723968267
 20
1122.1000000021681
 11
862.45451723968267
 21
1128.0999999996129
  0
LINE
  8
_0-0_計極細
  6
CONTINUOUS
 62
    2
 10
862.45451723968267
 20
1069.8999999994967
 11
862.45451723968267
 21
1075.9000000001593
  0
LINE
  8
_0-0_計極細
  6
CONTINUOUS
 62
    2
 10
849.45451723968267
 20
1069.8999999994967
 11
849.45451723968267
 21
1075.9000000001593
  0
LINE
  8
_0-0_計極細
  6
CONTINUOUS
 62
    2
 10
862.45451723968267
 20
1139.4999999996135
 11
862.45451723968267
 21
1145.5999999998271
  0
LINE
  8
_0-0_計極細
  6
CONTINUOUS
 62
    2
 10
849.45451723968267
 20
1139.4999999996135
 11
849.45451723968267
 21
1145.5999999998271
  0
LINE
  8
_0-0_計極細
  6
CONTINUOUS
 62
    2
 10
849.45451723968267
 20
1052.3999999974494
 11
849.45451723968267
 21
1058.4999999994961
  0
LINE
  8
_0-0_計極細
  6
CONTINUOUS
 62
    2
 10
862.45451723968267
 20
1052.3999999974494
 11
862.45451723968267
 21
1058.4999999994961
  0
LINE
  8
_0-0_計極細
  6
CENTER1
 62
    2
 10
935.95451693353402
 20
1162.6507194262958
 11
935.95451693353402
 21
1036.5000000018335
  0
LINE
  8
_0-0_計極細
  6
CONTINUOUS
 62
    2
 10
942.45451693353129
 20
1087.3000000001598
 11
942.45451693353129
 21
1093.2999999999602
  0
LINE
  8
_0-0_計極細
  6
CONTINUOUS
 62
    2
 10
929.45451693353129
 20
1087.3000000001598
 11
929.45451693353129
 21
1093.2999999999602
  0
LINE
  8
_0-0_計極細
  6
CONTINUOUS
 62
    2
 10
942.45451693353129
 20
1104.6999999999607
 11
942.45451693353129
 21
1110.7000000021676
  0
LINE
  8
_0-0_計極細
  6
CONTINUOUS
 62
    2
 10
929.45451693353129
 20
1104.6999999999607
 11
929.45451693353129
 21
1110.7000000021676
  0
LINE
  8
_0-0_計極細
  6
CONTINUOUS
 62
    2
 10
929.45451693353129
 20
1122.1000000021681
 11
929.45451693353129
 21
1128.0999999996129
  0
LINE
  8
_0-0_計極細
  6
CONTINUOUS
 62
    2
 10
942.45451693353129
 20
1122.1000000021681
 11
942.45451693353129
 21
1128.0999999996129
  0
LINE
  8
_0-0_計極細
  6
CONTINUOUS
 62
    2
 10
942.45451693353129
 20
1069.8999999994967
 11
942.45451693353129
 21
1075.9000000001593
  0
LINE
  8
_0-0_計極細
  6
CONTINUOUS
 62
    2
 10
929.45451693353129
 20
1069.8999999994967
 11
929.45451693353129
 21
1075.9000000001593
  0
LINE
  8
_0-0_計極細
  6
CONTINUOUS
 62
    2
 10
942.45451693353129
 20
1139.4999999996135
 11
942.45451693353129
 21
1145.5999999998271
  0
LINE
  8
_0-0_計極細
  6
CONTINUOUS
 62
    2
 10
929.45451693353129
 20
1139.4999999996135
 11
929.45451693353129
 21
1145.5999999998271
  0
LINE
  8
_0-0_計極細
  6
CONTINUOUS
 62
    2
 10
929.45451693353129
 20
1052.3999999974494
 11
929.45451693353129
 21
1058.4999999994961
  0
LINE
  8
_0-0_計極細
  6
CONTINUOUS
 62
    2
 10
942.45451693353129
 20
1052.3999999974494
 11
942.45451693353129
 21
1058.4999999994961
  0
LINE
  8
_0-0_計極細
  6
CENTER1
 62
    2
 10
1032.954516933534
 20
1162.6507194262958
 11
1032.954516933534
 21
1036.5000000018335
  0
LINE
  8
_0-0_計極細
  6
CONTINUOUS
 62
    2
 10
1039.4545169335313
 20
1087.3000000001598
 11
1039.4545169335313
 21
1093.2999999999602
  0
LINE
  8
_0-0_計極細
  6
CONTINUOUS
 62
    2
 10
1026.4545169335313
 20
1087.3000000001598
 11
1026.4545169335313
 21
1093.2999999999602
  0
LINE
  8
_0-0_計極細
  6
CONTINUOUS
 62
    2
 10
1039.4545169335313
 20
1104.6999999999607
 11
1039.4545169335313
 21
1110.7000000021676
  0
LINE
  8
_0-0_計極細
  6
CONTINUOUS
 62
    2
 10
1026.4545169335313
 20
1104.6999999999607
 11
1026.4545169335313
 21
1110.7000000021676
  0
LINE
  8
_0-0_計極細
  6
CONTINUOUS
 62
    2
 10
1026.4545169335313
 20
1122.1000000021681
 11
1026.4545169335313
 21
1128.0999999996129
  0
LINE
  8
_0-0_計極細
  6
CONTINUOUS
 62
    2
 10
1039.4545169335313
 20
1122.1000000021681
 11
1039.4545169335313
 21
1128.0999999996129
  0
LINE
  8
_0-0_計極細
  6
CONTINUOUS
 62
    2
 10
1039.4545169335313
 20
1069.8999999994967
 11
1039.4545169335313
 21
1075.9000000001593
  0
LINE
  8
_0-0_計極細
  6
CONTINUOUS
 62
    2
 10
1026.4545169335313
 20
1069.8999999994967
 11
1026.4545169335313
 21
1075.9000000001593
  0
LINE
  8
_0-0_計極細
  6
CONTINUOUS
 62
    2
 10
1039.4545169335313
 20
1139.4999999996135
 11
1039.4545169335313
 21
1145.5999999998271
  0
LINE
  8
_0-0_計極細
  6
CONTINUOUS
 62
    2
 10
1026.4545169335313
 20
1139.4999999996135
 11
1026.4545169335313
 21
1145.5999999998271
  0
LINE
  8
_0-0_計極細
  6
CONTINUOUS
 62
    2
 10
1026.4545169335313
 20
1052.3999999974494
 11
1026.4545169335313
 21
1058.4999999994961
  0
LINE
  8
_0-0_計極細
  6
CONTINUOUS
 62
    2
 10
1039.4545169335313
 20
1052.3999999974494
 11
1039.4545169335313
 21
1058.4999999994961
  0
LINE
  8
_0-0_計極細
  6
CENTER1
 62
    2
 10
1129.954516933534
 20
1162.6507194262958
 11
1129.954516933534
 21
1036.5000000018335
  0
LINE
  8
_0-0_計極細
  6
CONTINUOUS
 62
    2
 10
1136.4545169335313
 20
1087.3000000001598
 11
1136.4545169335313
 21
1093.2999999999602
  0
LINE
  8
_0-0_計極細
  6
CONTINUOUS
 62
    2
 10
1123.4545169335313
 20
1087.3000000001598
 11
1123.4545169335313
 21
1093.2999999999602
  0
LINE
  8
_0-0_計極細
  6
CONTINUOUS
 62
    2
 10
1136.4545169335313
 20
1104.6999999999607
 11
1136.4545169335313
 21
1110.7000000021676
  0
LINE
  8
_0-0_計極細
  6
CONTINUOUS
 62
    2
 10
1123.4545169335313
 20
1104.6999999999607
 11
1123.4545169335313
 21
1110.7000000021676
  0
LINE
  8
_0-0_計極細
  6
CONTINUOUS
 62
    2
 10
1123.4545169335313
 20
1122.1000000021681
 11
1123.4545169335313
 21
1128.0999999996129
  0
LINE
  8
_0-0_計極細
  6
CONTINUOUS
 62
    2
 10
1136.4545169335313
 20
1122.1000000021681
 11
1136.4545169335313
 21
1128.0999999996129
  0
LINE
  8
_0-0_計極細
  6
CONTINUOUS
 62
    2
 10
1136.4545169335313
 20
1069.8999999994967
 11
1136.4545169335313
 21
1075.9000000001593
  0
LINE
  8
_0-0_計極細
  6
CONTINUOUS
 62
    2
 10
1123.4545169335313
 20
1069.8999999994967
 11
1123.4545169335313
 21
1075.9000000001593
  0
LINE
  8
_0-0_計極細
  6
CONTINUOUS
 62
    2
 10
1136.4545169335313
 20
1139.4999999996135
 11
1136.4545169335313
 21
1145.5999999998271
  0
LINE
  8
_0-0_計極細
  6
CONTINUOUS
 62
    2
 10
1123.4545169335313
 20
1139.4999999996135
 11
1123.4545169335313
 21
1145.5999999998271
  0
LINE
  8
_0-0_計極細
  6
CONTINUOUS
 62
    2
 10
1123.4545169335313
 20
1052.3999999974494
 11
1123.4545169335313
 21
1058.4999999994961
  0
LINE
  8
_0-0_計極細
  6
CONTINUOUS
 62
    2
 10
1136.4545169335313
 20
1052.3999999974494
 11
1136.4545169335313
 21
1058.4999999994961
  0
LINE
  8
_0-0_計極細
  6
CENTER1
 62
    2
 10
1226.954516933534
 20
1162.6507194262958
 11
1226.954516933534
 21
1036.5000000018335
  0
LINE
  8
_0-0_計極細
  6
CENTER1
 62
    2
 10
1323.954516933534
 20
1162.6507194262958
 11
1323.954516933534
 21
1036.5000000018335
  0
LINE
  8
_0-1_計細線
  6
CONTINUOUS
 62
    3
 10
363.95451693353402
 20
1122.1000000021681
 11
1192.0234381102139
 21
1122.1000000021681
  0
LINE
  8
_0-0_計極細
  6
CONTINUOUS
 62
    2
 10
363.95451693353402
 20
1118.9000000021679
 11
1191.5770740610635
 21
1118.9000000021679
  0
LINE
  8
_0-0_計極細
  6
CONTINUOUS
 62
    2
 10
363.95451693353402
 20
1113.9000000021679
 11
1190.4826805919049
 21
1113.9000000021679
  0
LINE
  8
_0-1_計細線
  6
CONTINUOUS
 62
    3
 10
363.95451693353402
 20
1110.7000000021676
 11
363.95451693353402
 21
1122.1000000021681
  0
LINE
  8
_0-1_計細線
  6
CONTINUOUS
 62
    3
 10
363.95451693353402
 20
1110.7000000021676
 11
1189.5159096874165
 21
1110.7000000021676
  0
LINE
  8
_0-0_計極細
  6
CONTINUOUS
 62
    2
 10
363.95451693353402
 20
1101.4999999999604
 11
1185.4411658195884
 21
1101.4999999999604
  0
LINE
  8
_0-0_計極細
  6
CONTINUOUS
 62
    2
 10
363.95451693353402
 20
1096.4999999999604
 11
1182.4678680474346
 21
1096.4999999999604
  0
LINE
  8
_0-1_計細線
  6
CONTINUOUS
 62
    3
 10
363.95451693353402
 20
1093.2999999999602
 11
1180.8159433140834
 21
1093.2999999999602
  0
LINE
  8
_0-1_計細線
  6
CONTINUOUS
 62
    3
 10
363.95451693353402
 20
1104.6999999999607
 11
1187.0930905529469
 21
1104.6999999999607
  0
LINE
  8
_0-1_計細線
  6
CONTINUOUS
 62
    3
 10
363.95451693353402
 20
1093.2999999999602
 11
363.95451693353402
 21
1104.6999999999607
  0
LINE
  8
_0-0_計極細
  6
CONTINUOUS
 62
    2
 10
474.45451693353675
 20
1104.7000000023672
 11
474.45451693353675
 21
1105.3500000021684
  0
LINE
  8
_0-0_計極細
  6
CONTINUOUS
 62
    2
 10
474.45451693353675
 20
1110.0500000021682
 11
474.45451693353675
 21
1110.7000000021676
  0
LINE
  8
_0-0_計極細
  6
CONTINUOUS
 62
    2
 10
461.45451693353675
 20
1104.7000000023672
 11
461.45451693353675
 21
1105.3500000021684
  0
LINE
  8
_0-0_計極細
  6
CONTINUOUS
 62
    2
 10
461.45451693353675
 20
1110.0500000021682
 11
461.45451693353675
 21
1110.7000000021676
  0
LINE
  8
_0-5_寸法線
  6
CONTINUOUS
 62
    7
 10
436.8966035951812
 20
1107.0944420990211
 11
444.8966035951812
 21
1093.2380356384701
  0
LINE
  8
_0-5_寸法線
  6
CONTINUOUS
 62
    7
 10
436.8966035951812
 20
1107.0944420990211
 11
436.8966035951812
 21
1091.0944420990211
  0
LINE
  8
_0-5_寸法線
  6
CONTINUOUS
 62
    7
 10
436.8966035951812
 20
1107.0944420990211
 11
467.38773245876337
 21
993.30000000000018
  0
LINE
  8
_0-5_寸法線
  6
CONTINUOUS
 62
    7
 10
467.38773245876337
 20
993.30000000000018
 11
563.38773245876337
 21
993.30000000000018
  0
TEXT
  8
_0-5_寸法線
 62
    7
 10
467.38773245876337
 20
993.30000000000018
 40
24
 41
0.8000000000000001
 50
0
  1
取　外　具
  0
TEXT
  8
_0-5_寸法線
 62
    7
 10
469.84595108158055
 20
966.06004673698976
 40
24
 41
0.7999999999999999
 50
0
  1
(標準付属)
  0
LINE
  8
_0-1_計細線
  6
CONTINUOUS
 62
    3
 10
429.95451693353311
 20
1105.3500000021684
 11
482.95451693353311
 21
1105.3500000021684
  0
LINE
  8
_0-1_計細線
  6
CONTINUOUS
 62
    3
 10
482.95451693353311
 20
1110.0500000021682
 11
429.95451693353311
 21
1110.0500000021682
  0
LINE
  8
_0-1_計細線
  6
CONTINUOUS
 62
    3
 10
429.95451693353311
 20
1110.0500000021682
 11
429.95451693353311
 21
1105.3500000021684
  0
LINE
  8
_0-1_計細線
  6
CONTINUOUS
 62
    3
 10
472.95451693353311
 20
1110.0500000021682
 11
472.95451693353311
 21
1105.3500000021684
  0
LINE
  8
_0-1_計細線
  6
CONTINUOUS
 62
    3
 10
480.95451693353311
 20
1110.0500000021682
 11
480.95451693353311
 21
1105.3500000021684
  0
LINE
  8
_0-1_計細線
  6
CONTINUOUS
 62
    3
 10
482.95451693353311
 20
1110.0500000021682
 11
482.95451693353311
 21
1105.3500000021684
  0
LINE
  8
_0-1_計細線
  6
CONTINUOUS
 62
    3
 10
478.95451693353311
 20
1110.0500000021682
 11
478.95451693353311
 21
1105.3500000021684
  0
LINE
  8
_0-1_計細線
  6
CONTINUOUS
 62
    3
 10
476.95451693353311
 20
1110.0500000021682
 11
476.95451693353311
 21
1105.3500000021684
  0
LINE
  8
_0-1_計細線
  6
CONTINUOUS
 62
    3
 10
474.95451693353311
 20
1110.0500000021682
 11
474.95451693353311
 21
1105.3500000021684
  0
LINE
  8
_0-5_寸法線
  6
CONTINUOUS
 62
    7
 10
606.54009359360134
 20
1063.8223698921688
 11
614.54009359725649
 21
1049.9659634337281
  0
LINE
  8
_0-5_寸法線
  6
CONTINUOUS
 62
    7
 10
606.54009359360134
 20
1063.8223698921688
 11
606.54009359782196
 21
1047.8223698921688
  0
LINE
  8
_0-5_寸法線
  6
CONTINUOUS
 62
    7
 10
606.54009359360134
 20
1063.8223698921688
 11
625.43650567447548
 21
993.30000000000018
  0
LINE
  8
_0-5_寸法線
  6
CONTINUOUS
 62
    7
 10
625.43650567447548
 20
993.30000000000018
 11
841.74228345225424
 21
993.30000000000018
  0
TEXT
  8
_0-5_寸法線
 62
    7
 10
630.5422834522542
 20
993.30000000000018
 40
24
 41
0.8000000000000001
 50
0
  1
セーフティグレーチング
  0
LINE
  8
_0-5_寸法線
  6
CONTINUOUS
 62
    7
 10
869.27496832000134
 20
1033.374915695013
 11
877.27496830620714
 21
1019.5185092264979
  0
LINE
  8
_0-5_寸法線
  6
CONTINUOUS
 62
    7
 10
869.27496832000134
 20
1033.374915695013
 11
869.27496830407324
 21
1017.374915695013
  0
LINE
  8
_0-5_寸法線
  6
CONTINUOUS
 62
    7
 10
869.27496832000134
 20
1033.374915695013
 11
880.04652581284017
 21
993.17491569501226
  0
LINE
  8
_0-5_寸法線
  6
CONTINUOUS
 62
    7
 10
880.04652581284017
 20
993.17491569501226
 11
995.24652581284022
 21
993.17491569501226
  0
TEXT
  8
_0-5_寸法線
 62
    7
 10
880.04652581284017
 20
993.17491569501226
 40
24
 41
0.8000000000000001
 50
0
  1
排水ユニット
  0
LINE
  8
_0-5_寸法線
  6
CONTINUOUS
 62
    7
 10
334.45451693353129
 20
1171
 11
206.45451693353107
 21
1171
  0
LINE
  8
_0-5_寸法線
  6
CONTINUOUS
 62
    7
 10
214.45451693353107
 20
1171
 11
218.59562165517139
 21
1155.5451867793749
  0
LINE
  8
_0-5_寸法線
  6
CONTINUOUS
 62
    7
 10
214.45451693353107
 20
1171
 11
210.31341221189075
 21
1155.5451867793749
  0
LINE
  8
_0-5_寸法線
  6
CONTINUOUS
 62
    7
 10
334.45451693353129
 20
1027
 11
206.45451693353107
 21
1027
  0
LINE
  8
_0-5_寸法線
  6
CONTINUOUS
 62
    7
 10
214.45451693353107
 20
1027
 11
210.31341221189075
 21
1042.4548132206251
  0
LINE
  8
_0-5_寸法線
  6
CONTINUOUS
 62
    7
 10
214.45451693353107
 20
1027
 11
218.59562165517139
 21
1042.4548132206251
  0
LINE
  8
_0-5_寸法線
  6
CONTINUOUS
 62
    7
 10
214.45451693353107
 20
1171
 11
214.45451693353107
 21
1027
  0
TEXT
  8
_0-5_寸法線
 62
    7
 10
214.45451693353107
 20
1080.9999999999998
 40
24
 41
1
 50
90
  1
144
  0
LINE
  8
_0-5_寸法線
  6
CONTINUOUS
 62
    7
 10
270.45451693353107
 20
1171
 11
266.31341221189075
 21
1186.4548132206251
  0
LINE
  8
_0-5_寸法線
  6
CONTINUOUS
 62
    7
 10
270.45451693353107
 20
1171
 11
274.5956216551715
 21
1186.4548132206251
  0
LINE
  8
_0-5_寸法線
  6
CONTINUOUS
 62
    7
 10
334.45451693353129
 20
1159
 11
262.45451693353107
 21
1159
  0
LINE
  8
_0-5_寸法線
  6
CONTINUOUS
 62
    7
 10
270.45451693353107
 20
1211
 11
270.45451693353107
 21
1159
  0
TEXT
  8
_0-5_寸法線
 62
    7
 10
270.45451693353107
 20
1183.7878967217878
 40
24
 41
1
 50
90
  1
12
  0
LINE
  8
_0-5_寸法線
  6
CONTINUOUS
 62
    7
 10
270.45451693353107
 20
1159
 11
274.59562165517127
 21
1143.5451867793749
  0
LINE
  8
_0-5_寸法線
  6
CONTINUOUS
 62
    7
 10
270.45451693353107
 20
1159
 11
266.31341221189064
 21
1143.5451867793749
  0
LINE
  8
_0-5_寸法線
  6
CONTINUOUS
 62
    7
 10
334.45451693353129
 20
1039
 11
262.45451693353107
 21
1039
  0
LINE
  8
_0-5_寸法線
  6
CONTINUOUS
 62
    7
 10
270.45451693353107
 20
1039
 11
266.31341221189075
 21
1054.4548132206251
  0
LINE
  8
_0-5_寸法線
  6
CONTINUOUS
 62
    7
 10
270.45451693353107
 20
1039
 11
274.5956216551715
 21
1054.4548132206251
  0
LINE
  8
_0-5_寸法線
  6
CONTINUOUS
 62
    7
 10
270.45451693353107
 20
1159
 11
270.45451693353107
 21
1039
  0
TEXT
  8
_0-5_寸法線
 62
    7
 10
270.45451693353107
 20
1080.9999999999998
 40
24
 41
1
 50
90
  1
120
  0
LINE
  8
_0-5_寸法線
  6
CONTINUOUS
 62
    7
 10
270.45451693353107
 20
1027
 11
274.59562165517127
 21
1011.5451867793749
  0
LINE
  8
_0-5_寸法線
  6
CONTINUOUS
 62
    7
 10
270.45451693353107
 20
1027
 11
266.31341221189064
 21
1011.5451867793749
  0
LINE
  8
_0-5_寸法線
  6
CONTINUOUS
 62
    7
 10
270.45451693353107
 20
1039
 11
270.45451693353107
 21
987
  0
TEXT
  8
_0-5_寸法線
 62
    7
 10
270.45451693353107
 20
988.45875382780582
 40
24
 41
1
 50
90
  1
12
  0
LINE
  8
_0-5_寸法線
  6
CONTINUOUS
 62
    7
 10
363.95451693353414
 20
1187
 11
363.95451693353448
 21
1259
  0
LINE
  8
_0-5_寸法線
  6
CONTINUOUS
 62
    7
 10
363.95451693353448
 20
1251
 11
379.40933015415953
 21
1255.1411047216404
  0
LINE
  8
_0-5_寸法線
  6
CONTINUOUS
 62
    7
 10
363.95451693353448
 20
1251
 11
379.40933015415953
 21
1246.8588952783596
  0
LINE
  8
_0-5_寸法線
  6
CONTINUOUS
 62
    7
 10
1330.9545169335313
 20
1187
 11
1330.9545169335317
 21
1259
  0
LINE
  8
_0-5_寸法線
  6
CONTINUOUS
 62
    7
 10
1330.9545169335317
 20
1251
 11
1315.4997037129067
 21
1246.8588952783598
  0
LINE
  8
_0-5_寸法線
  6
CONTINUOUS
 62
    7
 10
1330.9545169335317
 20
1251
 11
1315.4997037129067
 21
1255.1411047216404
  0
LINE
  8
_0-5_寸法線
  6
CONTINUOUS
 62
    7
 10
363.95451693353448
 20
1251
 11
1330.9545169335317
 21
1251
  0
TEXT
  8
_0-5_寸法線
 62
    7
 10
835.45451693353311
 20
1251
 40
24
 41
1
 50
0
  1
Ｂ
  0
LINE
  8
_0-5_寸法線
  6
CONTINUOUS
 62
    7
 10
350.45451693353175
 20
1306.9999999999998
 11
334.99970371290669
 21
1302.8588952783596
  0
LINE
  8
_0-5_寸法線
  6
CONTINUOUS
 62
    7
 10
350.45451693353175
 20
1306.9999999999998
 11
334.99970371290669
 21
1311.1411047216402
  0
LINE
  8
_0-5_寸法線
  6
CONTINUOUS
 62
    7
 10
362.45451693353129
 20
1187
 11
362.45451693353175
 21
1314.9999999999998
  0
LINE
  8
_0-5_寸法線
  6
CONTINUOUS
 62
    7
 10
310.45451693353175
 20
1306.9999999999998
 11
362.45451693353175
 21
1306.9999999999998
  0
TEXT
  8
_0-5_寸法線
 62
    7
 10
306.04422169812074
 20
1306.9999999999998
 40
24
 41
1
 50
0
  1
12
  0
LINE
  8
_0-5_寸法線
  6
CONTINUOUS
 62
    7
 10
362.45451693353175
 20
1306.9999999999998
 11
377.90933015415681
 21
1311.14110472164
  0
LINE
  8
_0-5_寸法線
  6
CONTINUOUS
 62
    7
 10
362.45451693353175
 20
1306.9999999999998
 11
377.90933015415681
 21
1302.8588952783593
  0
LINE
  8
_0-5_寸法線
  6
CONTINUOUS
 62
    7
 10
1332.4545169335313
 20
1187
 11
1332.4545169335317
 21
1314.9999999999998
  0
LINE
  8
_0-5_寸法線
  6
CONTINUOUS
 62
    7
 10
1332.4545169335317
 20
1306.9999999999998
 11
1316.9997037129067
 21
1302.8588952783596
  0
LINE
  8
_0-5_寸法線
  6
CONTINUOUS
 62
    7
 10
1332.4545169335317
 20
1306.9999999999998
 11
1316.9997037129067
 21
1311.1411047216402
  0
LINE
  8
_0-5_寸法線
  6
CONTINUOUS
 62
    7
 10
362.45451693353175
 20
1306.9999999999998
 11
1332.4545169335317
 21
1306.9999999999998
  0
TEXT
  8
_0-5_寸法線
 62
    7
 10
835.45451693353175
 20
1306.9999999999998
 40
24
 41
1
 50
0
  1
Ａ
  0
LINE
  8
_0-5_寸法線
  6
CONTINUOUS
 62
    7
 10
1344.4545169335317
 20
1306.9999999999998
 11
1359.9093301541568
 21
1311.14110472164
  0
LINE
  8
_0-5_寸法線
  6
CONTINUOUS
 62
    7
 10
1344.4545169335317
 20
1306.9999999999998
 11
1359.9093301541568
 21
1302.8588952783593
  0
LINE
  8
_0-5_寸法線
  6
CONTINUOUS
 62
    7
 10
1332.4545169335317
 20
1306.9999999999998
 11
1384.4545169335317
 21
1306.9999999999998
  0
TEXT
  8
_0-5_寸法線
 62
    7
 10
1362.3378537735878
 20
1306.9999999999998
 40
24
 41
1
 50
0
  1
12
  0
LINE
  8
_0-1_計細線
  6
CONTINUOUS
 62
    3
 10
1447.4545169335313
 20
1170.9999999999998
 11
1447.4545169335313
 21
1027
  0
LINE
  8
_0-1_計細線
  6
CONTINUOUS
 62
    3
 10
1447.4545169335313
 20
1027
 11
1455.4545169335313
 21
1027
  0
LINE
  8
_0-1_計細線
  6
CONTINUOUS
 62
    3
 10
1455.4545169335313
 20
1027
 11
1455.4545169335313
 21
1170.9999999999998
  0
LINE
  8
_0-1_計細線
  6
CONTINUOUS
 62
    3
 10
1455.4545169335313
 20
1170.9999999999998
 11
1447.4545169335313
 21
1170.9999999999998
  0
LINE
  8
_0-1_計細線
  6
CONTINUOUS
 62
    3
 10
1535.4545169335315
 20
1038.0000000000005
 11
1570.4545169335315
 21
1038.0000000000005
  0
LINE
  8
_0-1_計細線
  6
CONTINUOUS
 62
    3
 10
1570.4545169335315
 20
1038.0000000000005
 11
1570.4545169335315
 21
1036.8000000000002
  0
LINE
  8
_0-1_計細線
  6
CONTINUOUS
 62
    3
 10
1570.4545169335315
 20
1036.8000000000002
 11
1535.4545169335315
 21
1036.8000000000002
  0
LINE
  8
_0-1_計細線
  6
CONTINUOUS
 62
    3
 10
1535.4545169335315
 20
1036.8000000000002
 11
1535.4545169335315
 21
1038.0000000000005
  0
LINE
  8
_0-1_計細線
  6
CONTINUOUS
 62
    3
 10
1537.4545169335315
 20
1036.8000000000002
 11
1537.4545169335315
 21
1038.0000000000005
  0
LINE
  8
_0-1_計細線
  6
CONTINUOUS
 62
    3
 10
1547.4545169335315
 20
1036.8000000000002
 11
1547.4545169335315
 21
1038.0000000000005
  0
LINE
  8
_0-1_計細線
  6
CONTINUOUS
 62
    3
 10
1549.4545169335315
 20
1036.8000000000002
 11
1549.4545169335315
 21
1038.0000000000005
  0
LINE
  8
_0-1_計細線
  6
CONTINUOUS
 62
    3
 10
1551.4545169335315
 20
1036.8000000000002
 11
1551.4545169335315
 21
1038.0000000000005
  0
LINE
  8
_0-1_計細線
  6
CONTINUOUS
 62
    3
 10
1553.4545169335315
 20
1036.8000000000002
 11
1553.4545169335315
 21
1038.0000000000005
  0
LINE
  8
_0-1_計細線
  6
CONTINUOUS
 62
    3
 10
1567.4545169335315
 20
1036.8000000000002
 11
1567.4545169335315
 21
1038.0000000000005
  0
LINE
  8
_0-1_計細線
  6
CONTINUOUS
 62
    3
 10
1535.4545169335315
 20
1161.1999999999998
 11
1570.4545169335315
 21
1161.1999999999998
  0
LINE
  8
_0-1_計細線
  6
CONTINUOUS
 62
    3
 10
1570.4545169335315
 20
1161.1999999999998
 11
1570.4545169335315
 21
1160
  0
LINE
  8
_0-1_計細線
  6
CONTINUOUS
 62
    3
 10
1570.4545169335315
 20
1160
 11
1535.4545169335315
 21
1160
  0
LINE
  8
_0-1_計細線
  6
CONTINUOUS
 62
    3
 10
1535.4545169335315
 20
1160
 11
1535.4545169335315
 21
1161.1999999999998
  0
LINE
  8
_0-1_計細線
  6
CONTINUOUS
 62
    3
 10
1537.4545169335315
 20
1160
 11
1537.4545169335315
 21
1161.1999999999998
  0
LINE
  8
_0-1_計細線
  6
CONTINUOUS
 62
    3
 10
1547.4545169335315
 20
1160
 11
1547.4545169335315
 21
1161.1999999999998
  0
LINE
  8
_0-1_計細線
  6
CONTINUOUS
 62
    3
 10
1549.4545169335315
 20
1160
 11
1549.4545169335315
 21
1161.1999999999998
  0
LINE
  8
_0-1_計細線
  6
CONTINUOUS
 62
    3
 10
1551.4545169335315
 20
1160
 11
1551.4545169335315
 21
1161.1999999999998
  0
LINE
  8
_0-1_計細線
  6
CONTINUOUS
 62
    3
 10
1553.4545169335315
 20
1160
 11
1553.4545169335315
 21
1161.1999999999998
  0
LINE
  8
_0-1_計細線
  6
CONTINUOUS
 62
    3
 10
1567.4545169335315
 20
1160
 11
1567.4545169335315
 21
1161.1999999999998
  0
LINE
  8
_0-1_計細線
  6
CONTINUOUS
 62
    3
 10
1547.4545169335315
 20
1160
 11
1547.4545169335315
 21
1038.0000000000005
  0
LINE
  8
_0-1_計細線
  6
CONTINUOUS
 62
    3
 10
1455.4545169335315
 20
1160
 11
1547.4545169335315
 21
1160
  0
LINE
  8
_0-1_計細線
  6
CONTINUOUS
 62
    3
 10
1547.4545169335315
 20
1038.0000000000005
 11
1455.4545169335311
 21
1038.0000000000005
  0
LINE
  8
_0-0_計極細
  6
CENTER1
 62
    2
 10
1424.446439841799
 20
1099
 11
1575.0072142493591
 21
1099
  0
LINE
  8
_0-5_寸法線
  6
CONTINUOUS
 62
    7
 10
1447.4545169335313
 20
1186.9999999999995
 11
1447.4545169335313
 21
1259
  0
LINE
  8
_0-5_寸法線
  6
CONTINUOUS
 62
    7
 10
1447.4545169335313
 20
1251
 11
1462.9093301541564
 21
1255.1411047216404
  0
LINE
  8
_0-5_寸法線
  6
CONTINUOUS
 62
    7
 10
1447.4545169335313
 20
1251
 11
1462.9093301541564
 21
1246.8588952783596
  0
LINE
  8
_0-5_寸法線
  6
CONTINUOUS
 62
    7
 10
1547.4545169335313
 20
1177.1999999999998
 11
1547.4545169335313
 21
1259
  0
LINE
  8
_0-5_寸法線
  6
CONTINUOUS
 62
    7
 10
1547.4545169335313
 20
1251
 11
1531.9997037129062
 21
1246.8588952783598
  0
LINE
  8
_0-5_寸法線
  6
CONTINUOUS
 62
    7
 10
1547.4545169335313
 20
1251
 11
1531.9997037129062
 21
1255.1411047216404
  0
LINE
  8
_0-5_寸法線
  6
CONTINUOUS
 62
    7
 10
1447.4545169335313
 20
1251
 11
1547.4545169335313
 21
1251
  0
TEXT
  8
_0-5_寸法線
 62
    7
 10
1479.4545169335313
 20
1251
 40
24
 41
1
 50
0
  1
100
  0
LINE
  8
_0-5_寸法線
  6
CONTINUOUS
 62
    7
 10
1570.4545169335313
 20
1177.1999999999998
 11
1570.4545169335313
 21
1259
  0
LINE
  8
_0-5_寸法線
  6
CONTINUOUS
 62
    7
 10
1570.4545169335313
 20
1251
 11
1585.9093301541564
 21
1255.1411047216402
  0
LINE
  8
_0-5_寸法線
  6
CONTINUOUS
 62
    7
 10
1570.4545169335313
 20
1251
 11
1585.9093301541564
 21
1246.8588952783596
  0
LINE
  8
_0-5_寸法線
  6
CONTINUOUS
 62
    7
 10
1547.4545169335313
 20
1251
 11
1610.4545169335313
 21
1251
  0
TEXT
  8
_0-5_寸法線
 62
    7
 10
1589.038792801344
 20
1251
 40
24
 41
1
 50
0
  1
23
  0
LINE
  8
_0-5_寸法線
  6
CONTINUOUS
 62
    7
 10
1447.4545169335313
 20
1186.9999999999995
 11
1447.4545169335313
 21
1315
  0
LINE
  8
_0-5_寸法線
  6
CONTINUOUS
 62
    7
 10
1447.4545169335313
 20
1307
 11
1462.9093301541564
 21
1311.1411047216404
  0
LINE
  8
_0-5_寸法線
  6
CONTINUOUS
 62
    7
 10
1447.4545169335313
 20
1307
 11
1462.9093301541564
 21
1302.8588952783596
  0
LINE
  8
_0-5_寸法線
  6
CONTINUOUS
 62
    7
 10
1570.4545169335313
 20
1177.1999999999998
 11
1570.4545169335313
 21
1315
  0
LINE
  8
_0-5_寸法線
  6
CONTINUOUS
 62
    7
 10
1570.4545169335313
 20
1307
 11
1554.9997037129062
 21
1302.8588952783598
  0
LINE
  8
_0-5_寸法線
  6
CONTINUOUS
 62
    7
 10
1570.4545169335313
 20
1307
 11
1554.9997037129062
 21
1311.1411047216404
  0
LINE
  8
_0-5_寸法線
  6
CONTINUOUS
 62
    7
 10
1447.4545169335313
 20
1307
 11
1570.4545169335313
 21
1307
  0
TEXT
  8
_0-5_寸法線
 62
    7
 10
1490.9545169335313
 20
1306.9999999999991
 40
24
 41
1
 50
0
  1
123
  0
LINE
  8
_0-7_枠細線
  6
CONTINUOUS
 62
    5
 10
422.43819358138103
 20
998.50707291608478
 11
410.43819358138103
 21
1022.5070729160848
  0
LINE
  8
_0-7_枠細線
  6
CONTINUOUS
 62
    5
 10
398.43819358138103
 20
998.50707291608478
 11
422.43819358138103
 21
998.50707291608478
  0
LINE
  8
_0-7_枠細線
  6
CONTINUOUS
 62
    5
 10
410.43819358138103
 20
1022.5070729160848
 11
398.43819358138103
 21
998.50707291608478
  0
TEXT
  8
_0-7_枠細線
 62
    5
 10
402.22243561041796
 20
998.01586932347629
 40
20
 41
0.8
 50
0
  1
３
  0
LINE
  8
_0-7_枠細線
  6
CONTINUOUS
 62
    5
 10
440.38056784489527
 20
1022.5070729160848
 11
428.38056784489527
 21
998.50707291608478
  0
LINE
  8
_0-7_枠細線
  6
CONTINUOUS
 62
    5
 10
428.38056784489527
 20
998.50707291608478
 11
452.38056784489527
 21
998.50707291608478
  0
LINE
  8
_0-7_枠細線
  6
CONTINUOUS
 62
    5
 10
452.38056784489527
 20
998.50707291608478
 11
440.38056784489527
 21
1022.5070729160848
  0
TEXT
  8
_0-7_枠細線
 62
    5
 10
432.1648098739322
 20
997.6307786917946
 40
20
 41
0.8
 50
0
  1
５
  0
ARC
  8
_0-1_計細線
  6
CONTINUOUS
 62
    3
 10
1547.9545169335315
 20
1158.0000000000002
 40
0.5
 50
179.99999999999983
 51
269.99999999999977
  0
LINE
  8
_0-1_計細線
  6
CONTINUOUS
 62
    3
 10
1547.9545169335315
 20
1157.5000000000002
 11
1549.9545169335315
 21
1157.5000000000002
  0
ARC
  8
_0-1_計細線
  6
CONTINUOUS
 62
    3
 10
1547.9545169335315
 20
1040
 40
0.5
 50
89.999999999999915
 51
179.99999999999983
  0
LINE
  8
_0-1_計細線
  6
CONTINUOUS
 62
    3
 10
1547.9545169335315
 20
1040.5
 11
1549.9545169335315
 21
1040.5
  0
ARC
  8
_0-1_計細線
  6
CONTINUOUS
 62
    3
 10
1549.9545169335315
 20
1156.0000000000002
 40
1.5
 50
0
 51
89.999999999999915
  0
LINE
  8
_0-1_計細線
  6
CONTINUOUS
 62
    3
 10
1551.4545169335315
 20
1156.0000000000002
 11
1551.4545169335315
 21
1042
  0
ARC
  8
_0-1_計細線
  6
CONTINUOUS
 62
    3
 10
1549.9545169335315
 20
1042
 40
1.5
 50
269.99999999999977
 51
359.99999999999966
  0
LINE
  8
_0-1_計細線
  6
CONTINUOUS
 62
    3
 10
1292.4545169335313
 20
1159
 11
1292.4545169335313
 21
1157
  0
LINE
  8
_0-1_計細線
  6
CONTINUOUS
 62
    3
 10
1292.4545169335313
 20
1157
 11
1304.5966525572619
 21
1144.8578643762689
  0
LINE
  8
_0-1_計細線
  6
CONTINUOUS
 62
    3
 10
1318.738788180993
 20
1139
 11
1332.4545169335313
 21
1139
  0
ARC
  8
_0-1_計細線
  6
CONTINUOUS
 62
    3
 10
1318.738788180993
 20
1159
 40
20
 50
224.99999999999963
 51
269.99999999999977
  0
LINE
  8
_0-1_計細線
  6
CONTINUOUS
 62
    3
 10
1236.4545169335313
 20
1159
 11
1236.4545169335313
 21
1157
  0
LINE
  8
_0-1_計細線
  6
CONTINUOUS
 62
    3
 10
1191.2192598377239
 20
1139
 11
1210.1702456860692
 21
1139
  0
LINE
  8
_0-1_計細線
  6
CONTINUOUS
 62
    3
 10
1236.4545169335313
 20
1157
 11
1224.3123813098002
 21
1144.8578643762689
  0
ARC
  8
_0-1_計細線
  6
CONTINUOUS
 62
    3
 10
1210.1702456860692
 20
1159
 40
20
 50
269.99999999999977
 51
314.99999999999966
  0
LINE
  8
_0-1_計細線
  6
CONTINUOUS
 62
    3
 10
1236.4545169335313
 20
1039
 11
1236.4545169335313
 21
1041
  0
LINE
  8
_0-1_計細線
  6
CONTINUOUS
 62
    3
 10
1176.6897740293473
 20
1059
 11
1210.1702456860692
 21
1059
  0
LINE
  8
_0-1_計細線
  6
CONTINUOUS
 62
    3
 10
1236.4545169335313
 20
1041
 11
1224.3123813098002
 21
1053.1421356237308
  0
ARC
  8
_0-1_計細線
  6
CONTINUOUS
 62
    3
 10
1210.1702456860692
 20
1039
 40
20
 50
44.999999999999545
 51
89.999999999999915
  0
LINE
  8
_0-1_計細線
  6
CONTINUOUS
 62
    3
 10
1292.4545169335313
 20
1039
 11
1292.4545169335313
 21
1041
  0
LINE
  8
_0-1_計細線
  6
CONTINUOUS
 62
    3
 10
1292.4545169335313
 20
1041
 11
1304.5966525572619
 21
1053.1421356237308
  0
LINE
  8
_0-1_計細線
  6
CONTINUOUS
 62
    3
 10
1318.738788180993
 20
1059
 11
1332.4545169335313
 21
1059
  0
ARC
  8
_0-1_計細線
  6
CONTINUOUS
 62
    3
 10
1318.738788180993
 20
1039
 40
20
 50
89.999999999999915
 51
135.00000000000045
  0
LINE
  8
_0-1_計細線
  6
CONTINUOUS
 62
    3
 10
1332.4545169335313
 20
1159
 11
362.45451693353129
 21
1159
  0
LINE
  8
_0-1_計細線
  6
CONTINUOUS
 62
    3
 10
362.45451693353129
 20
1159
 11
362.45451693353129
 21
1039
  0
LINE
  8
_0-1_計細線
  6
CONTINUOUS
 62
    3
 10
362.45451693353129
 20
1039
 11
1332.4545169335313
 21
1039
  0
LINE
  8
_0-1_計細線
  6
CONTINUOUS
 62
    3
 10
1332.4545169335313
 20
1039
 11
1332.4545169335313
 21
1159
  0
ARC
  8
_0-1_計細線
  6
CONTINUOUS
 62
    3
 10
1303.0702756687299
 20
1113.1998048880055
 40
0.501740082747087
 50
330.00000000006594
 51
20.189990999972171
  0
ARC
  8
_0-1_計細線
  6
CONTINUOUS
 62
    3
 10
1303.0702756687299
 20
1084.8001951119963
 40
0.501740082747087
 50
339.81000900002709
 51
29.999999999933351
  0
LINE
  8
_0-1_計細線
  6
CONTINUOUS
 62
    3
 10
1265.759082142529
 20
1101.25783940372
 11
1264.4555140471132
 21
1103.5156788074391
  0
LINE
  8
_0-1_計細線
  6
CONTINUOUS
 62
    3
 10
1265.759082142529
 20
1101.25783940372
 11
1245.6191907867817
 21
1136.1411511250267
  0
LINE
  8
_0-1_計細線
  6
CONTINUOUS
 62
    3
 10
1265.759082142529
 20
1101.25783940372
 11
1268.3662123124557
 21
1101.25783940372
  0
LINE
  8
_0-1_計細線
  6
CONTINUOUS
 62
    3
 10
1261.8483898980924
 20
1099
 11
1241.7084985423423
 21
1133.8833117213089
  0
ARC
  8
_0-1_計細線
  6
CONTINUOUS
 62
    3
 10
1232.850741683538
 20
1072.65854028994
 40
0.501740082747087
 50
219.81000899998574
 51
269.99999999999977
  0
LINE
  8
_0-1_計細線
  6
CONTINUOUS
 62
    3
 10
1265.759082142529
 20
1096.7421605962809
 11
1245.6191907867817
 21
1061.8588488749738
  0
LINE
  8
_0-1_計細線
  6
CONTINUOUS
 62
    3
 10
1261.8483898980924
 20
1099
 11
1241.7084985423423
 21
1064.1166882786929
  0
ARC
  8
_0-1_計細線
  6
CONTINUOUS
 62
    3
 10
1264.4555140471132
 20
1099
 40
46.4111412917104
 50
89.999999999999915
 51
269.99999999999977
  0
ARC
  8
_0-1_計細線
  6
CONTINUOUS
 62
    3
 10
1264.4555140471132
 20
1099
 40
57.198598227560829
 50
89.999999999999915
 51
269.99999999999977
  0
CIRCLE
  8
_0-1_計細線
  6
CONTINUOUS
 62
    3
 10
1264.4555140471132
 20
1099
 40
58.202084413960065
  0
LINE
  8
_0-1_計細線
  6
CONTINUOUS
 62
    3
 10
1265.759082142529
 20
1101.25783940372
 11
1306.03885883312
 21
1101.25783940372
  0
LINE
  8
_0-1_計細線
  6
CONTINUOUS
 62
    3
 10
1265.759082142529
 20
1096.7421605962809
 11
1306.03885883312
 21
1096.7421605962809
  0
ARC
  8
_0-1_計細線
  6
CONTINUOUS
 62
    3
 10
1264.4555140471132
 20
1099
 40
46.4111412917104
 50
269.99999999999977
 51
89.999999999999545
  0
ARC
  8
_0-1_計細線
  6
CONTINUOUS
 62
    3
 10
1264.4555140471132
 20
1099
 40
57.198598227560829
 50
269.99999999999977
 51
89.999999999999545
  0
ARC
  8
_0-1_計細線
  6
CONTINUOUS
 62
    3
 10
1264.4555140471132
 20
1099
 40
41.644595453350369
 50
89.999999999999915
 51
116.89207624474167
  0
ARC
  8
_0-1_計細線
  6
CONTINUOUS
 62
    3
 10
1264.4555140471132
 20
1099
 40
41.644595453350369
 50
123.1079186869396
 51
236.89208131305881
  0
ARC
  8
_0-1_計細線
  6
CONTINUOUS
 62
    3
 10
1264.4555140471132
 20
1099
 40
41.644595453350369
 50
243.1079237552571
 51
269.99999999999977
  0
ARC
  8
_0-1_計細線
  6
CONTINUOUS
 62
    3
 10
1264.4555140471132
 20
1099
 40
41.644595453350369
 50
269.99999999999977
 51
356.89207858909316
  0
ARC
  8
_0-1_計細線
  6
CONTINUOUS
 62
    3
 10
1264.4555140471132
 20
1099
 40
41.644595453350369
 50
3.1079214109077626
 51
89.999999999999915
  0
ARC
  8
_0-0_計極細
  6
CONTINUOUS
 62
    2
 10
1264.4555140471132
 20
1099
 40
50.153133796808191
 50
269.99999999999977
 51
89.999999999999545
  0
ARC
  8
_0-0_計極細
  6
CONTINUOUS
 62
    2
 10
1264.4555140471132
 20
1099
 40
50.153133796808191
 50
89.999999999999915
 51
269.99999999999977
  0
ARC
  8
_0-0_計極細
  6
CONTINUOUS
 62
    2
 10
1250.840513002606
 20
1069.8989577704087
 40
0.501740082747087
 50
149.99997568602743
 51
210.00002243784951
  0
ARC
  8
_0-0_計極細
  6
CONTINUOUS
 62
    2
 10
1264.7451978530623
 20
1092.9790949234139
 40
1.0034861863992508
 50
29.999999999951111
 51
149.99999999997101
  0
ARC
  8
_0-0_計極細
  6
CONTINUOUS
 62
    2
 10
1264.7451978530623
 20
1092.9790949234139
 40
1.0034861863992508
 50
29.999999999951111
 51
106.77865499997519
  0
ARC
  8
_0-0_計極細
  6
CONTINUOUS
 62
    2
 10
1259.0964208356415
 20
1096.2404205135335
 40
1.0034861863992508
 50
329.99999999996464
 51
89.999999999999545
  0
ARC
  8
_0-0_計極細
  6
CONTINUOUS
 62
    2
 10
1223.9602977470761
 20
1106.2787607990931
 40
0.501740082747087
 50
89.993779916899371
 51
169.80868012339329
  0
ARC
  8
_0-0_計極細
  6
CONTINUOUS
 62
    2
 10
1223.9587320416429
 20
1091.7282374663387
 40
0.501740082747087
 50
190.17882981053808
 51
269.99383436899353
  0
ARC
  8
_0-0_計極細
  6
CONTINUOUS
 62
    2
 10
1223.9069997510367
 20
1101.7630863966342
 40
1.0034861863992508
 50
176.10042624738495
 51
269.99385985771437
  0
ARC
  8
_0-0_計極細
  6
CONTINUOUS
 62
    2
 10
1264.4555140471132
 20
1099
 40
37.630656728658437
 50
317.45760300000074
 51
327.3871079999999
  0
ARC
  8
_0-0_計極細
  6
CONTINUOUS
 62
    2
 10
1264.4555140471132
 20
1099
 40
37.630656728658437
 50
32.612892000000336
 51
42.54239699999939
  0
LINE
  8
_0-0_計極細
  6
CONTINUOUS
 62
    2
 10
1299.6297318181012
 20
1079.7210619447746
 11
1290.6716425971006
 21
1095.2369343271362
  0
LINE
  8
_0-0_計極細
  6
CONTINUOUS
 62
    2
 10
1298.2229052006221
 20
1075.1333670917138
 11
1285.8919049557169
 21
1096.4912875444543
  0
LINE
  8
_0-0_計極細
  6
CONTINUOUS
 62
    2
 10
1293.6009694603906
 20
1071.0969824328963
 11
1279.6637663473014
 21
1095.2369343271362
  0
LINE
  8
_0-0_計極細
  6
CONTINUOUS
 62
    2
 10
1299.6297318181012
 20
1118.2789380552267
 11
1290.6716425971006
 21
1102.7630656728661
  0
LINE
  8
_0-0_計極細
  6
CONTINUOUS
 62
    2
 10
1298.2229052006221
 20
1122.8666329082871
 11
1285.8919049557169
 21
1101.5087124555462
  0
LINE
  8
_0-0_計極細
  6
CONTINUOUS
 62
    2
 10
1293.6009694603906
 20
1126.9030115462006
 11
1279.6637663473014
 21
1102.7630656728661
  0
LINE
  8
_0-0_計極細
  6
CONTINUOUS
 62
    2
 10
1262.4485476952202
 20
1071.9803636048287
 11
1262.4485476952202
 21
1079.8977755087726
  0
LINE
  8
_0-0_計極細
  6
CONTINUOUS
 62
    2
 10
1262.9502877779671
 20
1071.9477724456488
 11
1262.9502877779671
 21
1079.0287361327337
  0
ARC
  8
_0-0_計極細
  6
CONTINUOUS
 62
    2
 10
1264.4555140471132
 20
1099
 40
37.630656728658437
 50
213.59599499999973
 51
225.50677599999941
  0
LINE
  8
_0-0_計極細
  6
CONTINUOUS
 62
    2
 10
1291.4378509353367
 20
1067.8192318137303
 11
1274.8840287059177
 21
1096.4912875444543
  0
LINE
  8
_0-0_計極細
  6
CONTINUOUS
 62
    2
 10
1286.2499982851475
 20
1064.7630444804745
 11
1268.6558900975017
 21
1095.2369343271362
  0
LINE
  8
_0-0_計極細
  6
CONTINUOUS
 62
    2
 10
1268.2409293196235
 20
1057.8232649965307
 11
1255.9099290747183
 21
1079.1811854492717
  0
LINE
  8
_0-0_計極細
  6
CONTINUOUS
 62
    2
 10
1274.0475082381975
 20
1059.8077854142985
 11
1260.1103051251068
 21
1083.9477373085374
  0
LINE
  8
_0-0_計極細
  6
CONTINUOUS
 62
    2
 10
1277.9676894290371
 20
1060.0422274161724
 11
1261.4138671996195
 21
1088.7142891678027
  0
LINE
  8
_0-0_計極細
  6
CONTINUOUS
 62
    2
 10
1283.208345416748
 20
1063.0069511804077
 11
1265.614243250008
 21
1093.4808350061626
  0
LINE
  8
_0-0_計極細
  6
CONTINUOUS
 62
    2
 10
1232.850741683538
 20
1072.1568002071931
 11
1246.060776006909
 21
1072.1568002071931
  0
ARC
  8
_0-0_計極細
  6
CONTINUOUS
 62
    2
 10
1242.5846064609425
 20
1067.6411213997535
 40
1.0034861863992508
 50
329.99999999997061
 51
89.999999999999545
  0
ARC
  8
_0-0_計極細
  6
CONTINUOUS
 62
    2
 10
1264.4555140471132
 20
1099
 40
37.630656728658437
 50
233.77152299999995
 51
236.31964599999873
  0
ARC
  8
_0-0_計極細
  6
CONTINUOUS
 62
    2
 10
1238.6036261706402
 20
1067.6411213997535
 40
1.0034861863992508
 50
89.999999999999915
 51
230.49822999999429
  0
LINE
  8
_0-0_計極細
  6
CONTINUOUS
 62
    2
 10
1238.6036261706402
 20
1068.6446015652477
 11
1242.5846064609425
 21
1068.6446015652477
  0
ARC
  8
_0-0_計極細
  6
CONTINUOUS
 62
    2
 10
1264.4555140471132
 20
1099
 40
37.630656728658437
 50
272.6128920000001
 51
282.54239699999982
  0
ARC
  8
_0-0_計極細
  6
CONTINUOUS
 62
    2
 10
1268.675452018095
 20
1058.0741380483564
 40
0.501740082747087
 50
210.00000000003024
 51
275.8870620000269
  0
LINE
  8
_0-0_計極細
  6
CONTINUOUS
 62
    2
 10
1263.564456221209
 20
1058.8987612076471
 11
1254.6063670002084
 21
1074.4146396109127
  0
LINE
  8
_0-0_計極細
  6
CONTINUOUS
 62
    2
 10
1257.0110081115047
 20
1058.2078623501102
 11
1250.4059909498199
 21
1069.6480877516478
  0
ARC
  8
_0-0_計極細
  6
CONTINUOUS
 62
    2
 10
1264.4555140471132
 20
1099
 40
37.630656728658437
 50
254.49322399999997
 51
266.40400500000044
  0
ARC
  8
_0-0_計極細
  6
CONTINUOUS
 62
    2
 10
1246.060776006909
 20
1072.65854028994
 40
0.501740082747087
 50
269.99999999999977
 51
329.9999999999431
  0
ARC
  8
_0-0_計極細
  6
CONTINUOUS
 62
    2
 10
1250.2238766339672
 20
1060.9321653537318
 40
1.0034861863992508
 50
249.50177000008239
 51
29.999999999950756
  0
LINE
  8
_0-0_計極細
  6
CONTINUOUS
 62
    2
 10
1251.0929160100084
 20
1061.4339054364791
 11
1249.102428875309
 21
1064.8815358923807
  0
ARC
  8
_0-0_計極細
  6
CONTINUOUS
 62
    2
 10
1253.737321603264
 20
1073.9128935072613
 40
1.0034861863992508
 50
29.999999999977071
 51
150.00000000000995
  0
ARC
  8
_0-0_計極細
  6
CONTINUOUS
 62
    2
 10
1264.4555140471132
 20
1099
 40
27.094072844634088
 50
244.78019200000111
 51
249.77896100000117
  0
ARC
  8
_0-0_計極細
  6
CONTINUOUS
 62
    2
 10
1264.4555140471132
 20
1099
 40
37.630656728658437
 50
243.68035399999945
 51
246.22847699999903
  0
ARC
  8
_0-0_計極細
  6
CONTINUOUS
 62
    2
 10
1248.2333834783647
 20
1064.3797958096357
 40
1.0034861863992508
 50
29.999999999990056
 51
150.00000000000995
  0
ARC
  8
_0-0_計極細
  6
CONTINUOUS
 62
    2
 10
1262.6954168451705
 20
1058.3970211249016
 40
1.0034861863992508
 50
267.51783600001954
 51
29.999999999989686
  0
ARC
  8
_0-0_計極細
  6
CONTINUOUS
 62
    2
 10
1257.4455308099762
 20
1058.4587354019359
 40
0.501740082747087
 50
210.00000000005619
 51
260.18999099994863
  0
ARC
  8
_0-0_計極細
  6
CONTINUOUS
 62
    2
 10
1264.4555140471132
 20
1099
 40
27.094072844634088
 50
260.29098300000004
 51
275.37568200000089
  0
ARC
  8
_0-0_計極細
  6
CONTINUOUS
 62
    2
 10
1264.4555140471132
 20
1099
 40
37.630656728658437
 50
288.07291800000053
 51
297.32522600000027
  0
ARC
  8
_0-0_計極細
  6
CONTINUOUS
 62
    2
 10
1264.4555140471132
 20
1099
 40
27.094072844634088
 50
283.31934900000215
 51
296.28378000000021
  0
ARC
  8
_0-0_計極細
  6
CONTINUOUS
 62
    2
 10
1278.4022061066037
 20
1060.2931004679986
 40
0.501740082747087
 50
210.00000000005619
 51
289.81487200001084
  0
ARC
  8
_0-0_計極細
  6
CONTINUOUS
 62
    2
 10
1273.1784628412531
 20
1059.306045331552
 40
1.0034861863992508
 50
282.39403400005705
 51
29.999999999989686
  0
ARC
  8
_0-0_計極細
  6
CONTINUOUS
 62
    2
 10
1264.4555140471132
 20
1099
 40
37.630656728658437
 50
302.67477399999979
 51
311.9270819999997
  0
ARC
  8
_0-0_計極細
  6
CONTINUOUS
 62
    2
 10
1287.119037661186
 20
1065.2647905841272
 40
1.0034861863992508
 50
210.00000000001219
 51
303.89344999999258
  0
ARC
  8
_0-0_計極細
  6
CONTINUOUS
 62
    2
 10
1291.0033282368638
 20
1067.5683587619046
 40
0.501740082747087
 50
310.18512800003361
 51
29.999999999933351
  0
ARC
  8
_0-0_計極細
  6
CONTINUOUS
 62
    2
 10
1282.3393060407095
 20
1062.5052050767549
 40
1.0034861863992508
 50
296.10655000000122
 51
30.000000000012179
  0
LINE
  8
_0-0_計極細
  6
CONTINUOUS
 62
    2
 10
1230.1723541020308
 20
1078.1777052837788
 11
1248.088544585841
 21
1078.1777052837788
  0
ARC
  8
_0-0_計極細
  6
CONTINUOUS
 62
    2
 10
1242.5846064609425
 20
1130.3588786002483
 40
1.0034861863992508
 50
269.99999999999977
 51
30.000000000051159
  0
LINE
  8
_0-0_計極細
  6
CONTINUOUS
 62
    2
 10
1232.850741683538
 20
1125.8431997928087
 11
1246.060776006909
 21
1125.8431997928087
  0
LINE
  8
_0-0_計極細
  6
CONTINUOUS
 62
    2
 10
1230.1723541020308
 20
1119.8222947162221
 11
1248.088544585841
 21
1119.8222947162221
  0
LINE
  8
_0-0_計極細
  6
CONTINUOUS
 62
    2
 10
1226.9027136420011
 20
1116.3101020951835
 11
1251.5647141318088
 21
1116.3101020951835
  0
LINE
  8
_0-0_計極細
  6
CONTINUOUS
 62
    2
 10
1225.7180704636573
 20
1110.2891970185983
 11
1253.5924827107422
 21
1110.2891970185983
  0
LINE
  8
_0-0_計極細
  6
CONTINUOUS
 62
    2
 10
1223.9610138187766
 20
1106.7770043975579
 11
1257.0686522567073
 21
1106.7770043975579
  0
LINE
  8
_0-0_計極細
  6
CONTINUOUS
 62
    2
 10
1223.9082044603504
 20
1100.7560993209727
 11
1259.0964208356415
 21
1100.7560993209727
  0
LINE
  8
_0-0_計極細
  6
CONTINUOUS
 62
    2
 10
1226.9027136420011
 20
1081.6898979048183
 11
1251.5647141318088
 21
1081.6898979048183
  0
LINE
  8
_0-0_計極細
  6
CONTINUOUS
 62
    2
 10
1225.7180704636573
 20
1087.710802981404
 11
1253.5924827107422
 21
1087.710802981404
  0
LINE
  8
_0-0_計極細
  6
CONTINUOUS
 62
    2
 10
1223.9610138187766
 20
1091.2229956024439
 11
1257.0686522567073
 21
1091.2229956024439
  0
LINE
  8
_0-0_計極細
  6
CONTINUOUS
 62
    2
 10
1223.9082044603504
 20
1097.2439006790278
 11
1259.0964208356415
 21
1097.2439006790278
  0
ARC
  8
_0-0_計極細
  6
CONTINUOUS
 62
    2
 10
1264.4555140471132
 20
1099
 40
27.094072844634088
 50
140.2909829999995
 51
155.37568199999961
  0
ARC
  8
_0-0_計極細
  6
CONTINUOUS
 62
    2
 10
1264.4555140471132
 20
1099
 40
37.630656728658437
 50
152.61289199999976
 51
162.54239699999948
  0
ARC
  8
_0-0_計極細
  6
CONTINUOUS
 62
    2
 10
1225.7180704636573
 20
1111.2926832049989
 40
1.0034861863992508
 50
162.39403400002894
 51
269.99999999999977
  0
ARC
  8
_0-0_計極細
  6
CONTINUOUS
 62
    2
 10
1230.1723541020308
 20
1077.1742190973782
 40
1.0034861863992508
 50
89.999999999999915
 51
212.48216399999936
  0
ARC
  8
_0-0_計極細
  6
CONTINUOUS
 62
    2
 10
1264.4555140471132
 20
1099
 40
37.630656728658437
 50
168.07291799999925
 51
177.3252260000001
  0
ARC
  8
_0-0_計極細
  6
CONTINUOUS
 62
    2
 10
1264.4555140471132
 20
1099
 40
37.630656728658437
 50
182.67477399999885
 51
191.9270819999997
  0
ARC
  8
_0-0_計極細
  6
CONTINUOUS
 62
    2
 10
1264.4555140471132
 20
1099
 40
37.630656728658437
 50
197.45760299999952
 51
207.38710799999927
  0
ARC
  8
_0-0_計極細
  6
CONTINUOUS
 62
    2
 10
1223.9082044603504
 20
1096.2404205135344
 40
1.0034861863992508
 50
89.999999999999915
 51
183.89344999999844
  0
ARC
  8
_0-0_計極細
  6
CONTINUOUS
 62
    2
 10
1225.7180704636573
 20
1086.7073167950048
 40
1.0034861863992508
 50
89.999999999999915
 51
197.60596599999548
  0
ARC
  8
_0-0_計極細
  6
CONTINUOUS
 62
    2
 10
1226.9027136420011
 20
1082.1916379875643
 40
0.501740082747087
 50
204.11293800004927
 51
269.99999999999977
  0
ARC
  8
_0-0_計極細
  6
CONTINUOUS
 62
    2
 10
1264.4555140471132
 20
1099
 40
27.094072844634088
 50
163.31934899999922
 51
176.2837799999995
  0
ARC
  8
_0-0_計極細
  6
CONTINUOUS
 62
    2
 10
1264.4555140471132
 20
1099
 40
27.094072844634088
 50
183.71621999999917
 51
196.68065099999947
  0
ARC
  8
_0-0_計極細
  6
CONTINUOUS
 62
    2
 10
1264.4555140471132
 20
1099
 40
27.094072844634088
 50
204.62431799999914
 51
219.70901699999865
  0
ARC
  8
_0-0_計極細
  6
CONTINUOUS
 62
    2
 10
1226.9027136420011
 20
1115.8083620124376
 40
0.501740082747087
 50
89.999999999999915
 51
155.88706199995036
  0
ARC
  8
_0-0_計極細
  6
CONTINUOUS
 62
    2
 10
1230.1723541020308
 20
1120.8257809026231
 40
1.0034861863992508
 50
147.51783600000024
 51
269.99999999999977
  0
ARC
  8
_0-0_計極細
  6
CONTINUOUS
 62
    2
 10
1264.4555140471132
 20
1099
 40
37.630656728658437
 50
123.68035400000058
 51
126.22847699999969
  0
ARC
  8
_0-0_計極細
  6
CONTINUOUS
 62
    2
 10
1264.4555140471132
 20
1099
 40
37.630656728658437
 50
134.49322399999971
 51
146.40400499999933
  0
ARC
  8
_0-0_計極細
  6
CONTINUOUS
 62
    2
 10
1232.850741683538
 20
1125.3414597100623
 40
0.501740082747087
 50
89.999999999999915
 51
140.18999100005377
  0
ARC
  8
_0-0_計極細
  6
CONTINUOUS
 62
    2
 10
1238.6036261706402
 20
1130.3588786002483
 40
1.0034861863992508
 50
129.50177000000534
 51
269.99999999999977
  0
LINE
  8
_0-0_計極細
  6
CONTINUOUS
 62
    2
 10
1238.6036261706402
 20
1129.3553984347541
 11
1242.5846064609425
 21
1129.3553984347541
  0
ARC
  8
_0-0_計極細
  6
CONTINUOUS
 62
    2
 10
1264.4555140471132
 20
1099
 40
37.630656728658437
 50
77.457603000000148
 51
87.387107999999586
  0
ARC
  8
_0-0_計極細
  6
CONTINUOUS
 62
    2
 10
1264.4555140471132
 20
1099
 40
37.630656728658437
 50
77.457603000000148
 51
87.387107999999586
  0
ARC
  8
_0-0_計極細
  6
CONTINUOUS
 62
    2
 10
1269.5249354944474
 20
1095.7386744098826
 40
1.0034861863992508
 50
89.999999999999915
 51
209.9999999999732
  0
ARC
  8
_0-0_計極細
  6
CONTINUOUS
 62
    2
 10
1269.5249354944474
 20
1102.2613255901206
 40
1.0034861863992508
 50
150.00000000002643
 51
269.99999999999977
  0
ARC
  8
_0-0_計極細
  6
CONTINUOUS
 62
    2
 10
1268.675452018095
 20
1139.9258619516427
 40
0.501740082747087
 50
84.112937999972772
 51
150.00000000001438
  0
LINE
  8
_0-0_計極細
  6
CONTINUOUS
 62
    2
 10
1274.0475082381975
 20
1138.1922085647961
 11
1260.1103051251068
 21
1114.0522626914644
  0
LINE
  8
_0-0_計極細
  6
CONTINUOUS
 62
    2
 10
1277.9676894290371
 20
1137.9577665629249
 11
1261.4138671996195
 21
1109.2857108321991
  0
LINE
  8
_0-0_計極細
  6
CONTINUOUS
 62
    2
 10
1283.208345416748
 20
1134.9930488195942
 11
1265.614243250008
 21
1104.5191649938392
  0
LINE
  8
_0-0_計極細
  6
CONTINUOUS
 62
    2
 10
1262.4485476952202
 20
1106.9918483534057
 11
1262.4485476952202
 21
1111.0778332282443
  0
LINE
  8
_0-0_計極細
  6
CONTINUOUS
 62
    2
 10
1262.9502877779671
 20
1106.1228089773667
 11
1262.9502877779671
 21
1111.9468786251873
  0
ARC
  8
_0-0_計極細
  6
CONTINUOUS
 62
    2
 10
1253.5924827107422
 20
1111.2926832049989
 40
1.0034861863992508
 50
269.99999999999977
 51
30.000000000012179
  0
LINE
  8
_0-0_計極細
  6
CONTINUOUS
 62
    2
 10
1265.9607403162606
 20
1105.1193227909689
 11
1265.9607403162606
 21
1117.1611329441384
  0
LINE
  8
_0-0_計極細
  6
CONTINUOUS
 62
    2
 10
1266.462486419912
 20
1105.9883681879114
 11
1266.462486419912
 21
1118.0301783410837
  0
ARC
  8
_0-0_計極細
  6
CONTINUOUS
 62
    2
 10
1253.5924827107422
 20
1086.7073167950048
 40
1.0034861863992508
 50
329.99999999996464
 51
89.999999999999545
  0
ARC
  8
_0-0_計極細
  6
CONTINUOUS
 62
    2
 10
1251.5647141318088
 20
1082.1916379875643
 40
0.501740082747087
 50
269.99999999999977
 51
329.9999999999431
  0
ARC
  8
_0-0_計極細
  6
CONTINUOUS
 62
    2
 10
1264.4555140471132
 20
1099
 40
27.094072844634088
 50
230.22103899999954
 51
235.21980799999949
  0
ARC
  8
_0-0_計極細
  6
CONTINUOUS
 62
    2
 10
1248.088544585841
 20
1077.1742190973782
 40
1.0034861863992508
 50
329.9999999999871
 51
89.999999999999545
  0
ARC
  8
_0-0_計極細
  6
CONTINUOUS
 62
    2
 10
1256.3444517731912
 20
1079.4320585010987
 40
0.501740082747087
 50
149.9999999999884
 51
210.00000000005619
  0
LINE
  8
_0-0_計極細
  6
CONTINUOUS
 62
    2
 10
1262.4485476952202
 20
1086.9221667717575
 11
1262.4485476952202
 21
1091.0081516465962
  0
LINE
  8
_0-0_計極細
  6
CONTINUOUS
 62
    2
 10
1262.9502877779671
 20
1086.0531213748127
 11
1262.9502877779671
 21
1091.8771910226346
  0
ARC
  8
_0-0_計極細
  6
CONTINUOUS
 62
    2
 10
1257.0686522567073
 20
1091.7247417060953
 40
0.501740082747087
 50
269.99999999999977
 51
330.00000000006594
  0
ARC
  8
_0-0_計極細
  6
CONTINUOUS
 62
    2
 10
1261.8483898980924
 20
1088.965156198723
 40
0.501740082747087
 50
150.00000000004732
 51
209.99999999990737
  0
ARC
  8
_0-0_計極細
  6
CONTINUOUS
 62
    2
 10
1259.2412597281625
 20
1083.4459972257901
 40
1.0034861863992508
 50
30.000000000012541
 51
149.99999999998747
  0
ARC
  8
_0-0_計極細
  6
CONTINUOUS
 62
    2
 10
1261.8483898980924
 20
1109.0348438012779
 40
0.501740082747087
 50
150.00000000004732
 51
209.99999999990737
  0
ARC
  8
_0-0_計極細
  6
CONTINUOUS
 62
    2
 10
1264.7451978530623
 20
1105.0209050765866
 40
1.0034861863992508
 50
210.00000000005113
 51
330.00000000002603
  0
ARC
  8
_0-0_計極細
  6
CONTINUOUS
 62
    2
 10
1257.0686522567073
 20
1106.2752582939052
 40
0.501740082747087
 50
29.999999999933703
 51
89.999999999999929
  0
ARC
  8
_0-0_計極細
  6
CONTINUOUS
 62
    2
 10
1259.0964208356415
 20
1101.7595794864674
 40
1.0034861863992508
 50
269.99999999999977
 51
29.999999999989686
  0
LINE
  8
_0-0_計極細
  6
CONTINUOUS
 62
    2
 10
1265.9607403162606
 20
1080.8388670558625
 11
1265.9607403162606
 21
1092.8806772090343
  0
LINE
  8
_0-0_計極細
  6
CONTINUOUS
 62
    2
 10
1266.462486419912
 20
1079.9698216589195
 11
1266.462486419912
 21
1092.0116318120895
  0
ARC
  8
_0-0_計極細
  6
CONTINUOUS
 62
    2
 10
1264.7451978530623
 20
1105.0209050765866
 40
1.0034861863992508
 50
253.22134500003193
 51
330.00000000002603
  0
LINE
  8
_0-0_計極細
  6
CONTINUOUS
 62
    2
 10
1263.564456221209
 20
1139.1012327714498
 11
1254.6063670002084
 21
1123.5853603890887
  0
ARC
  8
_0-0_計極細
  6
CONTINUOUS
 62
    2
 10
1264.4555140471132
 20
1099
 40
37.630656728658437
 50
93.595994999999121
 51
105.50677599999949
  0
LINE
  8
_0-0_計極細
  6
CONTINUOUS
 62
    2
 10
1257.0110081115047
 20
1139.7921376498939
 11
1250.4059909498199
 21
1128.3519122483535
  0
LINE
  8
_0-0_計極細
  6
CONTINUOUS
 62
    2
 10
1268.2409293196235
 20
1140.1767350034697
 11
1255.9099290747183
 21
1118.8188145507283
  0
ARC
  8
_0-0_計極細
  6
CONTINUOUS
 62
    2
 10
1256.3444517731912
 20
1118.5679414989031
 40
0.501740082747087
 50
149.9999999999884
 51
210.00000000001123
  0
ARC
  8
_0-0_計極細
  6
CONTINUOUS
 62
    2
 10
1264.4555140471132
 20
1099
 40
27.094072844634088
 50
110.2210389999981
 51
115.21980799999808
  0
ARC
  8
_0-0_計極細
  6
CONTINUOUS
 62
    2
 10
1253.737321603264
 20
1124.0871064927419
 40
1.0034861863992508
 50
209.99999999998968
 51
330.00000000002257
  0
ARC
  8
_0-0_計極細
  6
CONTINUOUS
 62
    2
 10
1250.8405136482913
 20
1128.1010391965274
 40
0.501740082747087
 50
150.00000000002132
 51
209.99999999993332
  0
ARC
  8
_0-0_計極細
  6
CONTINUOUS
 62
    2
 10
1264.4555140471132
 20
1099
 40
37.630656728658437
 50
113.77152300000034
 51
116.31964599999986
  0
ARC
  8
_0-0_計極細
  6
CONTINUOUS
 62
    2
 10
1250.2238766339672
 20
1137.0678346462701
 40
1.0034861863992508
 50
330.00000000004854
 51
110.49822999991692
  0
ARC
  8
_0-0_計極細
  6
CONTINUOUS
 62
    2
 10
1248.2333834783647
 20
1133.6202041903653
 40
1.0034861863992508
 50
210.00000000001219
 51
329.9999999999871
  0
LINE
  8
_0-0_計極細
  6
CONTINUOUS
 62
    2
 10
1251.0929160100084
 20
1136.5660945635227
 11
1249.102428875309
 21
1133.1184641076206
  0
ARC
  8
_0-0_計極細
  6
CONTINUOUS
 62
    2
 10
1264.4555140471132
 20
1099
 40
27.094072844634088
 50
124.78019199999905
 51
129.7789609999995
  0
ARC
  8
_0-0_計極細
  6
CONTINUOUS
 62
    2
 10
1246.060776006909
 20
1125.3414597100623
 40
0.501740082747087
 50
30.000000000011593
 51
89.999999999999915
  0
ARC
  8
_0-0_計極細
  6
CONTINUOUS
 62
    2
 10
1248.088544585841
 20
1120.8257809026231
 40
1.0034861863992508
 50
269.99999999999977
 51
30.000000000012179
  0
ARC
  8
_0-0_計極細
  6
CONTINUOUS
 62
    2
 10
1251.5647141318088
 20
1115.8083620124376
 40
0.501740082747087
 50
30.000000000011593
 51
89.999999999999915
  0
LINE
  8
_0-0_計極細
  6
CONTINUOUS
 62
    2
 10
1262.9502877779671
 20
1118.9712638672681
 11
1262.9502877779671
 21
1126.0522275543531
  0
LINE
  8
_0-0_計極細
  6
CONTINUOUS
 62
    2
 10
1262.4485476952202
 20
1118.1022244912297
 11
1262.4485476952202
 21
1126.0196363951732
  0
ARC
  8
_0-0_計極細
  6
CONTINUOUS
 62
    2
 10
1262.6954168451705
 20
1139.6029788751034
 40
1.0034861863992508
 50
329.9999999999871
 51
92.482163999979747
  0
ARC
  8
_0-0_計極細
  6
CONTINUOUS
 62
    2
 10
1264.4555140471132
 20
1099
 40
27.094072844634088
 50
84.624317999998866
 51
99.709016999999434
  0
ARC
  8
_0-0_計極細
  6
CONTINUOUS
 62
    2
 10
1257.4455308099762
 20
1139.5412645980687
 40
0.501740082747087
 50
99.810009000050982
 51
149.9999999999884
  0
ARC
  8
_0-0_計極細
  6
CONTINUOUS
 62
    2
 10
1259.2412597281625
 20
1114.5540027742104
 40
1.0034861863992508
 50
210.00000000001219
 51
329.9999999999871
  0
ARC
  8
_0-0_計極細
  6
CONTINUOUS
 62
    2
 10
1264.4555140471132
 20
1099
 40
27.094072844634088
 50
84.624317999998866
 51
89.999999999999915
  0
ARC
  8
_0-0_計極細
  6
CONTINUOUS
 62
    2
 10
1264.4555140471132
 20
1099
 40
27.094072844634088
 50
20.290983000001241
 51
35.375682000000126
  0
LINE
  8
_0-0_計極細
  6
CONTINUOUS
 62
    2
 10
1291.4378509353367
 20
1130.1807681862729
 11
1274.8840287059177
 21
1101.5087124555462
  0
LINE
  8
_0-0_計極細
  6
CONTINUOUS
 62
    2
 10
1286.2499982851475
 20
1133.2369555195269
 11
1268.6558900975017
 21
1102.7630656728661
  0
ARC
  8
_0-0_計極細
  6
CONTINUOUS
 62
    2
 10
1264.4555140471132
 20
1099
 40
27.094072844634088
 50
303.71622000000229
 51
316.6806509999999
  0
ARC
  8
_0-0_計極細
  6
CONTINUOUS
 62
    2
 10
1280.5328057233394
 20
1095.7386744098826
 40
1.0034861863992508
 50
89.999999999999915
 51
210.00000000001216
  0
ARC
  8
_0-0_計極細
  6
CONTINUOUS
 62
    2
 10
1274.4495060074462
 20
1096.2404205135344
 40
0.501740082747087
 50
30.000000000056566
 51
89.999999999999915
  0
ARC
  8
_0-0_計極細
  6
CONTINUOUS
 62
    2
 10
1280.5328057233394
 20
1102.2613255901206
 40
1.0034861863992508
 50
149.99999999998747
 51
269.99999999999977
  0
ARC
  8
_0-0_計極細
  6
CONTINUOUS
 62
    2
 10
1274.4495060074462
 20
1101.7595794864674
 40
0.501740082747087
 50
269.99999999999977
 51
329.9999999999431
  0
ARC
  8
_0-0_計極細
  6
CONTINUOUS
 62
    2
 10
1264.4555140471132
 20
1099
 40
27.094072844634088
 50
324.6243180000003
 51
339.70901700000019
  0
ARC
  8
_0-0_計極細
  6
CONTINUOUS
 62
    2
 10
1264.4555140471132
 20
1099
 40
27.094072844634088
 50
350.22103899999968
 51
355.21980800000068
  0
ARC
  8
_0-0_計極細
  6
CONTINUOUS
 62
    2
 10
1264.4555140471132
 20
1099
 40
27.094072844634088
 50
4.7801919999998796
 51
9.778961000000896
  0
ARC
  8
_0-0_計極細
  6
CONTINUOUS
 62
    2
 10
1291.540681973139
 20
1095.7386744098826
 40
1.0034861863992508
 50
89.999999999999915
 51
210.00000000001216
  0
ARC
  8
_0-0_計極細
  6
CONTINUOUS
 62
    2
 10
1285.4573822572454
 20
1096.2404205135344
 40
0.501740082747087
 50
30.0000000000306
 51
89.999999999999915
  0
ARC
  8
_0-0_計極細
  6
CONTINUOUS
 62
    2
 10
1291.540681973139
 20
1102.2613255901206
 40
1.0034861863992508
 50
149.99999999998747
 51
269.99999999999977
  0
ARC
  8
_0-0_計極細
  6
CONTINUOUS
 62
    2
 10
1285.4573822572454
 20
1101.7595794864674
 40
0.501740082747087
 50
269.99999999999977
 51
329.99999999996902
  0
ARC
  8
_0-0_計極細
  6
CONTINUOUS
 62
    2
 10
1264.4555140471132
 20
1099
 40
27.094072844634088
 50
43.319349000000443
 51
56.283779999998394
  0
ARC
  8
_0-0_計極細
  6
CONTINUOUS
 62
    2
 10
1264.4555140471132
 20
1099
 40
37.630656728658437
 50
62.674773999999701
 51
71.927081999999317
  0
ARC
  8
_0-0_計極細
  6
CONTINUOUS
 62
    2
 10
1264.4555140471132
 20
1099
 40
27.094072844634088
 50
63.716219999999879
 51
76.680650999997951
  0
ARC
  8
_0-0_計極細
  6
CONTINUOUS
 62
    2
 10
1278.4022061066037
 20
1137.7068995320028
 40
0.501740082747087
 50
70.185127999988836
 51
149.9999999999884
  0
ARC
  8
_0-0_計極細
  6
CONTINUOUS
 62
    2
 10
1273.1784628412531
 20
1138.6939546684498
 40
1.0034861863992508
 50
330.00000000000961
 51
77.605965999942228
  0
ARC
  8
_0-0_計極細
  6
CONTINUOUS
 62
    2
 10
1264.4555140471132
 20
1099
 40
37.630656728658437
 50
48.072918000000854
 51
57.3252260000002
  0
ARC
  8
_0-0_計極細
  6
CONTINUOUS
 62
    2
 10
1287.119037661186
 20
1132.735209415875
 40
1.0034861863992508
 50
56.106549999992559
 51
150.00000000000995
  0
ARC
  8
_0-0_計極細
  6
CONTINUOUS
 62
    2
 10
1291.0033282368638
 20
1130.4316352171932
 40
0.501740082747087
 50
330.00000000006594
 51
49.814871999965682
  0
ARC
  8
_0-0_計極細
  6
CONTINUOUS
 62
    2
 10
1282.3393060407095
 20
1135.4947949232455
 40
1.0034861863992508
 50
329.9999999999871
 51
63.893449999998062
  0
ARC
  8
_0-0_計極細
  6
CONTINUOUS
 62
    2
 10
1294.4700148573336
 20
1071.5987285365491
 40
1.0034861863992508
 50
210.00000000001219
 51
317.60596600000804
  0
ARC
  8
_0-0_計極細
  6
CONTINUOUS
 62
    2
 10
1297.7883885230538
 20
1074.8824940398881
 40
0.501740082747087
 50
324.11293799996702
 51
29.99999999998526
  0
ARC
  8
_0-0_計極細
  6
CONTINUOUS
 62
    2
 10
1264.4555140471132
 20
1099
 40
37.630656728658437
 50
14.493223999999607
 51
26.404005000000225
  0
LINE
  8
_0-0_計極細
  6
CONTINUOUS
 62
    2
 10
1303.5047983672014
 20
1112.9489378570852
 11
1296.8997812055165
 21
1101.5087124555462
  0
ARC
  8
_0-0_計極細
  6
CONTINUOUS
 62
    2
 10
1304.5390513785426
 20
1092.2910439539783
 40
1.0034861863992508
 50
209.99999999998968
 51
350.4982300000064
  0
ARC
  8
_0-0_計極細
  6
CONTINUOUS
 62
    2
 10
1304.5390513785426
 20
1105.7089560460236
 40
1.0034861863992508
 50
9.5017699999932326
 51
149.99999999998747
  0
ARC
  8
_0-0_計極細
  6
CONTINUOUS
 62
    2
 10
1264.4555140471132
 20
1099
 40
37.630656728658437
 50
3.6803540000001314
 51
6.2284770000002974
  0
ARC
  8
_0-0_計極細
  6
CONTINUOUS
 62
    2
 10
1264.4555140471132
 20
1099
 40
37.630656728658437
 50
353.77152300000074
 51
356.3196460000002
  0
ARC
  8
_0-0_計極細
  6
CONTINUOUS
 62
    2
 10
1264.4555140471132
 20
1099
 40
37.630656728658437
 50
333.59599500000002
 51
345.50677600000074
  0
ARC
  8
_0-0_計極細
  6
CONTINUOUS
 62
    2
 10
1300.4987772150455
 20
1080.2228020275215
 40
1.0034861863992508
 50
209.99999999998968
 51
332.48216400001218
  0
ARC
  8
_0-0_計極細
  6
CONTINUOUS
 62
    2
 10
1302.5485582229373
 20
1095.7386744098826
 40
1.0034861863992508
 50
89.999999999999915
 51
210.00000000001216
  0
ARC
  8
_0-0_計極細
  6
CONTINUOUS
 62
    2
 10
1296.4652585070437
 20
1096.2404205135344
 40
0.501740082747087
 50
29.999999999978677
 51
89.999999999999901
  0
LINE
  8
_0-0_計極細
  6
CONTINUOUS
 62
    2
 10
1303.6700059815987
 20
1091.7893038712318
 11
1301.6795188468989
 21
1095.2369343271362
  0
LINE
  8
_0-0_計極細
  6
CONTINUOUS
 62
    2
 10
1303.5047983672014
 20
1085.0510621429175
 11
1296.8997812055165
 21
1096.4912875444543
  0
ARC
  8
_0-0_計極細
  6
CONTINUOUS
 62
    2
 10
1302.5485582229373
 20
1102.2613255901206
 40
1.0034861863992508
 50
149.99999999998747
 51
269.99999999999977
  0
ARC
  8
_0-0_計極細
  6
CONTINUOUS
 62
    2
 10
1296.4652585070437
 20
1101.7595794864674
 40
0.501740082747087
 50
269.99999999999977
 51
330.00000000002098
  0
LINE
  8
_0-0_計極細
  6
CONTINUOUS
 62
    2
 10
1303.6700059815987
 20
1106.21069612877
 11
1301.6795188468989
 21
1102.7630656728661
  0
ARC
  8
_0-0_計極細
  6
CONTINUOUS
 62
    2
 10
1294.4700148573336
 20
1126.4012714634528
 40
1.0034861863992508
 50
42.394033999991557
 51
149.99999999998747
  0
ARC
  8
_0-0_計極細
  6
CONTINUOUS
 62
    2
 10
1297.7883885230538
 20
1123.1175059601132
 40
0.501740082747087
 50
330.00000000001404
 51
35.887062000032259
  0
ARC
  8
_0-0_計極細
  6
CONTINUOUS
 62
    2
 10
1300.4987772150455
 20
1117.7771979724803
 40
1.0034861863992508
 50
27.517836000010465
 51
149.99999999998747
  0
LINE
  8
_0-0_計極細
  6
CONTINUOUS
 62
    2
 10
1265.9607403162606
 20
1071.947771308282
 11
1265.9607403162606
 21
1073.8144829583757
  0
LINE
  8
_0-0_計極細
  6
CONTINUOUS
 62
    2
 10
1266.462486419912
 20
1071.9803618602105
 11
1266.462486419912
 21
1072.9454329268174
  0
LINE
  8
_0-0_計極細
  6
CONTINUOUS
 62
    2
 10
1265.9607403162606
 20
1124.1855145142235
 11
1265.9607403162606
 21
1126.052228691718
  0
LINE
  8
_0-0_計極細
  6
CONTINUOUS
 62
    2
 10
1266.462486419912
 20
1125.0545643290261
 11
1266.462486419912
 21
1126.0196381397895
  0
LINE
  8
_0-1_計細線
  6
CONTINUOUS
 62
    3
 10
1264.4545169335313
 20
710.99999999999989
 11
1189.4545166273799
 21
710.99999999999989
  0
LINE
  8
_0-1_計細線
  6
CONTINUOUS
 62
    3
 10
350.45451693353129
 20
802.99999999999989
 11
1264.4545169335313
 21
802.99999999999989
  0
LINE
  8
_0-1_計細線
  6
CONTINUOUS
 62
    3
 10
1189.4545166273799
 20
710.99999999999989
 11
855.48649631127842
 21
719.06686039709132
  0
LINE
  8
_0-1_計細線
  6
CONTINUOUS
 62
    3
 10
839.68050578122507
 20
719.44864760810333
 11
393.48649631127842
 21
730.2262806910727
  0
LINE
  8
_0-1_計細線
  6
CONTINUOUS
 62
    3
 10
379.68050578122507
 20
742.42028985485797
 11
377.68050578122507
 21
740.42028985485797
  0
LINE
  8
_0-1_計細線
  6
CONTINUOUS
 62
    3
 10
377.68050578122507
 20
730.42028985485797
 11
377.68050578122507
 21
740.42028985485797
  0
LINE
  8
_0-1_計細線
  6
CONTINUOUS
 62
    3
 10
393.68050547506368
 20
730.42028985485797
 11
393.68050547506368
 21
740.42028985485797
  0
LINE
  8
_0-1_計細線
  6
CONTINUOUS
 62
    3
 10
379.68050578122507
 20
726.42028985485797
 11
377.68050578122507
 21
724.42028985485797
  0
LINE
  8
_0-1_計細線
  6
CONTINUOUS
 62
    3
 10
379.68050578122507
 20
728.42028985485797
 11
379.68050578122507
 21
726.42028985485797
  0
LINE
  8
_0-1_計細線
  6
CONTINUOUS
 62
    3
 10
377.68050578122507
 20
730.42028985485797
 11
379.68050578122507
 21
728.42028985485797
  0
LINE
  8
_0-1_計細線
  6
CONTINUOUS
 62
    3
 10
391.68050547506368
 20
726.42028985485797
 11
393.68050547506368
 21
724.42028985485797
  0
LINE
  8
_0-1_計細線
  6
CONTINUOUS
 62
    3
 10
391.68050547506368
 20
728.42028985485797
 11
391.68050547506368
 21
726.42028985485797
  0
LINE
  8
_0-1_計細線
  6
CONTINUOUS
 62
    3
 10
393.68050547506368
 20
730.42028985485797
 11
391.68050547506368
 21
728.42028985485797
  0
LINE
  8
_0-1_計細線
  6
CONTINUOUS
 62
    3
 10
377.68050578122507
 20
724.42028985485797
 11
377.68050578122507
 21
710.42028985485797
  0
ARC
  8
_0-1_計細線
  6
CONTINUOUS
 62
    3
 10
380.68050578122507
 20
710.42028985485797
 40
3
 50
179.99999999999983
 51
269.99999999999977
  0
LINE
  8
_0-1_計細線
  6
CONTINUOUS
 62
    3
 10
380.68050578122507
 20
707.42028985485797
 11
390.68050547506368
 21
707.42028985485797
  0
LINE
  8
_0-1_計細線
  6
CONTINUOUS
 62
    3
 10
393.68050547506368
 20
724.42028985485797
 11
393.68050547506368
 21
710.42028985485797
  0
ARC
  8
_0-1_計細線
  6
CONTINUOUS
 62
    3
 10
390.68050547506368
 20
710.42028985485797
 40
3
 50
269.99999999999977
 51
359.99999999999966
  0
LINE
  8
_0-1_計細線
  6
CONTINUOUS
 62
    3
 10
379.68050578122507
 20
742.42028985485797
 11
391.68050547506368
 21
742.42028985485797
  0
LINE
  8
_0-1_計細線
  6
CONTINUOUS
 62
    3
 10
393.68050547506368
 20
740.42028985485797
 11
391.68050547506368
 21
742.42028985485797
  0
LINE
  8
_0-0_計極細
  6
CENTER1
 62
    2
 10
385.45451693353129
 20
746.07100928115381
 11
385.45451693353129
 21
703.87437328750809
  0
LINE
  8
_0-1_計細線
  6
CONTINUOUS
 62
    3
 10
841.68050578122507
 20
731.26086956087681
 11
839.68050578122507
 21
729.26086956087681
  0
LINE
  8
_0-1_計細線
  6
CONTINUOUS
 62
    3
 10
839.68050578122507
 20
719.26086956087681
 11
839.68050578122507
 21
729.26086956087681
  0
LINE
  8
_0-1_計細線
  6
CONTINUOUS
 62
    3
 10
855.68050547506368
 20
719.26086956087681
 11
855.68050547506368
 21
729.26086956087681
  0
LINE
  8
_0-1_計細線
  6
CONTINUOUS
 62
    3
 10
841.68050578122507
 20
715.26086956087681
 11
839.68050578122507
 21
713.26086956087681
  0
LINE
  8
_0-1_計細線
  6
CONTINUOUS
 62
    3
 10
841.68050578122507
 20
717.26086956087681
 11
841.68050578122507
 21
715.26086956087681
  0
LINE
  8
_0-1_計細線
  6
CONTINUOUS
 62
    3
 10
839.68050578122507
 20
719.26086956087681
 11
841.68050578122507
 21
717.26086956087681
  0
LINE
  8
_0-1_計細線
  6
CONTINUOUS
 62
    3
 10
853.68050547506368
 20
715.26086956087681
 11
855.68050547506368
 21
713.26086956087681
  0
LINE
  8
_0-1_計細線
  6
CONTINUOUS
 62
    3
 10
853.68050547506368
 20
717.26086956087681
 11
853.68050547506368
 21
715.26086956087681
  0
LINE
  8
_0-1_計細線
  6
CONTINUOUS
 62
    3
 10
855.68050547506368
 20
719.26086956087681
 11
853.68050547506368
 21
717.26086956087681
  0
LINE
  8
_0-1_計細線
  6
CONTINUOUS
 62
    3
 10
839.68050578122507
 20
713.26086956087681
 11
839.68050578122507
 21
699.26086956087681
  0
ARC
  8
_0-1_計細線
  6
CONTINUOUS
 62
    3
 10
842.68050578122507
 20
699.26086956087681
 40
3
 50
179.99999999999983
 51
269.99999999999977
  0
LINE
  8
_0-1_計細線
  6
CONTINUOUS
 62
    3
 10
842.68050578122507
 20
696.26086956087681
 11
852.68050547506368
 21
696.26086956087681
  0
LINE
  8
_0-1_計細線
  6
CONTINUOUS
 62
    3
 10
855.68050547506368
 20
713.26086956087681
 11
855.68050547506368
 21
699.26086956087681
  0
ARC
  8
_0-1_計細線
  6
CONTINUOUS
 62
    3
 10
852.68050547506368
 20
699.26086956087681
 40
3
 50
269.99999999999977
 51
359.99999999999966
  0
LINE
  8
_0-1_計細線
  6
CONTINUOUS
 62
    3
 10
841.68050578122507
 20
731.26086956087681
 11
853.68050547506368
 21
731.26086956087681
  0
LINE
  8
_0-1_計細線
  6
CONTINUOUS
 62
    3
 10
855.68050547506368
 20
729.26086956087681
 11
853.68050547506368
 21
731.26086956087681
  0
LINE
  8
_0-0_計極細
  6
CENTER1
 62
    2
 10
847.45451693353129
 20
734.91158898717265
 11
847.45451693353129
 21
692.71495299352694
  0
LINE
  8
_0-5_寸法線
  6
CONTINUOUS
 62
    7
 10
385.45451693353129
 20
707.42028985485797
 11
394.17980435386767
 21
694.00875156007157
  0
LINE
  8
_0-5_寸法線
  6
CONTINUOUS
 62
    7
 10
385.45451693353129
 20
707.42028985485797
 11
386.30506834747018
 21
691.44291327757696
  0
LINE
  8
_0-5_寸法線
  6
CONTINUOUS
 62
    7
 10
385.45451693353129
 20
707.42028985485797
 11
398.59507023820447
 21
667.09101853706909
  0
LINE
  8
_0-5_寸法線
  6
CONTINUOUS
 62
    7
 10
398.59507023820447
 20
667.09101853706909
 11
475.39507023820454
 21
667.09101853706909
  0
TEXT
  8
_0-5_寸法線
 62
    7
 10
398.59507023820447
 20
667.09101853706909
 40
24
 41
0.8000000000000001
 50
0
  1
アンカー
  0
LINE
  8
_0-1_計細線
  6
CONTINUOUS
 62
    3
 10
1333.4545169335313
 20
809.99999999999989
 11
1333.4545169335313
 21
711.99999999999989
  0
ARC
  8
_0-1_計細線
  6
CONTINUOUS
 62
    3
 10
1333.4545169335313
 20
809.99999999999989
 40
1
 50
89.999999999999915
 51
179.99999999999983
  0
LINE
  8
_0-1_計細線
  6
CONTINUOUS
 62
    3
 10
1343.4545169335313
 20
810.99999999999989
 11
1333.4545169335313
 21
810.99999999999989
  0
ARC
  8
_0-1_計細線
  6
CONTINUOUS
 62
    3
 10
1343.4545169335313
 20
809.99999999999989
 40
1
 50
0
 51
89.999999999999915
  0
LINE
  8
_0-1_計細線
  6
CONTINUOUS
 62
    3
 10
1344.4545169335313
 20
802.99999999999989
 11
1344.4545169335313
 21
809.99999999999989
  0
LINE
  8
_0-1_計細線
  6
CONTINUOUS
 62
    3
 10
1343.4545169335313
 20
802.99999999999989
 11
1344.4545169335313
 21
802.99999999999989
  0
LINE
  8
_0-1_計細線
  6
CONTINUOUS
 62
    3
 10
1343.4545169335313
 20
809.99999999999989
 11
1333.4545169335313
 21
809.99999999999989
  0
LINE
  8
_0-1_計細線
  6
CONTINUOUS
 62
    3
 10
1343.4545169335313
 20
802.99999999999989
 11
1343.4545169335313
 21
809.99999999999989
  0
LINE
  8
_0-1_計細線
  6
CONTINUOUS
 62
    3
 10
1333.4545169335313
 20
810.99999999999989
 11
351.45451693353129
 21
810.99999999999989
  0
LINE
  8
_0-1_計細線
  6
CONTINUOUS
 62
    3
 10
350.45451693353129
 20
802.99999999999989
 11
350.45451693353129
 21
809.99999999999989
  0
ARC
  8
_0-1_計細線
  6
CONTINUOUS
 62
    3
 10
351.45451693353129
 20
809.99999999999989
 40
1
 50
89.999999999999915
 51
179.99999999999983
  0
LINE
  8
_0-1_計細線
  6
CONTINUOUS
 62
    3
 10
377.68050578122507
 20
730.60806790208471
 11
362.43036938749606
 21
730.97642868467801
  0
LINE
  8
_0-1_計細線
  6
CONTINUOUS
 62
    3
 10
361.45451693353129
 20
731.97613709017457
 11
361.45451693353129
 21
802.99999999999989
  0
ARC
  8
_0-1_計細線
  6
CONTINUOUS
 62
    3
 10
362.45451693353129
 20
731.97613709017457
 40
1
 50
179.99999999999983
 51
268.61631303212988
  0
LINE
  8
_0-5_寸法線
  6
CONTINUOUS
 62
    7
 10
350.45451693353129
 20
826.99999999999989
 11
350.45451693353129
 21
898.99999999999989
  0
LINE
  8
_0-5_寸法線
  6
CONTINUOUS
 62
    7
 10
350.45451693353129
 20
890.99999999999989
 11
365.90933015415635
 21
895.1411047216402
  0
LINE
  8
_0-5_寸法線
  6
CONTINUOUS
 62
    7
 10
350.45451693353129
 20
890.99999999999989
 11
365.90933015415635
 21
886.85889527835957
  0
LINE
  8
_0-5_寸法線
  6
CONTINUOUS
 62
    7
 10
385.45451693353129
 20
826.99999999999989
 11
385.45451693353129
 21
898.99999999999989
  0
LINE
  8
_0-5_寸法線
  6
CONTINUOUS
 62
    7
 10
385.45451693353129
 20
890.99999999999989
 11
369.99970371290624
 21
886.85889527835957
  0
LINE
  8
_0-5_寸法線
  6
CONTINUOUS
 62
    7
 10
385.45451693353129
 20
890.99999999999989
 11
369.99970371290624
 21
895.14110472164032
  0
LINE
  8
_0-5_寸法線
  6
CONTINUOUS
 62
    7
 10
350.45451693353129
 20
890.99999999999989
 11
385.45451693353129
 21
890.99999999999989
  0
TEXT
  8
_0-5_寸法線
 62
    7
 10
355.95451693353129
 20
890.99999999999989
 40
24
 41
1
 50
0
  1
35
  0
LINE
  8
_0-5_寸法線
  6
CONTINUOUS
 62
    7
 10
385.45451693353129
 20
890.99999999999989
 11
400.90933015415635
 21
895.14110472164009
  0
LINE
  8
_0-5_寸法線
  6
CONTINUOUS
 62
    7
 10
385.45451693353129
 20
890.99999999999989
 11
400.90933015415635
 21
886.85889527835946
  0
LINE
  8
_0-5_寸法線
  6
CONTINUOUS
 62
    7
 10
1309.4545169335313
 20
826.99999999999989
 11
1309.4545169335313
 21
898.99999999999989
  0
LINE
  8
_0-5_寸法線
  6
CONTINUOUS
 62
    7
 10
1309.4545169335313
 20
890.99999999999989
 11
1293.9997037129062
 21
886.85889527835957
  0
LINE
  8
_0-5_寸法線
  6
CONTINUOUS
 62
    7
 10
1309.4545169335313
 20
890.99999999999989
 11
1293.9997037129062
 21
895.14110472164032
  0
LINE
  8
_0-5_寸法線
  6
CONTINUOUS
 62
    7
 10
385.45451693353129
 20
890.99999999999989
 11
1309.4545169335313
 21
890.99999999999989
  0
TEXT
  8
_0-5_寸法線
 62
    7
 10
787.45451693353129
 20
890.99999999999989
 40
24
 41
1
 50
0
  1
Ｄ＝Ｎ×Ｅ
  0
LINE
  8
_0-5_寸法線
  6
CONTINUOUS
 62
    7
 10
1309.4545169335313
 20
890.99999999999989
 11
1324.9093301541564
 21
895.14110472164009
  0
LINE
  8
_0-5_寸法線
  6
CONTINUOUS
 62
    7
 10
1309.4545169335313
 20
890.99999999999989
 11
1324.9093301541564
 21
886.85889527835946
  0
LINE
  8
_0-5_寸法線
  6
CONTINUOUS
 62
    7
 10
1344.4545169335313
 20
826.99999999999989
 11
1344.4545169335313
 21
898.99999999999989
  0
LINE
  8
_0-5_寸法線
  6
CONTINUOUS
 62
    7
 10
1344.4545169335313
 20
890.99999999999989
 11
1328.9997037129062
 21
886.85889527835957
  0
LINE
  8
_0-5_寸法線
  6
CONTINUOUS
 62
    7
 10
1344.4545169335313
 20
890.99999999999989
 11
1328.9997037129062
 21
895.14110472164032
  0
LINE
  8
_0-5_寸法線
  6
CONTINUOUS
 62
    7
 10
1309.4545169335313
 20
890.99999999999989
 11
1344.4545169335313
 21
890.99999999999989
  0
TEXT
  8
_0-5_寸法線
 62
    7
 10
1314.9545169335313
 20
890.99999999999989
 40
24
 41
1
 50
0
  1
35
  0
LINE
  8
_0-5_寸法線
  6
CONTINUOUS
 62
    7
 10
345.45451693353129
 20
730.99999999999989
 11
262.45451693353107
 21
731.00000000000011
  0
LINE
  8
_0-5_寸法線
  6
CONTINUOUS
 62
    7
 10
270.45451693353107
 20
731.00000000000011
 11
266.31341221189075
 21
746.45481322062517
  0
LINE
  8
_0-5_寸法線
  6
CONTINUOUS
 62
    7
 10
270.45451693353107
 20
731.00000000000011
 11
274.5956216551715
 21
746.45481322062517
  0
LINE
  8
_0-5_寸法線
  6
CONTINUOUS
 62
    7
 10
334.45451693353129
 20
810.99999999999989
 11
262.45451693353107
 21
811.00000000000011
  0
LINE
  8
_0-5_寸法線
  6
CONTINUOUS
 62
    7
 10
270.45451693353107
 20
811.00000000000011
 11
274.5956216551715
 21
795.54518677937506
  0
LINE
  8
_0-5_寸法線
  6
CONTINUOUS
 62
    7
 10
270.45451693353107
 20
811.00000000000011
 11
266.31341221189075
 21
795.54518677937506
  0
LINE
  8
_0-5_寸法線
  6
CONTINUOUS
 62
    7
 10
270.45451693353107
 20
731.00000000000011
 11
270.45451693353107
 21
811.00000000000011
  0
TEXT
  8
_0-5_寸法線
 62
    7
 10
270.45451693353107
 20
759
 40
24
 41
1
 50
90
  1
80
  0
LINE
  8
_0-0_計極細
  6
DASHED2
 62
    2
 10
1309.4545169335313
 20
726.65071942629572
 11
1309.4545169335313
 21
684.45408343265001
  0
LINE
  8
_0-1_計細線
  6
DASHED2
 62
    3
 10
1317.6805054750628
 20
720.99999999999989
 11
1315.6805054750628
 21
722.99999999999989
  0
LINE
  8
_0-1_計細線
  6
DASHED2
 62
    3
 10
1303.6805057812246
 20
722.99999999999989
 11
1315.6805054750628
 21
722.99999999999989
  0
ARC
  8
_0-1_計細線
  6
DASHED2
 62
    3
 10
1314.6805054750628
 20
690.99999999999989
 40
3
 50
269.99999999999977
 51
359.99999999999966
  0
LINE
  8
_0-1_計細線
  6
DASHED2
 62
    3
 10
1317.6805054750628
 20
704.99999999999989
 11
1317.6805054750628
 21
690.99999999999989
  0
LINE
  8
_0-1_計細線
  6
DASHED2
 62
    3
 10
1304.6805057812246
 20
687.99999999999989
 11
1314.6805054750628
 21
687.99999999999989
  0
ARC
  8
_0-1_計細線
  6
DASHED2
 62
    3
 10
1304.6805057812246
 20
690.99999999999989
 40
3
 50
179.99999999999983
 51
269.99999999999977
  0
LINE
  8
_0-1_計細線
  6
DASHED2
 62
    3
 10
1301.6805057812246
 20
704.99999999999989
 11
1301.6805057812246
 21
690.99999999999989
  0
LINE
  8
_0-1_計細線
  6
DASHED2
 62
    3
 10
1317.6805054750628
 20
710.99999999999989
 11
1315.6805054750628
 21
708.99999999999989
  0
LINE
  8
_0-1_計細線
  6
DASHED2
 62
    3
 10
1315.6805054750628
 20
708.99999999999989
 11
1315.6805054750628
 21
706.99999999999989
  0
LINE
  8
_0-1_計細線
  6
DASHED2
 62
    3
 10
1315.6805054750628
 20
706.99999999999989
 11
1317.6805054750628
 21
704.99999999999989
  0
LINE
  8
_0-1_計細線
  6
DASHED2
 62
    3
 10
1301.6805057812246
 20
710.99999999999989
 11
1303.6805057812246
 21
708.99999999999989
  0
LINE
  8
_0-1_計細線
  6
DASHED2
 62
    3
 10
1303.6805057812246
 20
708.99999999999989
 11
1303.6805057812246
 21
706.99999999999989
  0
LINE
  8
_0-1_計細線
  6
DASHED2
 62
    3
 10
1303.6805057812246
 20
706.99999999999989
 11
1301.6805057812246
 21
704.99999999999989
  0
LINE
  8
_0-1_計細線
  6
DASHED2
 62
    3
 10
1317.6805054750628
 20
710.99999999999989
 11
1317.6805054750628
 21
720.99999999999989
  0
LINE
  8
_0-1_計細線
  6
DASHED2
 62
    3
 10
1301.6805057812246
 20
710.99999999999989
 11
1301.6805057812246
 21
720.99999999999989
  0
LINE
  8
_0-1_計細線
  6
DASHED2
 62
    3
 10
1303.6805057812246
 20
722.99999999999989
 11
1301.6805057812246
 21
720.99999999999989
  0
ARC
  8
_0-1_計細線
  6
CONTINUOUS
 62
    3
 10
1209.0565569335324
 20
682.34926327999642
 40
4.8979599999999994
 50
0
 51
59.999999999998458
  0
LINE
  8
_0-1_計細線
  6
CONTINUOUS
 62
    3
 10
1207.6851329335334
 20
706.99999999999977
 11
1263.4239089335335
 21
706.99999999999977
  0
LINE
  8
_0-1_計細線
  6
CONTINUOUS
 62
    3
 10
1211.505540933533
 20
686.5910232799954
 11
1211.505540933533
 21
703.79999999999984
  0
LINE
  8
_0-0_計極細
  6
CONTINUOUS
 62
    2
 10
1290.4239089335335
 20
687.99999999999966
 11
1313.4029089335334
 21
687.99999999999966
  0
LINE
  8
_0-0_計極細
  6
CONTINUOUS
 62
    2
 10
1301.6739089335335
 20
682.79999999999961
 11
1290.4239089335335
 21
682.79999999999961
  0
LINE
  8
_0-0_計極細
  6
CONTINUOUS
 62
    2
 10
1290.4239089335335
 20
687.70433599999967
 11
1290.4239089335335
 21
689.18208899999979
  0
LINE
  8
_0-0_計極細
  6
CONTINUOUS
 62
    2
 10
1290.4239089335335
 20
688.79999999999961
 11
1311.9239089335335
 21
688.79999999999961
  0
LINE
  8
_0-0_計極細
  6
CONTINUOUS
 62
    2
 10
1306.9239089335335
 20
702.30784299999971
 11
1306.9239089335335
 21
703.2070639999996
  0
LINE
  8
_0-0_計極細
  6
CONTINUOUS
 62
    2
 10
1306.9239089335335
 20
696.20784299999957
 11
1306.9239089335335
 21
697.70784299999957
  0
LINE
  8
_0-0_計極細
  6
CONTINUOUS
 62
    2
 10
1303.1739089335335
 20
700.61317399999973
 11
1303.1739089335335
 21
699.31317399999978
  0
LINE
  8
_0-0_計極細
  6
CONTINUOUS
 62
    2
 10
1303.1739089335335
 20
698.31317399999978
 11
1303.1739089335335
 21
697.81317399999978
  0
LINE
  8
_0-0_計極細
  6
CONTINUOUS
 62
    2
 10
1306.7739089335334
 20
700.61317399999973
 11
1306.7739089335334
 21
697.81317399999978
  0
LINE
  8
_0-0_計極細
  6
CONTINUOUS
 62
    2
 10
1302.6739089335335
 20
701.11317399999973
 11
1303.1739089335335
 21
701.61317399999973
  0
LINE
  8
_0-0_計極細
  6
CONTINUOUS
 62
    2
 10
1303.1739089335335
 20
700.61317399999973
 11
1302.6739089335335
 21
701.11317399999973
  0
LINE
  8
_0-0_計極細
  6
CONTINUOUS
 62
    2
 10
1303.1739089335335
 20
698.31317399999978
 11
1302.6739089335335
 21
698.81317399999978
  0
LINE
  8
_0-0_計極細
  6
CONTINUOUS
 62
    2
 10
1302.6739089335335
 20
698.81317399999978
 11
1303.1739089335335
 21
699.31317399999978
  0
LINE
  8
_0-0_計極細
  6
CONTINUOUS
 62
    2
 10
1306.7739089335334
 20
700.61317399999973
 11
1307.5739089335336
 21
702.11317399999973
  0
LINE
  8
_0-0_計極細
  6
CONTINUOUS
 62
    2
 10
1303.1739089335335
 20
702.11317399999973
 11
1303.1739089335335
 21
701.61317399999973
  0
ARC
  8
_0-0_計極細
  6
CONTINUOUS
 62
    2
 10
1309.3739089335334
 20
708.2070639999996
 40
0.5
 50
24.05454900000543
 51
89.999999999999901
  0
ARC
  8
_0-0_計極細
  6
CONTINUOUS
 62
    2
 10
1309.6739089335335
 20
706.90706399999965
 40
0.1999999999999886
 50
269.99999999999977
 51
359.99999999999966
  0
ARC
  8
_0-0_計極細
  6
CONTINUOUS
 62
    2
 10
1309.3739089335334
 20
708.2070639999996
 40
0.5
 50
0
 51
24.05454900000543
  0
ARC
  8
_0-0_計極細
  6
CONTINUOUS
 62
    2
 10
1307.2239089335333
 20
703.7070639999996
 40
0.5
 50
269.99999999999977
 51
359.99999999999966
  0
LINE
  8
_0-0_計極細
  6
CONTINUOUS
 62
    2
 10
1306.6239089335334
 20
703.2070639999996
 11
1306.6239089335334
 21
704.2070639999996
  0
LINE
  8
_0-0_計極細
  6
CONTINUOUS
 62
    2
 10
1307.7239089335333
 20
703.7070639999996
 11
1307.7239089335337
 21
706.7070639999996
  0
LINE
  8
_0-0_計極細
  6
CONTINUOUS
 62
    2
 10
1307.7239089335337
 20
706.7070639999996
 11
1309.6739089335335
 21
706.7070639999996
  0
LINE
  8
_0-0_計極細
  6
CONTINUOUS
 62
    2
 10
1309.8739089335334
 20
706.90706399999965
 11
1309.8739089335334
 21
708.2070639999996
  0
LINE
  8
_0-0_計極細
  6
CONTINUOUS
 62
    2
 10
1294.7102219335336
 20
690.00706399999979
 11
1294.7102219335336
 21
691.7070639999996
  0
LINE
  8
_0-0_計極細
  6
CONTINUOUS
 62
    2
 10
1298.2102219335336
 20
690.00706399999979
 11
1298.2102219335336
 21
691.7070639999996
  0
LINE
  8
_0-0_計極細
  6
CONTINUOUS
 62
    2
 10
1293.2102219335336
 20
690.00706399999979
 11
1293.2102219335336
 21
691.7070639999996
  0
LINE
  8
_0-0_計極細
  6
CONTINUOUS
 62
    2
 10
1293.2102219335336
 20
690.00706399999979
 11
1298.2102219335336
 21
690.00706399999979
  0
LINE
  8
_0-0_計極細
  6
CONTINUOUS
 62
    2
 10
1306.4239089335335
 20
691.7070639999996
 11
1311.9239089335335
 21
691.7070639999996
  0
LINE
  8
_0-0_計極細
  6
CONTINUOUS
 62
    2
 10
1305.5937249335336
 20
689.7070639999996
 11
1306.4239089335335
 21
689.7070639999996
  0
LINE
  8
_0-0_計極細
  6
CONTINUOUS
 62
    2
 10
1306.4239089335335
 20
694.40706399999965
 11
1307.7239089335333
 21
694.40706399999965
  0
LINE
  8
_0-0_計極細
  6
CONTINUOUS
 62
    2
 10
1306.4239089335335
 20
693.7070639999996
 11
1308.4239089335335
 21
693.7070639999996
  0
LINE
  8
_0-0_計極細
  6
CONTINUOUS
 62
    2
 10
1304.1739089335335
 20
691.80784299999971
 11
1304.1739089335335
 21
695.7070639999996
  0
LINE
  8
_0-0_計極細
  6
CONTINUOUS
 62
    2
 10
1306.4239089335335
 20
689.7070639999996
 11
1306.4239089335335
 21
695.7070639999996
  0
LINE
  8
_0-0_計極細
  6
CONTINUOUS
 62
    2
 10
1313.4029089335334
 20
693.18606399999965
 11
1311.9239089335335
 21
691.7070639999996
  0
LINE
  8
_0-0_計極細
  6
CONTINUOUS
 62
    2
 10
1308.4239089335335
 20
693.7070639999996
 11
1308.4239089335335
 21
704.9570639999996
  0
ARC
  8
_0-0_計極細
  6
CONTINUOUS
 62
    2
 10
1309.4739089335333
 20
704.9570639999996
 40
1.0500000000000114
 50
89.999999999999915
 51
179.99999999999983
  0
LINE
  8
_0-0_計極細
  6
CONTINUOUS
 62
    2
 10
1310.6651329335334
 20
706.00706399999979
 11
1309.4739089335333
 21
706.00706399999979
  0
ARC
  8
_0-0_計極細
  6
CONTINUOUS
 62
    2
 10
1310.6651329335334
 20
707.7070639999996
 40
1.6999999999999886
 50
269.99999999999977
 51
356.64911199999864
  0
ARC
  8
_0-0_計極細
  6
CONTINUOUS
 62
    2
 10
1310.6651329335334
 20
707.7070639999996
 40
1
 50
269.99999999999977
 51
356.64911200000284
  0
ARC
  8
_0-0_計極細
  6
CONTINUOUS
 62
    2
 10
1313.4029089335334
 20
707.4570639999996
 40
1.75
 50
89.999999999999915
 51
175.84900999999476
  0
ARC
  8
_0-0_計極細
  6
CONTINUOUS
 62
    2
 10
1309.4739089335333
 20
704.9570639999996
 40
1.75
 50
89.999999999999915
 51
179.99999999999983
  0
LINE
  8
_0-0_計極細
  6
CONTINUOUS
 62
    2
 10
1309.9239089335335
 20
706.7070639999996
 11
1309.9239089335335
 21
709.2070639999996
  0
LINE
  8
_0-0_計極細
  6
CONTINUOUS
 62
    2
 10
1307.7239089335333
 20
694.40706399999965
 11
1307.7239089335333
 21
704.9570639999996
  0
LINE
  8
_0-0_計極細
  6
CONTINUOUS
 62
    2
 10
1310.6651329335334
 20
706.7070639999996
 11
1309.4739089335333
 21
706.7070639999996
  0
LINE
  8
_0-0_計極細
  6
CONTINUOUS
 62
    2
 10
1303.6739089335335
 20
695.7070639999996
 11
1307.7239089335333
 21
695.7070639999996
  0
LINE
  8
_0-0_計極細
  6
CONTINUOUS
 62
    2
 10
1290.9810699335337
 20
691.7070639999996
 11
1300.9222159335334
 21
691.7070639999996
  0
ARC
  8
_0-0_計極細
  6
CONTINUOUS
 62
    2
 10
1301.6739089335335
 20
681.79999999999961
 40
1
 50
89.999999999999915
 51
179.99999999999983
  0
ARC
  8
_0-0_計極細
  6
CONTINUOUS
 62
    2
 10
1301.6739089335335
 20
681.79999999999961
 40
1
 50
0
 51
89.999999999999915
  0
LINE
  8
_0-0_計極細
  6
CONTINUOUS
 62
    2
 10
1313.4029089335334
 20
687.99999999999966
 11
1311.9239089335335
 21
688.79999999999961
  0
LINE
  8
_0-0_計極細
  6
CONTINUOUS
 62
    2
 10
1311.9239089335335
 20
688.79999999999961
 11
1311.9239089335335
 21
691.7070639999996
  0
LINE
  8
_0-0_計極細
  6
CONTINUOUS
 62
    2
 10
1313.4029089335334
 20
693.18606399999965
 11
1313.4029089335334
 21
708.50706399999979
  0
ARC
  8
_0-0_計極細
  6
CONTINUOUS
 62
    2
 10
1313.4029089335334
 20
707.4570639999996
 40
1.0500000000000114
 50
89.999999999999915
 51
175.84900999999832
  0
ARC
  8
_0-0_計極細
  6
CONTINUOUS
 62
    2
 10
1296.4239089335335
 20
689.18208899999979
 40
6
 50
55.166292356155324
 51
179.99999999999983
  0
ARC
  8
_0-0_計極細
  6
CONTINUOUS
 62
    2
 10
1297.9239089335335
 20
691.80784299999971
 40
3
 50
0
 51
50.029499419964218
  0
LINE
  8
_0-0_計極細
  6
CONTINUOUS
 62
    2
 10
1300.9239089335335
 20
688.80784299999971
 11
1300.9239089335335
 21
691.80784299999971
  0
LINE
  8
_0-0_計極細
  6
CONTINUOUS
 62
    2
 10
1303.9239089335335
 20
688.80784299999971
 11
1300.9239089335335
 21
688.80784299999971
  0
ARC
  8
_0-0_計極細
  6
CONTINUOUS
 62
    2
 10
1303.9239089335335
 20
690.80784299999971
 40
2
 50
269.99999999999977
 51
359.99999999999966
  0
LINE
  8
_0-0_計極細
  6
CONTINUOUS
 62
    2
 10
1305.9239089335335
 20
690.80784299999971
 11
1305.9239089335335
 21
691.80784299999971
  0
LINE
  8
_0-0_計極細
  6
CONTINUOUS
 62
    2
 10
1305.9239089335335
 20
691.80784299999971
 11
1303.6739089335335
 21
691.80784299999971
  0
LINE
  8
_0-0_計極細
  6
CONTINUOUS
 62
    2
 10
1306.9239089335335
 20
696.20784299999957
 11
1303.6739089335335
 21
696.20784299999957
  0
LINE
  8
_0-0_計極細
  6
CONTINUOUS
 62
    2
 10
1303.6739089335335
 20
691.80784299999971
 11
1303.6739089335335
 21
696.2078429999998
  0
LINE
  8
_0-1_計細線
  6
CONTINUOUS
 62
    3
 10
1221.9545169335327
 20
593.99998327999606
 11
1314.9545169335327
 21
593.99998327999606
  0
LINE
  8
_0-1_計細線
  6
CONTINUOUS
 62
    3
 10
1213.9545169335327
 20
601.99998327999606
 11
1213.9545169335327
 21
682.34926327999642
  0
ARC
  8
_0-1_計細線
  6
CONTINUOUS
 62
    3
 10
1221.9545169335327
 20
601.99998327999606
 40
8
 50
179.99999999999983
 51
269.99999999999977
  0
ARC
  8
_0-0_計極細
  6
CONTINUOUS
 62
    2
 10
1290.6739089335335
 20
624.49998327999572
 40
10
 50
269.99999999999977
 51
359.99999999999966
  0
LINE
  8
_0-0_計極細
  6
CONTINUOUS
 62
    2
 10
1300.6739089335335
 20
624.49998327999572
 11
1300.6739089335335
 21
681.79999999999961
  0
LINE
  8
_0-0_計極細
  6
CONTINUOUS
 62
    2
 10
1302.6739089335335
 20
624.49998327999572
 11
1302.6739089335335
 21
681.79999999999961
  0
ARC
  8
_0-0_計極細
  6
CONTINUOUS
 62
    2
 10
1290.6739089335335
 20
624.49998327999572
 40
12
 50
269.99999999999977
 51
359.99999999999966
  0
LINE
  8
_0-0_計極細
  6
CONTINUOUS
 62
    2
 10
1302.6739089335335
 20
624.49998327999572
 11
1302.6739089335335
 21
651.49998327999572
  0
ARC
  8
_0-0_計極細
  6
CONTINUOUS
 62
    2
 10
1289.4239089335335
 20
630.70782627999574
 40
1
 50
269.99954163376469
 51
359.99999999999966
  0
LINE
  8
_0-0_計極細
  6
CONTINUOUS
 62
    2
 10
1290.4239089335335
 20
630.70782627999574
 11
1290.4239089335335
 21
689.18208899999979
  0
LINE
  8
_0-0_計極細
  6
CONTINUOUS
 62
    2
 10
1302.7477929335334
 20
649.78641455545824
 11
1302.7477929335334
 21
656.3676739999994
  0
ARC
  8
_0-0_計極細
  6
CONTINUOUS
 62
    2
 10
1305.7477929335334
 20
656.3676739999994
 40
3
 50
89.999999999999915
 51
179.99999999999983
  0
ARC
  8
_0-1_計細線
  6
CONTINUOUS
 62
    3
 10
1319.8524772396943
 20
682.34926327999642
 40
4.8979599999999994
 50
120.00000000000155
 51
179.99999999999983
  0
LINE
  8
_0-1_計細線
  6
CONTINUOUS
 62
    3
 10
1317.4034932396937
 20
686.5910232799954
 11
1317.4034932396937
 21
703.79999999999984
  0
LINE
  8
_0-1_計細線
  6
CONTINUOUS
 62
    3
 10
1314.954517239694
 20
651.44520232462582
 11
1314.954517239694
 21
682.34926327999642
  0
LINE
  8
_0-1_計細線
  6
CONTINUOUS
 62
    3
 10
1321.4545169335327
 20
703.79999999999984
 11
1321.4545169335327
 21
710.49998327999606
  0
LINE
  8
_0-1_計細線
  6
CONTINUOUS
 62
    3
 10
1317.4034932396937
 20
703.79999999999984
 11
1321.4545169335327
 21
703.79999999999984
  0
LINE
  8
_0-0_計極細
  6
CONTINUOUS
 62
    2
 10
1313.4029089335334
 20
709.2070639999996
 11
1321.4545169335327
 21
710.35385334624641
  0
LINE
  8
_0-0_計極細
  6
CONTINUOUS
 62
    2
 10
1313.4029089335334
 20
708.49999945374873
 11
1321.4545169335327
 21
709.64678941841464
  0
LINE
  8
_0-0_計極細
  6
CONTINUOUS
 62
    2
 10
1321.4545169335327
 20
707.93068724172758
 11
1313.4029089335334
 21
706.99999999999966
  0
LINE
  8
_0-0_計極細
  6
CONTINUOUS
 62
    2
 10
1264.4545169335327
 20
709.49998327999606
 11
1315.4594955534333
 21
709.49998327999606
  0
LINE
  8
_0-0_計極細
  6
CONTINUOUS
 62
    2
 10
1264.4545169335327
 20
709.20706399999983
 11
1313.4029089335334
 21
709.2070639999996
  0
LINE
  8
_0-0_計極細
  6
CONTINUOUS
 62
    2
 10
1264.4545169335327
 20
708.70706399999983
 11
1309.3739089335334
 21
708.7070639999996
  0
LINE
  8
_0-0_計極細
  6
CONTINUOUS
 62
    2
 10
1264.4545169335327
 20
704.20706399999983
 11
1306.6239089335334
 21
704.2070639999996
  0
LINE
  8
_0-0_計極細
  6
CONTINUOUS
 62
    2
 10
1264.4545169335327
 20
703.20706399999983
 11
1307.2239089335333
 21
703.2070639999996
  0
LINE
  8
_0-0_計極細
  6
CONTINUOUS
 62
    2
 10
1264.4545169335327
 20
702.11317399999973
 11
1307.5739089335336
 21
702.11317399999973
  0
LINE
  8
_0-0_計極細
  6
CONTINUOUS
 62
    2
 10
1306.9239089335335
 20
702.30784299999971
 11
1264.4545169335327
 21
702.30784299999971
  0
LINE
  8
_0-0_計極細
  6
CONTINUOUS
 62
    2
 10
1264.4545169335327
 20
701.11317399999973
 11
1302.6739089335335
 21
701.11317399999973
  0
LINE
  8
_0-0_計極細
  6
CONTINUOUS
 62
    2
 10
1264.4545169335327
 20
698.81317399999978
 11
1302.6739089335335
 21
698.81317399999978
  0
LINE
  8
_0-0_計極細
  6
CONTINUOUS
 62
    2
 10
1264.4545169335327
 20
697.81317399999978
 11
1306.7739089335334
 21
697.81317399999978
  0
LINE
  8
_0-0_計極細
  6
CONTINUOUS
 62
    2
 10
1306.9239089335335
 20
697.70784299999957
 11
1264.4545169335327
 21
697.7078429999998
  0
LINE
  8
_0-0_計極細
  6
CONTINUOUS
 62
    2
 10
1303.6739089335335
 20
696.2078429999998
 11
1264.4545169335327
 21
696.2078429999998
  0
LINE
  8
_0-0_計極細
  6
DASHED2
 62
    2
 10
1290.4239089335335
 20
688.79999999999961
 11
1264.4545169335327
 21
688.79999999999961
  0
LINE
  8
_0-0_計極細
  6
DASHED2
 62
    2
 10
1290.4239089335335
 20
687.99999999999966
 11
1264.4545169335327
 21
687.99999999999966
  0
LINE
  8
_0-0_計極細
  6
DASHED2
 62
    2
 10
1290.4239089335335
 20
682.79999999999961
 11
1264.4545169335327
 21
682.79999999999961
  0
LINE
  8
_0-0_計極細
  6
CONTINUOUS
 62
    2
 10
1289.4239089335335
 20
629.70782627999574
 11
1264.4545169335327
 21
629.70782627999574
  0
LINE
  8
_0-0_計極細
  6
CONTINUOUS
 62
    2
 10
1264.4545169335327
 20
614.49998327999583
 11
1290.6739089335335
 21
614.49998327999572
  0
LINE
  8
_0-0_計極細
  6
CONTINUOUS
 62
    2
 10
1264.4545169335327
 20
612.49998327999583
 11
1290.6739089335335
 21
612.49998327999572
  0
LINE
  8
_0-0_計極細
  6
CONTINUOUS
 62
    2
 10
1264.4545169335327
 20
595.9599832799961
 11
1313.2822951983665
 21
595.9599832799961
  0
LINE
  8
_0-1_計細線
  6
CONTINUOUS
 62
    3
 10
1264.4545169335327
 20
703.79999999999984
 11
1207.4545169335327
 21
703.79999999999984
  0
LINE
  8
_0-1_計細線
  6
CONTINUOUS
 62
    3
 10
1207.4545169335327
 20
706.99999999999989
 11
1264.4545169335327
 21
706.99999999999966
  0
LINE
  8
_0-1_計細線
  6
CONTINUOUS
 62
    3
 10
1264.4545169335327
 20
686.5910232799954
 11
1211.505540933533
 21
686.5910232799954
  0
LINE
  8
_0-1_計細線
  6
CONTINUOUS
 62
    3
 10
1264.4545169335327
 20
682.34926327999642
 11
1213.9545169335327
 21
682.34926327999642
  0
LINE
  8
_0-1_計細線
  6
CONTINUOUS
 62
    3
 10
1314.9545169335327
 20
593.99998327999606
 11
1351.4545169335327
 21
595.57061527999463
  0
LINE
  8
_0-1_計細線
  6
CONTINUOUS
 62
    3
 10
1351.4545169335327
 20
595.57061527999463
 11
1351.4545169335327
 21
650.57061527999463
  0
LINE
  8
_0-0_計極細
  6
CONTINUOUS
 62
    2
 10
1313.2822951983665
 20
595.9599832799961
 11
1351.4545169335327
 21
597.53253598399465
  0
LINE
  8
_0-0_計極細
  6
CENTER1
 62
    2
 10
1312.8932929335335
 20
623.07061527999463
 11
1359.7528002323436
 21
623.07061527999463
  0
LINE
  8
_0-0_計極細
  6
CONTINUOUS
 62
    2
 10
1302.7477929335334
 20
649.78641455545824
 11
1351.4545169335322
 21
648.61084043630046
  0
LINE
  8
_0-1_計細線
  6
CONTINUOUS
 62
    3
 10
1314.954517239694
 20
651.44520232462582
 11
1351.4545169335327
 21
650.57061527999463
  0
LINE
  8
_0-0_計極細
  6
CONTINUOUS
 62
    2
 10
1312.994517239694
 20
659.3676739999994
 11
1305.7477929335334
 21
659.3676739999994
  0
LINE
  8
_0-0_計極細
  6
CONTINUOUS
 62
    2
 10
1312.994517239694
 20
659.3676739999994
 11
1312.994517239694
 21
687.99999999999966
  0
LINE
  8
_0-1_計細線
  6
CONTINUOUS
 62
    3
 10
1207.4545169335327
 20
703.79999999999984
 11
1207.4545169335327
 21
706.99999999999977
  0
LINE
  8
_0-1_計細線
  6
CONTINUOUS
 62
    3
 10
1264.4545169335313
 20
710.49998327999606
 11
1321.4545169335327
 21
710.49998327999606
  0
LINE
  8
_0-5_寸法線
  6
CONTINUOUS
 62
    7
 10
1349.4545169335313
 20
710.99999999999989
 11
1551.4545169335327
 21
710.9999999999992
  0
LINE
  8
_0-5_寸法線
  6
CONTINUOUS
 62
    7
 10
1543.4545169335327
 20
710.9999999999992
 11
1539.3134122118925
 21
726.45481322062426
  0
LINE
  8
_0-5_寸法線
  6
CONTINUOUS
 62
    7
 10
1543.4545169335327
 20
710.9999999999992
 11
1547.5956216551731
 21
726.45481322062426
  0
LINE
  8
_0-5_寸法線
  6
CONTINUOUS
 62
    7
 10
1360.4545169335313
 20
810.99999999999977
 11
1551.4545169335327
 21
810.99999999999909
  0
LINE
  8
_0-5_寸法線
  6
CONTINUOUS
 62
    7
 10
1543.4545169335327
 20
810.99999999999909
 11
1547.5956216551731
 21
795.54518677937403
  0
LINE
  8
_0-5_寸法線
  6
CONTINUOUS
 62
    7
 10
1543.4545169335327
 20
810.99999999999909
 11
1539.3134122118925
 21
795.54518677937403
  0
LINE
  8
_0-5_寸法線
  6
CONTINUOUS
 62
    7
 10
1543.4545169335327
 20
710.9999999999992
 11
1543.4545169335327
 21
810.99999999999909
  0
TEXT
  8
_0-5_寸法線
 62
    7
 10
1543.4545169335327
 20
742.9999999999992
 40
24
 41
1
 50
90
  1
100
  0
LINE
  8
_0-5_寸法線
  6
CONTINUOUS
 62
    7
 10
1367.4545169335327
 20
595.57061527999463
 11
1607.4545169335327
 21
595.57061527999383
  0
LINE
  8
_0-5_寸法線
  6
CONTINUOUS
 62
    7
 10
1599.4545169335327
 20
595.57061527999383
 11
1595.3134122118925
 21
611.02542850061889
  0
LINE
  8
_0-5_寸法線
  6
CONTINUOUS
 62
    7
 10
1599.4545169335327
 20
595.57061527999383
 11
1603.5956216551731
 21
611.02542850061889
  0
LINE
  8
_0-5_寸法線
  6
CONTINUOUS
 62
    7
 10
1360.4545169335313
 20
810.99999999999966
 11
1607.4545169335327
 21
810.99999999999886
  0
LINE
  8
_0-5_寸法線
  6
CONTINUOUS
 62
    7
 10
1599.4545169335327
 20
810.99999999999886
 11
1603.5956216551731
 21
795.54518677937381
  0
LINE
  8
_0-5_寸法線
  6
CONTINUOUS
 62
    7
 10
1599.4545169335327
 20
810.99999999999886
 11
1595.3134122118925
 21
795.54518677937381
  0
LINE
  8
_0-5_寸法線
  6
CONTINUOUS
 62
    7
 10
1599.4545169335327
 20
595.57061527999383
 11
1599.4545169335327
 21
810.99999999999886
  0
TEXT
  8
_0-5_寸法線
 62
    7
 10
1599.4545169335327
 20
685.2853076399964
 40
24
 41
1
 50
90
  1
217
  0
LINE
  8
_0-5_寸法線
  6
CONTINUOUS
 62
    7
 10
1367.4545169335327
 20
595.57061527999463
 11
1551.4545169335327
 21
595.57061527999394
  0
LINE
  8
_0-5_寸法線
  6
CONTINUOUS
 62
    7
 10
1543.4545169335327
 20
595.57061527999394
 11
1539.3134122118925
 21
611.025428500619
  0
LINE
  8
_0-5_寸法線
  6
CONTINUOUS
 62
    7
 10
1543.4545169335327
 20
595.57061527999394
 11
1547.5956216551731
 21
611.025428500619
  0
LINE
  8
_0-5_寸法線
  6
CONTINUOUS
 62
    7
 10
1349.4545169335313
 20
710.99999999999989
 11
1551.4545169335327
 21
710.9999999999992
  0
LINE
  8
_0-5_寸法線
  6
CONTINUOUS
 62
    7
 10
1543.4545169335327
 20
710.9999999999992
 11
1547.5956216551731
 21
695.54518677937415
  0
LINE
  8
_0-5_寸法線
  6
CONTINUOUS
 62
    7
 10
1543.4545169335327
 20
710.9999999999992
 11
1539.3134122118925
 21
695.54518677937415
  0
LINE
  8
_0-5_寸法線
  6
CONTINUOUS
 62
    7
 10
1543.4545169335327
 20
595.57061527999394
 11
1543.4545169335327
 21
710.9999999999992
  0
TEXT
  8
_0-5_寸法線
 62
    7
 10
1543.4545169335327
 20
635.28530763999652
 40
24
 41
1
 50
90
  1
117
  0
LINE
  8
_0-5_寸法線
  6
CONTINUOUS
 62
    7
 10
1367.4545169335327
 20
595.57061527999463
 11
1495.4545169335327
 21
595.57061527999417
  0
LINE
  8
_0-5_寸法線
  6
CONTINUOUS
 62
    7
 10
1487.4545169335327
 20
595.57061527999417
 11
1483.3134122118925
 21
611.02542850061923
  0
LINE
  8
_0-5_寸法線
  6
CONTINUOUS
 62
    7
 10
1487.4545169335327
 20
595.57061527999417
 11
1491.5956216551731
 21
611.02542850061923
  0
LINE
  8
_0-5_寸法線
  6
CONTINUOUS
 62
    7
 10
1367.4545169335327
 20
650.57061527999463
 11
1495.4545169335327
 21
650.57061527999417
  0
LINE
  8
_0-5_寸法線
  6
CONTINUOUS
 62
    7
 10
1487.4545169335327
 20
650.57061527999417
 11
1491.5956216551731
 21
635.11580205936912
  0
LINE
  8
_0-5_寸法線
  6
CONTINUOUS
 62
    7
 10
1487.4545169335327
 20
650.57061527999417
 11
1483.3134122118925
 21
635.11580205936912
  0
LINE
  8
_0-5_寸法線
  6
CONTINUOUS
 62
    7
 10
1487.4545169335327
 20
595.57061527999417
 11
1487.4545169335327
 21
650.57061527999417
  0
TEXT
  8
_0-5_寸法線
 62
    7
 10
1487.4545169335327
 20
593.07061527999417
 40
24
 41
1
 50
90
  1
VU-50
  0
LINE
  8
_0-5_寸法線
  6
CONTINUOUS
 62
    7
 10
1367.4545169335327
 20
595.57061527999463
 11
1439.4545169335327
 21
595.5706152799944
  0
LINE
  8
_0-5_寸法線
  6
CONTINUOUS
 62
    7
 10
1431.4545169335327
 20
595.5706152799944
 11
1427.3134122118925
 21
611.02542850061946
  0
LINE
  8
_0-5_寸法線
  6
CONTINUOUS
 62
    7
 10
1431.4545169335327
 20
595.5706152799944
 11
1435.5956216551731
 21
611.02542850061946
  0
LINE
  8
_0-5_寸法線
  6
CONTINUOUS
 62
    7
 10
1367.4545169335327
 20
623.07061527999463
 11
1439.4545169335327
 21
623.0706152799944
  0
LINE
  8
_0-5_寸法線
  6
CONTINUOUS
 62
    7
 10
1431.4545169335327
 20
623.0706152799944
 11
1435.5956216551731
 21
607.61580205936934
  0
LINE
  8
_0-5_寸法線
  6
CONTINUOUS
 62
    7
 10
1431.4545169335327
 20
623.0706152799944
 11
1427.3134122118925
 21
607.61580205936934
  0
LINE
  8
_0-5_寸法線
  6
CONTINUOUS
 62
    7
 10
1431.4545169335327
 20
595.5706152799944
 11
1431.4545169335327
 21
623.0706152799944
  0
TEXT
  8
_0-5_寸法線
 62
    7
 10
1431.4545169335327
 20
597.3206152799944
 40
24
 41
1
 50
90
  1
28
  0
LINE
  8
_0-5_寸法線
  6
CONTINUOUS
 62
    7
 10
1367.4545169335327
 20
623.07061527999463
 11
1439.4545169335327
 21
623.0706152799944
  0
LINE
  8
_0-5_寸法線
  6
CONTINUOUS
 62
    7
 10
1431.4545169335327
 20
623.0706152799944
 11
1427.3134122118925
 21
638.52542850061946
  0
LINE
  8
_0-5_寸法線
  6
CONTINUOUS
 62
    7
 10
1431.4545169335327
 20
623.0706152799944
 11
1435.5956216551731
 21
638.52542850061946
  0
LINE
  8
_0-5_寸法線
  6
CONTINUOUS
 62
    7
 10
1349.4545169335313
 20
710.99999999999989
 11
1439.4545169335327
 21
710.99999999999955
  0
LINE
  8
_0-5_寸法線
  6
CONTINUOUS
 62
    7
 10
1431.4545169335327
 20
710.99999999999955
 11
1435.5956216551731
 21
695.54518677937449
  0
LINE
  8
_0-5_寸法線
  6
CONTINUOUS
 62
    7
 10
1431.4545169335327
 20
710.99999999999955
 11
1427.3134122118925
 21
695.54518677937449
  0
LINE
  8
_0-5_寸法線
  6
CONTINUOUS
 62
    7
 10
1431.4545169335327
 20
623.0706152799944
 11
1431.4545169335327
 21
710.99999999999955
  0
TEXT
  8
_0-5_寸法線
 62
    7
 10
1431.4545169335327
 20
655.03530763999697
 40
24
 41
1
 50
90
  1
89
  0
LINE
  8
_0-5_寸法線
  6
CONTINUOUS
 62
    7
 10
1264.4545169335313
 20
577.99998327999606
 11
1264.4545169335313
 21
505.99998327999606
  0
LINE
  8
_0-5_寸法線
  6
CONTINUOUS
 62
    7
 10
1264.4545169335313
 20
513.99998327999606
 11
1279.9093301541564
 21
518.14108800163638
  0
LINE
  8
_0-5_寸法線
  6
CONTINUOUS
 62
    7
 10
1264.4545169335313
 20
513.99998327999606
 11
1279.9093301541564
 21
509.85887855835574
  0
LINE
  8
_0-5_寸法線
  6
CONTINUOUS
 62
    7
 10
1313.9239009335313
 20
577.99998327999606
 11
1313.9239009335313
 21
505.99998327999606
  0
LINE
  8
_0-5_寸法線
  6
CONTINUOUS
 62
    7
 10
1313.9239009335313
 20
513.99998327999606
 11
1298.4690877129062
 21
509.8588785583558
  0
LINE
  8
_0-5_寸法線
  6
CONTINUOUS
 62
    7
 10
1313.9239009335313
 20
513.99998327999606
 11
1298.4690877129062
 21
518.14108800163649
  0
LINE
  8
_0-5_寸法線
  6
CONTINUOUS
 62
    7
 10
1264.4545169335313
 20
513.99998327999606
 11
1313.9239009335313
 21
513.99998327999606
  0
TEXT
  8
_0-5_寸法線
 62
    7
 10
1277.1892089335313
 20
513.99998327999583
 40
24
 41
1
 50
0
  1
51
  0
LINE
  8
_0-5_寸法線
  6
CONTINUOUS
 62
    7
 10
1313.9239009335313
 20
513.99998327999606
 11
1329.3787141541563
 21
518.14108800163626
  0
LINE
  8
_0-5_寸法線
  6
CONTINUOUS
 62
    7
 10
1313.9239009335313
 20
513.99998327999606
 11
1329.3787141541563
 21
509.85887855835563
  0
LINE
  8
_0-5_寸法線
  6
CONTINUOUS
 62
    7
 10
1351.4545169335327
 20
579.57061527999463
 11
1351.4545169335324
 21
505.99998327999606
  0
LINE
  8
_0-5_寸法線
  6
CONTINUOUS
 62
    7
 10
1351.4545169335324
 20
513.99998327999606
 11
1335.9997037129074
 21
509.8588785583558
  0
LINE
  8
_0-5_寸法線
  6
CONTINUOUS
 62
    7
 10
1351.4545169335324
 20
513.99998327999606
 11
1335.9997037129074
 21
518.14108800163649
  0
LINE
  8
_0-5_寸法線
  6
CONTINUOUS
 62
    7
 10
1313.9239009335313
 20
513.99998327999606
 11
1351.4545169335324
 21
513.99998327999606
  0
TEXT
  8
_0-5_寸法線
 62
    7
 10
1320.689208933532
 20
513.99998327999583
 40
24
 41
1
 50
0
  1
36
  0
LINE
  8
_0-5_寸法線
  6
CONTINUOUS
 62
    7
 10
1264.4545169335311
 20
577.99998327999606
 11
1264.4545169335297
 21
449.99998327999606
  0
LINE
  8
_0-5_寸法線
  6
CONTINUOUS
 62
    7
 10
1264.4545169335297
 20
457.99998327999606
 11
1279.9093301541548
 21
462.14108800163638
  0
LINE
  8
_0-5_寸法線
  6
CONTINUOUS
 62
    7
 10
1264.4545169335297
 20
457.99998327999606
 11
1279.9093301541548
 21
453.85887855835574
  0
LINE
  8
_0-5_寸法線
  6
CONTINUOUS
 62
    7
 10
1351.4545169335324
 20
579.57061527999463
 11
1351.4545169335308
 21
449.99998327999606
  0
LINE
  8
_0-5_寸法線
  6
CONTINUOUS
 62
    7
 10
1351.4545169335308
 20
457.99998327999606
 11
1335.9997037129058
 21
453.8588785583558
  0
LINE
  8
_0-5_寸法線
  6
CONTINUOUS
 62
    7
 10
1351.4545169335308
 20
457.99998327999606
 11
1335.9997037129058
 21
462.14108800163643
  0
LINE
  8
_0-5_寸法線
  6
CONTINUOUS
 62
    7
 10
1264.4545169335297
 20
457.99998327999606
 11
1351.4545169335308
 21
457.99998327999606
  0
TEXT
  8
_0-5_寸法線
 62
    7
 10
1295.9545169335302
 20
457.99998327999606
 40
24
 41
1
 50
0
  1
87
  0
LINE
  8
_0-0_計極細
  6
CENTER1
 62
    2
 10
1264.4545169335313
 20
1184.0933182138194
 11
1264.4545169335313
 21
587.94199309070461
  0
LINE
  8
_0-7_枠細線
  6
CONTINUOUS
 62
    5
 10
428.15116214018644
 20
696.8488863101577
 11
416.15116214018644
 21
720.8488863101577
  0
LINE
  8
_0-7_枠細線
  6
CONTINUOUS
 62
    5
 10
404.15116214018644
 20
696.8488863101577
 11
428.15116214018644
 21
696.8488863101577
  0
LINE
  8
_0-7_枠細線
  6
CONTINUOUS
 62
    5
 10
416.15116214018644
 20
720.8488863101577
 11
404.15116214018644
 21
696.8488863101577
  0
TEXT
  8
_0-7_枠細線
 62
    5
 10
407.93540416922406
 20
696.35768271754921
 40
20
 41
0.8
 50
0
  1
１
  0
LINE
  8
_0-1_計細線
  6
CONTINUOUS
 62
    3
 10
1264.4545169335313
 20
790.99999999999989
 11
1330.9545169335313
 21
790.99999999999989
  0
LINE
  8
_0-1_計細線
  6
CONTINUOUS
 62
    3
 10
1264.4545169335313
 20
807.10000000000002
 11
1330.9545169335313
 21
807.10000000000002
  0
LINE
  8
_0-1_計細線
  6
CONTINUOUS
 62
    3
 10
1330.9545169335313
 20
810.99999999999989
 11
1330.9545169335313
 21
790.99999999999989
  0
LINE
  8
_0-0_計極細
  6
CONTINUOUS
 62
    2
 10
1264.4545169335313
 20
809.89999999999998
 11
1330.9545169335313
 21
809.89999999999998
  0
LINE
  8
_0-5_寸法線
  6
CONTINUOUS
 62
    7
 10
1229.8248418126439
 20
652.93645783891338
 11
1223.2630508951522
 21
629.85090174955042
  0
LINE
  8
_0-5_寸法線
  6
CONTINUOUS
 62
    7
 10
1229.8248418126439
 20
652.93645783891338
 11
1212.5993861390925
 21
636.22467526378034
  0
LINE
  8
_0-5_寸法線
  6
CONTINUOUS
 62
    7
 10
1229.8248418126439
 20
652.93645783891338
 11
1182.5489497325741
 21
573.84135616013509
  0
LINE
  8
_0-5_寸法線
  6
CONTINUOUS
 62
    7
 10
1182.5489497325741
 20
573.84135616013509
 11
971.34894973257417
 21
573.84135616013577
  0
TEXT
  8
_0-5_寸法線
 62
    7
 10
971.34894973257417
 20
573.84135616013509
 40
24
 41
0.7999999999999998
 50
0
  1
横引き排水トラップ一式
  0
LINE
  8
_0-b_細線3
  6
CONTINUOUS
 62
    7
 10
480.55338654962668
 20
179.21920209769632
 11
800.55338654962634
 21
179.21920209769632
  0
LINE
  8
_0-b_細線3
  6
CONTINUOUS
 62
    7
 10
803.22005321629308
 20
176.55253543102958
 11
477.88671988295994
 21
176.55253543102958
  0
LINE
  8
_0-b_細線3
  6
CONTINUOUS
 62
    7
 10
448.55338654962668
 20
421.88586876436312
 11
448.55338654962668
 21
443.21920209769632
  0
LINE
  8
_0-b_細線3
  6
CONTINUOUS
 62
    7
 10
448.55338654962668
 20
443.21920209769632
 11
480.55338654962668
 21
443.21920209769632
  0
LINE
  8
_0-b_細線3
  6
CONTINUOUS
 62
    7
 10
800.55338654962634
 20
443.21920209769632
 11
832.55338654962645
 21
443.21920209769632
  0
LINE
  8
_0-b_細線3
  6
CONTINUOUS
 62
    7
 10
832.55338654962645
 20
443.21920209769632
 11
832.55338654962645
 21
421.88586876436312
  0
LINE
  8
_0-b_細線3
  6
CONTINUOUS
 62
    7
 10
832.55338654962645
 20
421.88586876436312
 11
829.88671988295982
 21
421.88586876436312
  0
LINE
  8
_0-b_細線3
  6
CONTINUOUS
 62
    7
 10
829.88671988295982
 20
421.88586876436312
 11
829.88671988295982
 21
440.55253543102958
  0
LINE
  8
_0-b_細線3
  6
CONTINUOUS
 62
    7
 10
829.88671988295982
 20
440.55253543102958
 11
803.22005321629308
 21
440.55253543102958
  0
LINE
  8
_0-b_細線3
  6
CONTINUOUS
 62
    7
 10
477.88671988295994
 20
440.55253543102958
 11
451.22005321629319
 21
440.55253543102958
  0
LINE
  8
_0-b_細線3
  6
CONTINUOUS
 62
    7
 10
451.22005321629319
 20
440.55253543102958
 11
451.22005321629319
 21
421.88586876436312
  0
LINE
  8
_0-b_細線3
  6
CONTINUOUS
 62
    7
 10
451.22005321629319
 20
421.88586876436312
 11
448.55338654962668
 21
421.88586876436312
  0
LINE
  8
_0-b_細線3
  6
CONTINUOUS
 62
    7
 10
480.55338654962668
 20
443.21920209769632
 11
480.55338654962668
 21
179.21920209769632
  0
LINE
  8
_0-b_細線3
  6
CONTINUOUS
 62
    7
 10
800.55338654962634
 20
179.21920209769632
 11
800.55338654962634
 21
443.21920209769632
  0
LINE
  8
_0-b_細線3
  6
CONTINUOUS
 62
    7
 10
803.22005321629308
 20
440.55253543102958
 11
803.22005321629308
 21
176.55253543102958
  0
LINE
  8
_0-b_細線3
  6
CONTINUOUS
 62
    7
 10
477.88671988295994
 20
176.55253543102958
 11
477.88671988295994
 21
440.55253543102958
  0
ARC
  8
_0-b_細線3
  6
CONTINUOUS
 62
    7
 10
720.82005322114856
 20
435.21920209769564
 40
2.6666666666666674
 50
89.999999999999915
 51
179.99999999999983
  0
ARC
  8
_0-b_細線3
  6
CONTINUOUS
 62
    7
 10
722.06791773135592
 20
440.55253543102958
 40
2.6666666666666674
 50
269.99999999999977
 51
329.99999999997846
  0
ARC
  8
_0-b_細線3
  6
CONTINUOUS
 62
    7
 10
726.68671988487222
 20
437.88586876436312
 40
2.6666666666666674
 50
89.999999999999915
 51
150.00000000001745
  0
LINE
  8
_0-b_細線3
  6
CONTINUOUS
 62
    7
 10
720.82005322114856
 20
437.88586876436312
 11
722.06791773135592
 21
437.88586876436312
  0
ARC
  8
_0-b_細線3
  6
CONTINUOUS
 62
    7
 10
745.88671988192982
 20
435.21920209769632
 40
2.6666666666666674
 50
0
 51
89.999999999999915
  0
ARC
  8
_0-b_細線3
  6
CONTINUOUS
 62
    7
 10
744.63885537172246
 20
440.55253543102958
 40
2.6666666666666674
 50
210.00000000000202
 51
269.99999999999977
  0
ARC
  8
_0-b_細線3
  6
CONTINUOUS
 62
    7
 10
740.02005321820616
 20
437.88586876436312
 40
2.6666666666666674
 50
30.000000000001332
 51
89.999999999999929
  0
LINE
  8
_0-b_細線3
  6
CONTINUOUS
 62
    7
 10
745.88671988192982
 20
437.88586876436312
 11
744.63885537172246
 21
437.88586876436312
  0
ARC
  8
_0-b_細線3
  6
CONTINUOUS
 62
    7
 10
719.48671988781587
 20
431.48586876436275
 40
1.3333333333333337
 50
179.99999999999983
 51
269.99999999999977
  0
LINE
  8
_0-b_細線3
  6
CONTINUOUS
 62
    7
 10
718.15338655448249
 20
435.21920209769564
 11
718.15338655448249
 21
431.48586876436275
  0
ARC
  8
_0-b_細線3
  6
CONTINUOUS
 62
    7
 10
747.2200532152624
 20
431.48586876436349
 40
1.3333333333333337
 50
269.99999999999977
 51
359.99999999999966
  0
LINE
  8
_0-b_細線3
  6
CONTINUOUS
 62
    7
 10
748.55338654859588
 20
435.21920209769632
 11
748.55338654859588
 21
431.48586876436349
  0
ARC
  8
_0-b_細線3
  6
CONTINUOUS
 62
    7
 10
726.15338655448249
 20
427.48586876436275
 40
2.6666666666666674
 50
0
 51
89.999999999999915
  0
LINE
  8
_0-b_細線3
  6
CONTINUOUS
 62
    7
 10
726.15338655448249
 20
430.15253543102955
 11
719.48671988781587
 21
430.15253543102955
  0
ARC
  8
_0-b_細線3
  6
CONTINUOUS
 62
    7
 10
740.55338655448213
 20
427.48586876436349
 40
2.6666666666666674
 50
89.999999999999915
 51
179.99999999999983
  0
LINE
  8
_0-b_細線3
  6
CONTINUOUS
 62
    7
 10
740.55338654859588
 20
430.15253543102955
 11
747.2200532152624
 21
430.15253543102955
  0
LINE
  8
_0-b_細線3
  6
CONTINUOUS
 62
    7
 10
740.02005321820616
 20
440.55253543102958
 11
726.68671988487222
 21
440.55253543102958
  0
LINE
  8
_0-b_細線3
  6
CONTINUOUS
 62
    7
 10
728.82005321820543
 20
387.21920209769564
 11
728.82005322114856
 21
427.48586876436275
  0
LINE
  8
_0-b_細線3
  6
CONTINUOUS
 62
    7
 10
737.88671988487295
 20
387.2192020976961
 11
737.88671988781607
 21
427.48586876436349
  0
LINE
  8
_0-b_細線3
  6
CONTINUOUS
 62
    7
 10
737.88671988487295
 20
387.2192020976961
 11
728.82005321820543
 21
387.21920209769564
  0
ARC
  8
_0-b_細線3
  6
CONTINUOUS
 62
    7
 10
674.42005322016723
 20
435.21920209769564
 40
2.6666666666666674
 50
89.999999999999915
 51
179.99999999998533
  0
ARC
  8
_0-b_細線3
  6
CONTINUOUS
 62
    7
 10
675.66791773037414
 20
440.55253543102958
 40
2.6666666666666674
 50
269.99999999999977
 51
329.99999999998454
  0
ARC
  8
_0-b_細線3
  6
CONTINUOUS
 62
    7
 10
680.28671988389044
 20
437.88586876436312
 40
2.6666666666666674
 50
89.999999999999915
 51
150.00000000001137
  0
LINE
  8
_0-b_細線3
  6
CONTINUOUS
 62
    7
 10
674.42005322016723
 20
437.88586876436312
 11
675.66791773037414
 21
437.88586876436312
  0
ARC
  8
_0-b_細線3
  6
CONTINUOUS
 62
    7
 10
699.48671988094804
 20
435.21920209769632
 40
2.6666666666666674
 50
359.99999999998499
 51
89.999999999999545
  0
ARC
  8
_0-b_細線3
  6
CONTINUOUS
 62
    7
 10
698.23885537074113
 20
440.55253543102958
 40
2.6666666666666674
 50
209.99999999999713
 51
269.99999999999977
  0
ARC
  8
_0-b_細線3
  6
CONTINUOUS
 62
    7
 10
693.62005321722484
 20
437.88586876436312
 40
2.6666666666666674
 50
30.000000000006217
 51
89.999999999999929
  0
LINE
  8
_0-b_細線3
  6
CONTINUOUS
 62
    7
 10
699.48671988094804
 20
437.88586876436312
 11
698.23885537074113
 21
437.88586876436312
  0
ARC
  8
_0-b_細線3
  6
CONTINUOUS
 62
    7
 10
673.08671988683466
 20
431.48586876436349
 40
1.3333333333333337
 50
179.99999999999983
 51
269.99999999999977
  0
LINE
  8
_0-b_細線3
  6
CONTINUOUS
 62
    7
 10
671.75338655350072
 20
435.21920209769632
 11
671.75338655350072
 21
431.48586876436349
  0
ARC
  8
_0-b_細線3
  6
CONTINUOUS
 62
    7
 10
700.82005321428142
 20
431.48586876436275
 40
1.3333333333333337
 50
269.99999999999977
 51
359.99999999999966
  0
LINE
  8
_0-b_細線3
  6
CONTINUOUS
 62
    7
 10
702.15338654761456
 20
435.21920209769564
 11
702.15338654761456
 21
431.48586876436275
  0
ARC
  8
_0-b_細線3
  6
CONTINUOUS
 62
    7
 10
679.75338655350072
 20
427.48586876436275
 40
2.6666666666666674
 50
0
 51
89.999999999999915
  0
LINE
  8
_0-b_細線3
  6
CONTINUOUS
 62
    7
 10
679.75338655350072
 20
430.15253543102955
 11
673.08671988683466
 21
430.15253543102955
  0
ARC
  8
_0-b_細線3
  6
CONTINUOUS
 62
    7
 10
694.15338655350081
 20
427.48586876436349
 40
2.6666666666666674
 50
89.999999999999915
 51
179.99999999999983
  0
LINE
  8
_0-b_細線3
  6
CONTINUOUS
 62
    7
 10
694.15338654761456
 20
430.15253543102955
 11
700.82005321428142
 21
430.15253543102955
  0
LINE
  8
_0-b_細線3
  6
CONTINUOUS
 62
    7
 10
693.62005321722484
 20
440.55253543102958
 11
680.28671988389044
 21
440.55253543102958
  0
LINE
  8
_0-b_細線3
  6
CONTINUOUS
 62
    7
 10
682.42005321722411
 20
387.21920209769564
 11
682.42005322016723
 21
427.48586876436275
  0
LINE
  8
_0-b_細線3
  6
CONTINUOUS
 62
    7
 10
691.48671988389117
 20
387.2192020976961
 11
691.48671988683429
 21
427.48586876436349
  0
LINE
  8
_0-b_細線3
  6
CONTINUOUS
 62
    7
 10
691.48671988389117
 20
387.2192020976961
 11
682.42005321722411
 21
387.21920209769564
  0
ARC
  8
_0-b_細線3
  6
CONTINUOUS
 62
    7
 10
628.02005321923582
 20
435.21920209769564
 40
2.6666666666666674
 50
89.999999999999915
 51
179.99999999999983
  0
ARC
  8
_0-b_細線3
  6
CONTINUOUS
 62
    7
 10
629.26791772944262
 20
440.55253543102958
 40
2.6666666666666674
 50
269.99999999999977
 51
329.99999999999068
  0
ARC
  8
_0-b_細線3
  6
CONTINUOUS
 62
    7
 10
633.88671988295891
 20
437.88586876436312
 40
2.6666666666666674
 50
89.999999999999915
 51
150.00000000000526
  0
LINE
  8
_0-b_細線3
  6
CONTINUOUS
 62
    7
 10
628.02005321923582
 20
437.88586876436312
 11
629.26791772944262
 21
437.88586876436312
  0
ARC
  8
_0-b_細線3
  6
CONTINUOUS
 62
    7
 10
653.08671988001652
 20
435.21920209769632
 40
2.6666666666666674
 50
0
 51
89.999999999999915
  0
ARC
  8
_0-b_細線3
  6
CONTINUOUS
 62
    7
 10
651.83885536981097
 20
440.55253543102958
 40
2.6666666666666674
 50
209.99999999998249
 51
269.99999999999977
  0
ARC
  8
_0-b_細線3
  6
CONTINUOUS
 62
    7
 10
647.22005321629342
 20
437.88586876436312
 40
2.6666666666666674
 50
30.000000000007439
 51
89.999999999999929
  0
LINE
  8
_0-b_細線3
  6
CONTINUOUS
 62
    7
 10
653.08671988001652
 20
437.88586876436312
 11
651.83885536981097
 21
437.88586876436312
  0
ARC
  8
_0-b_細線3
  6
CONTINUOUS
 62
    7
 10
626.6867198859037
 20
431.48586876436275
 40
1.3333333333333337
 50
179.99999999999983
 51
269.99999999999977
  0
LINE
  8
_0-b_細線3
  6
CONTINUOUS
 62
    7
 10
625.35338655256919
 20
435.21920209769564
 11
625.35338655256919
 21
431.48586876436275
  0
ARC
  8
_0-b_細線3
  6
CONTINUOUS
 62
    7
 10
654.42005321334966
 20
431.48586876436349
 40
1.3333333333333337
 50
269.99999999999977
 51
359.99999999999966
  0
LINE
  8
_0-b_細線3
  6
CONTINUOUS
 62
    7
 10
655.7533865466844
 20
435.21920209769632
 11
655.7533865466844
 21
431.48586876436349
  0
ARC
  8
_0-b_細線3
  6
CONTINUOUS
 62
    7
 10
633.35338655256919
 20
427.48586876436275
 40
2.6666666666666674
 50
0
 51
89.999999999999915
  0
LINE
  8
_0-b_細線3
  6
CONTINUOUS
 62
    7
 10
633.35338655256919
 20
430.15253543102955
 11
626.6867198859037
 21
430.15253543102955
  0
ARC
  8
_0-b_細線3
  6
CONTINUOUS
 62
    7
 10
647.7533865525694
 20
427.48586876436349
 40
2.6666666666666674
 50
89.999999999999915
 51
179.99999999999983
  0
LINE
  8
_0-b_細線3
  6
CONTINUOUS
 62
    7
 10
647.75338654668315
 20
430.15253543102955
 11
654.42005321334966
 21
430.15253543102955
  0
LINE
  8
_0-b_細線3
  6
CONTINUOUS
 62
    7
 10
647.22005321629342
 20
440.55253543102958
 11
633.88671988295891
 21
440.55253543102958
  0
LINE
  8
_0-b_細線3
  6
CONTINUOUS
 62
    7
 10
636.02005321629395
 20
387.21920209769564
 11
636.02005321923582
 21
427.48586876436275
  0
LINE
  8
_0-b_細線3
  6
CONTINUOUS
 62
    7
 10
645.08671988295964
 20
387.2192020976961
 11
645.08671988590277
 21
427.48586876436349
  0
LINE
  8
_0-b_細線3
  6
CONTINUOUS
 62
    7
 10
645.08671988295964
 20
387.2192020976961
 11
636.02005321629395
 21
387.21920209769564
  0
ARC
  8
_0-b_細線3
  6
CONTINUOUS
 62
    7
 10
535.22005322083658
 20
435.21920209769564
 40
2.6666666666666674
 50
89.999999999999915
 51
179.99999999999983
  0
ARC
  8
_0-b_細線3
  6
CONTINUOUS
 62
    7
 10
536.4679177310428
 20
440.55253543102958
 40
2.6666666666666674
 50
269.99999999999977
 51
329.99999999999676
  0
ARC
  8
_0-b_細線3
  6
CONTINUOUS
 62
    7
 10
541.08671988455956
 20
437.88586876436312
 40
2.6666666666666674
 50
89.999999999999915
 51
150.00000000000404
  0
LINE
  8
_0-b_細線3
  6
CONTINUOUS
 62
    7
 10
535.22005322083658
 20
437.88586876436312
 11
536.4679177310428
 21
437.88586876436312
  0
ARC
  8
_0-b_細線3
  6
CONTINUOUS
 62
    7
 10
560.28671988161716
 20
435.21920209769632
 40
2.6666666666666674
 50
0
 51
89.999999999999915
  0
ARC
  8
_0-b_細線3
  6
CONTINUOUS
 62
    7
 10
559.03885537141116
 20
440.55253543102958
 40
2.6666666666666674
 50
209.99999999998738
 51
269.99999999999977
  0
ARC
  8
_0-b_細線3
  6
CONTINUOUS
 62
    7
 10
554.4200532178935
 20
437.88586876436312
 40
2.6666666666666674
 50
30.000000000001332
 51
89.999999999985349
  0
LINE
  8
_0-b_細線3
  6
CONTINUOUS
 62
    7
 10
560.28671988161716
 20
437.88586876436312
 11
559.03885537141116
 21
437.88586876436312
  0
ARC
  8
_0-b_細線3
  6
CONTINUOUS
 62
    7
 10
533.88671988750377
 20
431.48586876436275
 40
1.3333333333333337
 50
179.99999999999983
 51
269.99999999999977
  0
LINE
  8
_0-b_細線3
  6
CONTINUOUS
 62
    7
 10
532.55338655416938
 20
435.21920209769564
 11
532.55338655416938
 21
431.48586876436275
  0
ARC
  8
_0-b_細線3
  6
CONTINUOUS
 62
    7
 10
561.62005321495064
 20
431.48586876436349
 40
1.3333333333333337
 50
269.99999999999977
 51
359.99999999999966
  0
LINE
  8
_0-b_細線3
  6
CONTINUOUS
 62
    7
 10
562.95338654828458
 20
435.21920209769632
 11
562.95338654828458
 21
431.48586876436349
  0
ARC
  8
_0-b_細線3
  6
CONTINUOUS
 62
    7
 10
540.55338655416938
 20
427.48586876436275
 40
2.6666666666666674
 50
0
 51
89.999999999999915
  0
LINE
  8
_0-b_細線3
  6
CONTINUOUS
 62
    7
 10
540.55338655416938
 20
430.15253543102955
 11
533.88671988750377
 21
430.15253543102955
  0
ARC
  8
_0-b_細線3
  6
CONTINUOUS
 62
    7
 10
554.95338655417015
 20
427.48586876436349
 40
2.6666666666666674
 50
89.999999999999915
 51
179.99999999999983
  0
LINE
  8
_0-b_細線3
  6
CONTINUOUS
 62
    7
 10
554.9533865482839
 20
430.15253543102955
 11
561.62005321495064
 21
430.15253543102955
  0
LINE
  8
_0-b_細線3
  6
CONTINUOUS
 62
    7
 10
554.4200532178935
 20
440.55253543102958
 11
541.08671988455956
 21
440.55253543102958
  0
LINE
  8
_0-b_細線3
  6
CONTINUOUS
 62
    7
 10
543.22005321789413
 20
387.21920209769564
 11
543.22005322083658
 21
427.48586876436275
  0
LINE
  8
_0-b_細線3
  6
CONTINUOUS
 62
    7
 10
552.28671988455983
 20
387.2192020976961
 11
552.28671988750341
 21
427.48586876436349
  0
LINE
  8
_0-b_細線3
  6
CONTINUOUS
 62
    7
 10
552.28671988455983
 20
387.2192020976961
 11
543.22005321789413
 21
387.21920209769564
  0
ARC
  8
_0-b_細線3
  6
CONTINUOUS
 62
    7
 10
581.62005321993399
 20
435.21920209769564
 40
2.6666666666666674
 50
89.999999999999915
 51
179.99999999998533
  0
ARC
  8
_0-b_細線3
  6
CONTINUOUS
 62
    7
 10
582.86791773014068
 20
440.55253543102958
 40
2.6666666666666674
 50
269.99999999999977
 51
329.99999999999187
  0
ARC
  8
_0-b_細線3
  6
CONTINUOUS
 62
    7
 10
587.48671988365697
 20
437.88586876436312
 40
2.6666666666666674
 50
89.999999999999915
 51
150.00000000000404
  0
LINE
  8
_0-b_細線3
  6
CONTINUOUS
 62
    7
 10
581.62005321993399
 20
437.88586876436312
 11
582.86791773014068
 21
437.88586876436312
  0
ARC
  8
_0-b_細線3
  6
CONTINUOUS
 62
    7
 10
606.68671988071458
 20
435.21920209769632
 40
2.6666666666666674
 50
359.99999999998499
 51
89.999999999999545
  0
ARC
  8
_0-b_細線3
  6
CONTINUOUS
 62
    7
 10
605.43885537050903
 20
440.55253543102958
 40
2.6666666666666674
 50
209.99999999998249
 51
269.99999999999977
  0
ARC
  8
_0-b_細線3
  6
CONTINUOUS
 62
    7
 10
600.8200532169916
 20
437.88586876436312
 40
2.6666666666666674
 50
30.000000000008662
 51
89.999999999999929
  0
LINE
  8
_0-b_細線3
  6
CONTINUOUS
 62
    7
 10
606.68671988071458
 20
437.88586876436312
 11
605.43885537050903
 21
437.88586876436312
  0
ARC
  8
_0-b_細線3
  6
CONTINUOUS
 62
    7
 10
580.28671988660187
 20
431.48586876436349
 40
1.3333333333333337
 50
179.99999999999983
 51
269.99999999999977
  0
LINE
  8
_0-b_細線3
  6
CONTINUOUS
 62
    7
 10
578.95338655326725
 20
435.21920209769632
 11
578.95338655326725
 21
431.48586876436349
  0
ARC
  8
_0-b_細線3
  6
CONTINUOUS
 62
    7
 10
608.02005321404806
 20
431.48586876436275
 40
1.3333333333333337
 50
269.99999999999977
 51
359.99999999999966
  0
LINE
  8
_0-b_細線3
  6
CONTINUOUS
 62
    7
 10
609.35338654738246
 20
435.21920209769564
 11
609.35338654738246
 21
431.48586876436275
  0
ARC
  8
_0-b_細線3
  6
CONTINUOUS
 62
    7
 10
586.95338655326725
 20
427.48586876436275
 40
2.6666666666666674
 50
0
 51
89.999999999999915
  0
LINE
  8
_0-b_細線3
  6
CONTINUOUS
 62
    7
 10
586.95338655326725
 20
430.15253543102955
 11
580.28671988660187
 21
430.15253543102955
  0
ARC
  8
_0-b_細線3
  6
CONTINUOUS
 62
    7
 10
601.35338655326757
 20
427.48586876436349
 40
2.6666666666666674
 50
89.999999999999915
 51
179.99999999999983
  0
LINE
  8
_0-b_細線3
  6
CONTINUOUS
 62
    7
 10
601.35338654738132
 20
430.15253543102955
 11
608.02005321404806
 21
430.15253543102955
  0
LINE
  8
_0-b_細線3
  6
CONTINUOUS
 62
    7
 10
600.8200532169916
 20
440.55253543102958
 11
587.48671988365697
 21
440.55253543102958
  0
LINE
  8
_0-b_細線3
  6
CONTINUOUS
 62
    7
 10
589.62005321699201
 20
387.21920209769564
 11
589.62005321993399
 21
427.48586876436275
  0
LINE
  8
_0-b_細線3
  6
CONTINUOUS
 62
    7
 10
598.6867198836577
 20
387.2192020976961
 11
598.68671988660083
 21
427.48586876436349
  0
LINE
  8
_0-b_細線3
  6
CONTINUOUS
 62
    7
 10
598.6867198836577
 20
387.2192020976961
 11
589.62005321699201
 21
387.21920209769564
  0
ARC
  8
_0-b_細線3
  6
CONTINUOUS
 62
    7
 10
767.4867198883876
 20
435.21920209769632
 40
2.6666666666666674
 50
89.999999999999915
 51
179.99999999999983
  0
ARC
  8
_0-b_細線3
  6
CONTINUOUS
 62
    7
 10
768.73458439859292
 20
440.55253543102958
 40
2.6666666666666674
 50
269.99999999999977
 51
329.99999999999187
  0
ARC
  8
_0-b_細線3
  6
CONTINUOUS
 62
    7
 10
773.35338655211069
 20
437.88586876436312
 40
2.6666666666666674
 50
89.999999999999915
 51
150.0000000000199
  0
LINE
  8
_0-b_細線3
  6
CONTINUOUS
 62
    7
 10
767.4867198883876
 20
437.88586876436312
 11
768.73458439859292
 21
437.88586876436312
  0
ARC
  8
_0-b_細線3
  6
CONTINUOUS
 62
    7
 10
792.55338654916829
 20
435.21920209769632
 40
2.6666666666666674
 50
359.99999999998499
 51
89.999999999999545
  0
ARC
  8
_0-b_細線3
  6
CONTINUOUS
 62
    7
 10
791.30552203896127
 20
440.55253543102958
 40
2.6666666666666674
 50
209.99999999999835
 51
269.99999999999977
  0
ARC
  8
_0-b_細線3
  6
CONTINUOUS
 62
    7
 10
786.68671988544384
 20
437.88586876436312
 40
2.6666666666666674
 50
29.999999999992784
 51
89.999999999975572
  0
LINE
  8
_0-b_細線3
  6
CONTINUOUS
 62
    7
 10
792.55338654916829
 20
437.88586876436312
 11
791.30552203896127
 21
437.88586876436312
  0
ARC
  8
_0-b_細線3
  6
CONTINUOUS
 62
    7
 10
766.15338655505411
 20
431.48586876436349
 40
1.3333333333333337
 50
179.99999999999983
 51
269.99999999999977
  0
LINE
  8
_0-b_細線3
  6
CONTINUOUS
 62
    7
 10
764.82005322171972
 20
435.21920209769632
 11
764.82005322171972
 21
431.48586876436349
  0
ARC
  8
_0-b_細線3
  6
CONTINUOUS
 62
    7
 10
793.88671988250144
 20
431.48586876436349
 40
1.3333333333333337
 50
269.99999999999977
 51
359.99999999996788
  0
LINE
  8
_0-b_細線3
  6
CONTINUOUS
 62
    7
 10
795.2200532158347
 20
435.21920209769564
 11
795.2200532158347
 21
431.48586876436275
  0
ARC
  8
_0-b_細線3
  6
CONTINUOUS
 62
    7
 10
772.82005322171949
 20
427.48586876436275
 40
2.6666666666666674
 50
0
 51
89.999999999999915
  0
LINE
  8
_0-b_細線3
  6
CONTINUOUS
 62
    7
 10
772.82005322171949
 20
430.15253543102955
 11
766.15338655505411
 21
430.15253543102955
  0
ARC
  8
_0-b_細線3
  6
CONTINUOUS
 62
    7
 10
787.22005322171981
 20
427.48586876436349
 40
2.6666666666666674
 50
89.999999999999915
 51
179.99999999999983
  0
LINE
  8
_0-b_細線3
  6
CONTINUOUS
 62
    7
 10
787.22005321583356
 20
430.15253543102955
 11
793.88671988250144
 21
430.15253543102955
  0
LINE
  8
_0-b_細線3
  6
CONTINUOUS
 62
    7
 10
786.68671988544384
 20
440.55253543102958
 11
773.35338655211069
 21
440.55253543102958
  0
LINE
  8
_0-b_細線3
  6
CONTINUOUS
 62
    7
 10
775.48671988544424
 20
387.21920209769564
 11
775.48671988838737
 21
427.48586876436275
  0
LINE
  8
_0-b_細線3
  6
CONTINUOUS
 62
    7
 10
784.55338655210994
 20
387.2192020976961
 11
784.55338655505454
 21
427.48586876436349
  0
LINE
  8
_0-b_細線3
  6
CONTINUOUS
 62
    7
 10
784.55338655210994
 20
387.2192020976961
 11
775.48671988544424
 21
387.21920209769564
  0
LINE
  8
_0-a_極細3
  6
CENTER1
 62
    7
 10
640.55338654962679
 20
361.3218749209766
 11
640.55338654962679
 21
462.84187492098664
  0
LINE
  8
_0-b_細線3
  6
CONTINUOUS
 62
    7
 10
513.62005321243453
 20
381.88586876436261
 11
504.55338654576747
 21
381.88586876436261
  0
LINE
  8
_0-b_細線3
  6
CONTINUOUS
 62
    7
 10
532.553386549626
 20
381.88586876436261
 11
524.28671988006624
 21
381.88586876436261
  0
LINE
  8
_0-b_細線3
  6
CONTINUOUS
 62
    7
 10
748.55338654962725
 20
381.88586876436261
 11
756.82005321918712
 21
381.88586876436261
  0
LINE
  8
_0-b_細線3
  6
CONTINUOUS
 62
    7
 10
533.88671988295971
 20
385.88586876436239
 11
532.553386549626
 21
387.2192020976961
  0
LINE
  8
_0-b_細線3
  6
CONTINUOUS
 62
    7
 10
533.88671988295971
 20
383.21920209769542
 11
533.88671988295971
 21
385.88586876436239
  0
LINE
  8
_0-b_細線3
  6
CONTINUOUS
 62
    7
 10
532.553386549626
 20
381.88586876436261
 11
533.88671988295971
 21
383.21920209769542
  0
LINE
  8
_0-b_細線3
  6
CONTINUOUS
 62
    7
 10
485.88671988295994
 20
381.88586876436261
 11
532.553386549626
 21
381.88586876436261
  0
LINE
  8
_0-b_細線3
  6
CONTINUOUS
 62
    7
 10
481.88671988295948
 20
333.88586876436216
 11
480.55338654962668
 21
335.21920209769564
  0
LINE
  8
_0-b_細線3
  6
CONTINUOUS
 62
    7
 10
484.55338654962668
 20
333.88586876436216
 11
481.88671988295948
 21
333.88586876436216
  0
LINE
  8
_0-b_細線3
  6
CONTINUOUS
 62
    7
 10
485.88671988295994
 20
335.21920209769564
 11
484.55338654962668
 21
333.88586876436216
  0
LINE
  8
_0-b_細線3
  6
CONTINUOUS
 62
    7
 10
485.88671988295994
 20
381.88586876436261
 11
485.88671988295994
 21
335.21920209769564
  0
LINE
  8
_0-b_細線3
  6
CONTINUOUS
 62
    7
 10
480.55338654962668
 20
381.88586876436261
 11
480.55338654962668
 21
335.21920209769564
  0
LINE
  8
_0-b_細線3
  6
CONTINUOUS
 62
    7
 10
485.88671988295994
 20
387.2192020976961
 11
532.553386549626
 21
387.2192020976961
  0
ARC
  8
_0-b_細線3
  6
CONTINUOUS
 62
    7
 10
485.88671988295994
 20
381.88586876436261
 40
5.333333333333333
 50
89.999999999999915
 51
179.99999999999983
  0
LINE
  8
_0-b_細線3
  6
CONTINUOUS
 62
    7
 10
747.22005321629365
 20
385.88586876436239
 11
748.55338654962725
 21
387.2192020976961
  0
LINE
  8
_0-b_細線3
  6
CONTINUOUS
 62
    7
 10
747.22005321629365
 20
383.21920209769542
 11
747.22005321629365
 21
385.88586876436239
  0
LINE
  8
_0-b_細線3
  6
CONTINUOUS
 62
    7
 10
748.55338654962725
 20
381.88586876436261
 11
747.22005321629365
 21
383.21920209769542
  0
LINE
  8
_0-b_細線3
  6
CONTINUOUS
 62
    7
 10
795.22005321629331
 20
381.88586876436261
 11
748.55338654962725
 21
381.88586876436261
  0
LINE
  8
_0-b_細線3
  6
CONTINUOUS
 62
    7
 10
799.22005321629376
 20
333.88586876436216
 11
800.55338654962668
 21
335.21920209769564
  0
LINE
  8
_0-b_細線3
  6
CONTINUOUS
 62
    7
 10
796.55338654962668
 20
333.88586876436216
 11
799.22005321629376
 21
333.88586876436216
  0
LINE
  8
_0-b_細線3
  6
CONTINUOUS
 62
    7
 10
795.22005321629331
 20
335.21920209769564
 11
796.55338654962668
 21
333.88586876436216
  0
LINE
  8
_0-b_細線3
  6
CONTINUOUS
 62
    7
 10
795.22005321629331
 20
381.88586876436261
 11
795.22005321629331
 21
335.21920209769564
  0
LINE
  8
_0-b_細線3
  6
CONTINUOUS
 62
    7
 10
795.22005321629331
 20
387.2192020976961
 11
748.55338654962725
 21
387.2192020976961
  0
LINE
  8
_0-b_細線3
  6
CONTINUOUS
 62
    7
 10
800.55338654962668
 20
381.88586876436261
 11
800.55338654962668
 21
335.21920209769564
  0
ARC
  8
_0-b_細線3
  6
CONTINUOUS
 62
    7
 10
795.22005321629331
 20
381.88586876436261
 40
5.333333333333333
 50
0
 51
89.999999999999915
  0
LINE
  8
_0-b_細線3
  6
CONTINUOUS
 62
    7
 10
645.08671988346623
 20
394.1524760742293
 11
657.48671988491344
 21
394.1524760742293
  0
LINE
  8
_0-d_寸法3
  6
CONTINUOUS
 62
    7
 10
628.29667543667631
 20
397.50380385268039
 11
579.4998622573479
 21
438.44919179408208
  0
LINE
  8
_0-d_寸法3
  6
CONTINUOUS
 62
    7
 10
585.62821780229967
 20
433.30689091658974
 11
581.48711308065936
 21
448.76170413721485
  0
LINE
  8
_0-d_寸法3
  6
CONTINUOUS
 62
    7
 10
585.62821780229967
 20
433.30689091658974
 11
589.76932252393999
 21
448.76170413721485
  0
LINE
  8
_0-d_寸法3
  6
CONTINUOUS
 62
    7
 10
628.29667543667631
 20
450.83713718601405
 11
579.4998622573479
 21
491.78252512741562
  0
LINE
  8
_0-d_寸法3
  6
CONTINUOUS
 62
    7
 10
585.62821780229967
 20
486.64022424992328
 11
589.76932252393999
 21
471.18541102929817
  0
LINE
  8
_0-d_寸法3
  6
CONTINUOUS
 62
    7
 10
585.62821780229967
 20
486.64022424992328
 11
581.48711308065936
 21
471.18541102929817
  0
LINE
  8
_0-d_寸法3
  6
CONTINUOUS
 62
    7
 10
585.62821780229967
 20
433.30689091658974
 11
585.62821780229967
 21
486.64022424992328
  0
TEXT
  8
_0-d_寸法3
 62
    7
 10
585.62821780229967
 20
448.46783347075461
 40
24
 41
1
 50
90
  1
20
  0
LINE
  8
_0-d_寸法3
  6
CONTINUOUS
 62
    7
 10
480.55338654962668
 20
317.88586876436216
 11
480.55338654962668
 21
297.88586876436216
  0
LINE
  8
_0-d_寸法3
  6
CONTINUOUS
 62
    7
 10
480.55338654962668
 20
305.88586876436216
 11
496.00819977025185
 21
310.02697348600248
  0
LINE
  8
_0-d_寸法3
  6
CONTINUOUS
 62
    7
 10
480.55338654962668
 20
305.88586876436216
 11
496.00819977025185
 21
301.74476404272184
  0
LINE
  8
_0-d_寸法3
  6
CONTINUOUS
 62
    7
 10
533.88671988295971
 20
365.88586876436261
 11
533.88671988295948
 21
297.88586876436216
  0
LINE
  8
_0-d_寸法3
  6
CONTINUOUS
 62
    7
 10
533.88671988295948
 20
305.88586876436216
 11
518.43190666233443
 21
301.74476404272195
  0
LINE
  8
_0-d_寸法3
  6
CONTINUOUS
 62
    7
 10
533.88671988295948
 20
305.88586876436216
 11
518.43190666233443
 21
310.02697348600259
  0
LINE
  8
_0-d_寸法3
  6
CONTINUOUS
 62
    7
 10
480.55338654962668
 20
305.88586876436216
 11
533.88671988295948
 21
305.88586876436216
  0
TEXT
  8
_0-d_寸法3
 62
    7
 10
495.22005321629297
 20
305.88586876436216
 40
24
 41
1
 50
0
  1
20
  0
LINE
  8
_0-d_寸法3
  6
CONTINUOUS
 62
    7
 10
533.88671988295948
 20
305.88586876436216
 11
549.34153310358465
 21
310.02697348600236
  0
LINE
  8
_0-d_寸法3
  6
CONTINUOUS
 62
    7
 10
533.88671988295948
 20
305.88586876436216
 11
549.34153310358454
 21
301.74476404272173
  0
LINE
  8
_0-d_寸法3
  6
CONTINUOUS
 62
    7
 10
747.22005321629354
 20
365.88586876436261
 11
747.22005321629331
 21
297.88586876436216
  0
LINE
  8
_0-d_寸法3
  6
CONTINUOUS
 62
    7
 10
747.22005321629331
 20
305.88586876436216
 11
731.76523999566825
 21
301.74476404272195
  0
LINE
  8
_0-d_寸法3
  6
CONTINUOUS
 62
    7
 10
747.22005321629331
 20
305.88586876436216
 11
731.76523999566825
 21
310.02697348600259
  0
LINE
  8
_0-d_寸法3
  6
CONTINUOUS
 62
    7
 10
533.88671988295948
 20
305.88586876436216
 11
747.22005321629331
 21
305.88586876436216
  0
TEXT
  8
_0-d_寸法3
 62
    7
 10
628.55338654962645
 20
305.88586876436216
 40
24
 41
1
 50
0
  1
80
  0
LINE
  8
_0-d_寸法3
  6
CONTINUOUS
 62
    7
 10
747.22005321629331
 20
305.88586876436216
 11
762.67486643691848
 21
310.02697348600236
  0
LINE
  8
_0-d_寸法3
  6
CONTINUOUS
 62
    7
 10
747.22005321629331
 20
305.88586876436216
 11
762.67486643691836
 21
301.74476404272173
  0
LINE
  8
_0-d_寸法3
  6
CONTINUOUS
 62
    7
 10
800.55338654962634
 20
317.88586876436216
 11
800.55338654962634
 21
297.88586876436216
  0
LINE
  8
_0-d_寸法3
  6
CONTINUOUS
 62
    7
 10
800.55338654962634
 20
305.88586876436216
 11
785.09857332900128
 21
301.74476404272195
  0
LINE
  8
_0-d_寸法3
  6
CONTINUOUS
 62
    7
 10
800.55338654962634
 20
305.88586876436216
 11
785.09857332900128
 21
310.02697348600259
  0
LINE
  8
_0-d_寸法3
  6
CONTINUOUS
 62
    7
 10
747.22005321629331
 20
305.88586876436216
 11
800.55338654962634
 21
305.88586876436216
  0
TEXT
  8
_0-d_寸法3
 62
    7
 10
761.88671988295982
 20
305.88586876436216
 40
24
 41
1
 50
0
  1
20
  0
LINE
  8
_0-d_寸法3
  6
CONTINUOUS
 62
    7
 10
686.95338655055775
 20
459.21920209769655
 11
686.95338655055775
 21
531.21920209769632
  0
LINE
  8
_0-d_寸法3
  6
CONTINUOUS
 62
    7
 10
686.95338655055775
 20
523.21920209769632
 11
702.40819977118281
 21
527.36030681933664
  0
LINE
  8
_0-d_寸法3
  6
CONTINUOUS
 62
    7
 10
686.95338655055775
 20
523.21920209769632
 11
702.40819977118281
 21
519.07809737605601
  0
LINE
  8
_0-d_寸法3
  6
CONTINUOUS
 62
    7
 10
733.35338655152191
 20
459.21920209769655
 11
733.35338655152191
 21
531.21920209769632
  0
LINE
  8
_0-d_寸法3
  6
CONTINUOUS
 62
    7
 10
733.35338655152191
 20
523.21920209769632
 11
717.89857333089685
 21
519.07809737605601
  0
LINE
  8
_0-d_寸法3
  6
CONTINUOUS
 62
    7
 10
733.35338655152191
 20
523.21920209769632
 11
717.89857333089685
 21
527.36030681933676
  0
LINE
  8
_0-d_寸法3
  6
CONTINUOUS
 62
    7
 10
686.95338655055775
 20
523.21920209769632
 11
733.35338655152191
 21
523.21920209769632
  0
TEXT
  8
_0-d_寸法3
 62
    7
 10
668.47950189513051
 20
499.21920209769632
 40
24
 41
1
 50
0
  1
(17.4)
  0
LINE
  8
_0-d_寸法3
  6
CONTINUOUS
 62
    7
 10
733.35338655152191
 20
523.21920209769632
 11
748.80819977214708
 21
527.36030681933653
  0
LINE
  8
_0-d_寸法3
  6
CONTINUOUS
 62
    7
 10
733.35338655152191
 20
523.21920209769632
 11
748.80819977214696
 21
519.07809737605589
  0
LINE
  8
_0-d_寸法3
  6
CONTINUOUS
 62
    7
 10
780.02005321818842
 20
459.21920209769655
 11
780.02005321818842
 21
531.21920209769632
  0
LINE
  8
_0-d_寸法3
  6
CONTINUOUS
 62
    7
 10
780.02005321818842
 20
523.21920209769632
 11
764.56523999756337
 21
519.07809737605601
  0
LINE
  8
_0-d_寸法3
  6
CONTINUOUS
 62
    7
 10
780.02005321818842
 20
523.21920209769632
 11
764.56523999756337
 21
527.36030681933676
  0
LINE
  8
_0-d_寸法3
  6
CONTINUOUS
 62
    7
 10
733.35338655152191
 20
523.21920209769632
 11
780.02005321818842
 21
523.21920209769632
  0
TEXT
  8
_0-d_寸法3
 62
    7
 10
710.53674404323147
 20
523.21920209769621
 40
24
 41
1
 50
0
  1
(17.4)
  0
LINE
  8
_0-d_寸法3
  6
CONTINUOUS
 62
    7
 10
448.55338654962668
 20
451.21920209769632
 11
448.55338654962668
 21
643.21919942834484
  0
LINE
  8
_0-d_寸法3
  6
CONTINUOUS
 62
    7
 10
448.55338654962668
 20
635.21919942834484
 11
464.00819977025185
 21
639.36030414998515
  0
LINE
  8
_0-d_寸法3
  6
CONTINUOUS
 62
    7
 10
448.55338654962668
 20
635.21919942834484
 11
464.00819977025185
 21
631.07809470670452
  0
LINE
  8
_0-d_寸法3
  6
CONTINUOUS
 62
    7
 10
832.55338654962668
 20
451.21920209769632
 11
832.55338654962668
 21
643.21919942834484
  0
LINE
  8
_0-d_寸法3
  6
CONTINUOUS
 62
    7
 10
832.55338654962668
 20
635.21919942834484
 11
817.09857332900162
 21
631.07809470670452
  0
LINE
  8
_0-d_寸法3
  6
CONTINUOUS
 62
    7
 10
832.55338654962668
 20
635.21919942834484
 11
817.09857332900162
 21
639.36030414998527
  0
LINE
  8
_0-d_寸法3
  6
CONTINUOUS
 62
    7
 10
448.55338654962668
 20
635.21919942834484
 11
832.55338654962668
 21
635.21919942834484
  0
TEXT
  8
_0-d_寸法3
 62
    7
 10
622.55338654962736
 20
635.21919942834484
 40
24
 41
1
 50
0
  1
144
  0
LINE
  8
_0-d_寸法3
  6
CONTINUOUS
 62
    7
 10
516.28671987615837
 20
459.21920209769632
 11
516.28671987615837
 21
531.21920209769632
  0
LINE
  8
_0-d_寸法3
  6
CONTINUOUS
 62
    7
 10
516.28671987615837
 20
523.21920209769632
 11
500.8319066555332
 21
519.07809737605601
  0
LINE
  8
_0-d_寸法3
  6
CONTINUOUS
 62
    7
 10
516.28671987615837
 20
523.21920209769632
 11
500.83190665553332
 21
527.36030681933676
  0
LINE
  8
_0-d_寸法3
  6
CONTINUOUS
 62
    7
 10
532.55338655416915
 20
459.21920209769632
 11
532.55338655416915
 21
531.21920209769632
  0
LINE
  8
_0-d_寸法3
  6
CONTINUOUS
 62
    7
 10
482.62974572206542
 20
523.21920209769632
 11
532.55338655416915
 21
523.21920209769632
  0
TEXT
  8
_0-d_寸法3
 62
    7
 10
482.62974572206542
 20
499.21920209769632
 40
24
 41
1
 50
0
  1
(6)
  0
LINE
  8
_0-d_寸法3
  6
CONTINUOUS
 62
    7
 10
532.55338655416915
 20
523.21920209769632
 11
548.00819977479421
 21
527.36030681933664
  0
LINE
  8
_0-d_寸法3
  6
CONTINUOUS
 62
    7
 10
532.55338655416915
 20
523.21920209769632
 11
548.00819977479421
 21
519.07809737605601
  0
LINE
  8
_0-d_寸法3
  6
CONTINUOUS
 62
    7
 10
562.9533865482839
 20
459.21920209769632
 11
562.9533865482839
 21
531.21920209769632
  0
LINE
  8
_0-d_寸法3
  6
CONTINUOUS
 62
    7
 10
562.9533865482839
 20
523.21920209769632
 11
547.49857332765885
 21
519.07809737605601
  0
LINE
  8
_0-d_寸法3
  6
CONTINUOUS
 62
    7
 10
562.9533865482839
 20
523.21920209769632
 11
547.49857332765885
 21
527.36030681933676
  0
LINE
  8
_0-d_寸法3
  6
CONTINUOUS
 62
    7
 10
532.55338655416915
 20
523.21920209769632
 11
562.9533865482839
 21
523.21920209769632
  0
TEXT
  8
_0-d_寸法3
 62
    7
 10
517.72987226906673
 20
523.21920209769632
 40
24
 41
1
 50
0
  1
11.4
  0
LINE
  8
_0-d_寸法3
  6
CONTINUOUS
 62
    7
 10
448.55338654962668
 20
579.21919942834484
 11
464.00819977025185
 21
583.36030414998515
  0
LINE
  8
_0-d_寸法3
  6
CONTINUOUS
 62
    7
 10
448.55338654962668
 20
579.21919942834484
 11
464.00819977025185
 21
575.07809470670452
  0
LINE
  8
_0-d_寸法3
  6
CONTINUOUS
 62
    7
 10
480.55338654962668
 20
451.21920209769632
 11
480.55338654962691
 21
587.21919942834484
  0
LINE
  8
_0-d_寸法3
  6
CONTINUOUS
 62
    7
 10
480.55338654962691
 20
579.21919942834484
 11
465.09857332900174
 21
575.07809470670452
  0
LINE
  8
_0-d_寸法3
  6
CONTINUOUS
 62
    7
 10
480.55338654962691
 20
579.21919942834484
 11
465.09857332900185
 21
583.36030414998527
  0
LINE
  8
_0-d_寸法3
  6
CONTINUOUS
 62
    7
 10
448.55338654962668
 20
579.21919942834484
 11
480.55338654962691
 21
579.21919942834484
  0
TEXT
  8
_0-d_寸法3
 62
    7
 10
452.31002782304688
 20
579.21919942834484
 40
24
 41
1
 50
0
  1
12
  0
LINE
  8
_0-d_寸法3
  6
CONTINUOUS
 62
    7
 10
485.88671988204317
 20
451.21920209769632
 11
485.88671988204317
 21
587.21919942834484
  0
LINE
  8
_0-d_寸法3
  6
CONTINUOUS
 62
    7
 10
480.55338654962691
 20
579.21919942834484
 11
485.88671988204317
 21
579.21919942834484
  0
TEXT
  8
_0-d_寸法3
 62
    7
 10
490.70113893415794
 20
555.21919942834484
 40
24
 41
1
 50
0
  1
2
  0
LINE
  8
_0-d_寸法3
  6
CONTINUOUS
 62
    7
 10
485.88671988204317
 20
579.21919942834484
 11
501.34153310266834
 21
583.36030414998515
  0
LINE
  8
_0-d_寸法3
  6
CONTINUOUS
 62
    7
 10
485.88671988204317
 20
579.21919942834484
 11
501.34153310266834
 21
575.07809470670452
  0
LINE
  8
_0-d_寸法3
  6
CONTINUOUS
 62
    7
 10
795.2200532158347
 20
451.21920209769632
 11
795.22005321583492
 21
587.21919942834484
  0
LINE
  8
_0-d_寸法3
  6
CONTINUOUS
 62
    7
 10
795.22005321583492
 20
579.21919942834484
 11
779.76523999520987
 21
575.07809470670452
  0
LINE
  8
_0-d_寸法3
  6
CONTINUOUS
 62
    7
 10
795.22005321583492
 20
579.21919942834484
 11
779.76523999520987
 21
583.36030414998527
  0
LINE
  8
_0-d_寸法3
  6
CONTINUOUS
 62
    7
 10
485.88671988204317
 20
579.21919942834484
 11
795.22005321583492
 21
579.21919942834484
  0
TEXT
  8
_0-d_寸法3
 62
    7
 10
622.55338654962679
 20
579.21919942834484
 40
24
 41
1
 50
0
  1
116
  0
LINE
  8
_0-d_寸法3
  6
CONTINUOUS
 62
    7
 10
800.55338654962634
 20
451.21920209769632
 11
800.55338654962679
 21
587.21919942834484
  0
LINE
  8
_0-d_寸法3
  6
CONTINUOUS
 62
    7
 10
795.22005321583492
 20
579.21919942834484
 11
800.55338654962679
 21
579.21919942834484
  0
TEXT
  8
_0-d_寸法3
 62
    7
 10
778.63002782304693
 20
555.21919942834484
 40
24
 41
1
 50
0
  1
2
  0
LINE
  8
_0-d_寸法3
  6
CONTINUOUS
 62
    7
 10
800.55338654962679
 20
579.21919942834484
 11
816.00819977025185
 21
583.36030414998515
  0
LINE
  8
_0-d_寸法3
  6
CONTINUOUS
 62
    7
 10
800.55338654962679
 20
579.21919942834484
 11
816.00819977025185
 21
575.07809470670452
  0
LINE
  8
_0-d_寸法3
  6
CONTINUOUS
 62
    7
 10
832.55338654962668
 20
579.21919942834484
 11
817.09857332900162
 21
575.07809470670452
  0
LINE
  8
_0-d_寸法3
  6
CONTINUOUS
 62
    7
 10
832.55338654962668
 20
579.21919942834484
 11
817.09857332900162
 21
583.36030414998527
  0
LINE
  8
_0-d_寸法3
  6
CONTINUOUS
 62
    7
 10
800.55338654962679
 20
579.21919942834484
 11
832.55338654962668
 21
579.21919942834484
  0
TEXT
  8
_0-d_寸法3
 62
    7
 10
804.71299078601021
 20
579.21919942834484
 40
24
 41
1
 50
0
  1
12
  0
LINE
  8
_0-d_寸法3
  6
CONTINUOUS
 62
    7
 10
848.55338654962668
 20
443.21920209769638
 11
920.55338654962645
 21
443.21920209769655
  0
LINE
  8
_0-d_寸法3
  6
CONTINUOUS
 62
    7
 10
912.55338654962645
 20
443.21920209769655
 11
916.69449127126688
 21
427.7643888770715
  0
LINE
  8
_0-d_寸法3
  6
CONTINUOUS
 62
    7
 10
912.55338654962645
 20
443.21920209769655
 11
908.41228182798613
 21
427.76438887707144
  0
LINE
  8
_0-d_寸法3
  6
CONTINUOUS
 62
    7
 10
848.55338654962668
 20
421.88586876436318
 11
920.55338654962645
 21
421.88586876436329
  0
LINE
  8
_0-d_寸法3
  6
CONTINUOUS
 62
    7
 10
912.55338654962645
 20
421.88586876436329
 11
908.41228182798613
 21
437.34068198498841
  0
LINE
  8
_0-d_寸法3
  6
CONTINUOUS
 62
    7
 10
912.55338654962645
 20
421.88586876436329
 11
916.69449127126677
 21
437.34068198498841
  0
LINE
  8
_0-d_寸法3
  6
CONTINUOUS
 62
    7
 10
912.55338654962645
 20
443.21920209769655
 11
912.55338654962645
 21
421.88586876436329
  0
TEXT
  8
_0-d_寸法3
 62
    7
 10
912.55338654962645
 20
426.55253543103009
 40
24
 41
1
 50
90
  1
8
  0
LINE
  8
_0-d_寸法3
  6
CONTINUOUS
 62
    7
 10
461.88671988295994
 20
176.55253543102958
 11
360.55338654962668
 21
176.55253543103004
  0
LINE
  8
_0-d_寸法3
  6
CONTINUOUS
 62
    7
 10
368.55338654962668
 20
176.55253543103004
 11
364.41228182798636
 21
192.00734865165509
  0
LINE
  8
_0-d_寸法3
  6
CONTINUOUS
 62
    7
 10
368.55338654962668
 20
176.55253543103004
 11
372.694491271267
 21
192.00734865165509
  0
LINE
  8
_0-d_寸法3
  6
CONTINUOUS
 62
    7
 10
432.55338654962668
 20
443.21920209769638
 11
360.55338654962668
 21
443.21920209769655
  0
LINE
  8
_0-d_寸法3
  6
CONTINUOUS
 62
    7
 10
368.55338654962668
 20
443.21920209769655
 11
372.694491271267
 21
427.76438887707144
  0
LINE
  8
_0-d_寸法3
  6
CONTINUOUS
 62
    7
 10
368.55338654962668
 20
443.21920209769655
 11
364.41228182798636
 21
427.76438887707144
  0
LINE
  8
_0-d_寸法3
  6
CONTINUOUS
 62
    7
 10
368.55338654962668
 20
176.55253543103004
 11
368.55338654962668
 21
443.21920209769655
  0
TEXT
  8
_0-d_寸法3
 62
    7
 10
368.55338654962657
 20
267.88586876436329
 40
24
 41
1
 50
89.999999999999844
  1
80～100
  0
LINE
  8
_0-b_細線3
  6
CONTINUOUS
 62
    7
 10
737.88671988537908
 20
394.68586876436302
 11
775.4867198859514
 21
394.68586876436302
  0
LINE
  8
_0-b_細線3
  6
CONTINUOUS
 62
    7
 10
737.8867198877183
 20
426.68586876436302
 11
775.48671988829062
 21
426.68586876436302
  0
LINE
  8
_0-b_細線3
  6
CONTINUOUS
 62
    7
 10
691.48671988673732
 20
426.68586876436302
 11
728.82005322105158
 21
426.68586876436302
  0
LINE
  8
_0-b_細線3
  6
CONTINUOUS
 62
    7
 10
691.4867198843981
 20
394.68586876436302
 11
728.82005321871236
 21
394.68586876436302
  0
LINE
  8
_0-b_細線3
  6
CONTINUOUS
 62
    7
 10
598.68671988512926
 20
426.68586876436302
 11
636.02005321913884
 21
426.68586876436302
  0
LINE
  8
_0-b_細線3
  6
CONTINUOUS
 62
    7
 10
598.68671988512926
 20
394.68586876436302
 11
636.02005321680065
 21
394.68586876436302
  0
LINE
  8
_0-b_細線3
  6
CONTINUOUS
 62
    7
 10
552.28671988740587
 20
426.68586876436302
 11
589.62005321846311
 21
426.68586876436302
  0
LINE
  8
_0-b_細線3
  6
CONTINUOUS
 62
    7
 10
552.28671988506665
 20
394.68586876436302
 11
589.62005321846311
 21
394.68586876436302
  0
LINE
  8
_0-b_細線3
  6
CONTINUOUS
 62
    7
 10
505.62005321294066
 20
394.68586876436302
 11
543.22005321840095
 21
394.68586876436302
  0
LINE
  8
_0-b_細線3
  6
CONTINUOUS
 62
    7
 10
505.62005321528102
 20
426.68586876436302
 11
543.22005322073903
 21
426.68586876436302
  0
LINE
  8
_0-b_細線3
  6
CONTINUOUS
 62
    7
 10
645.08671988580556
 20
426.68586876436302
 11
657.48671988491344
 21
426.68586876436302
  0
LINE
  8
_0-b_細線3
  6
CONTINUOUS
 62
    7
 10
670.02005321824674
 20
426.68586876436302
 11
682.42005322007037
 21
426.68586876436302
  0
LINE
  8
_0-b_細線3
  6
CONTINUOUS
 62
    7
 10
670.02005321824674
 20
394.68586876436302
 11
682.42005321773115
 21
394.68586876436302
  0
LINE
  8
_0-a_極細3
  6
CENTER1
 62
    7
 10
800.55338654962668
 20
410.68586876436302
 11
480.55338654962668
 21
410.68586876436302
  0
LINE
  8
_0-b_細線3
  6
CONTINUOUS
 62
    7
 10
670.02005321824674
 20
440.0192020976915
 11
670.02005321824674
 21
389.35253543102408
  0
LINE
  8
_0-b_細線3
  6
CONTINUOUS
 62
    7
 10
657.48671988491253
 20
389.35253543102408
 11
657.48671988491253
 21
440.0192020976915
  0
LINE
  8
_0-b_細線3
  6
CONTINUOUS
 62
    7
 10
670.02005321824674
 20
389.35253543102408
 11
657.48671988491253
 21
389.35253543102408
  0
LINE
  8
_0-b_細線3
  6
CONTINUOUS
 62
    7
 10
657.48671988491253
 20
440.0192020976915
 11
670.02005321824674
 21
440.0192020976915
  0
LINE
  8
_0-b_細線3
  6
DASHED2
 62
    7
 10
657.48671988491253
 20
397.35253543102408
 11
670.02005321824674
 21
397.35253543102408
  0
LINE
  8
_0-b_細線3
  6
DASHED2
 62
    7
 10
657.48671988491253
 20
433.35253543102482
 11
670.02005321824674
 21
433.35253543102482
  0
ARC
  8
_0-b_細線3
  6
CONTINUOUS
 62
    7
 10
488.55338654871105
 20
435.21920209769564
 40
2.6666666666666674
 50
89.999999999999915
 51
179.99999999998533
  0
ARC
  8
_0-b_細線3
  6
CONTINUOUS
 62
    7
 10
489.80125105891659
 20
440.55253543102958
 40
2.6666666666666674
 50
269.99999999999977
 51
330.00000000000409
  0
ARC
  8
_0-b_細線3
  6
CONTINUOUS
 62
    7
 10
494.42005321243425
 20
437.88586876436312
 40
2.6666666666666674
 50
89.999999999999915
 51
150.00000000000648
  0
LINE
  8
_0-b_細線3
  6
CONTINUOUS
 62
    7
 10
488.55338654871105
 20
437.88586876436312
 11
489.80125105891659
 21
437.88586876436312
  0
ARC
  8
_0-b_細線3
  6
CONTINUOUS
 62
    7
 10
513.62005320949186
 20
435.21920209769564
 40
2.6666666666666674
 50
0
 51
89.999999999999915
  0
ARC
  8
_0-b_細線3
  6
CONTINUOUS
 62
    7
 10
512.37218869928495
 20
440.55253543102958
 40
2.6666666666666674
 50
209.99999999999713
 51
269.99999999999977
  0
ARC
  8
_0-b_細線3
  6
CONTINUOUS
 62
    7
 10
507.75338654576751
 20
437.88586876436312
 40
2.6666666666666674
 50
29.999999999994007
 51
89.999999999975572
  0
LINE
  8
_0-b_細線3
  6
CONTINUOUS
 62
    7
 10
513.62005320949186
 20
437.88586876436312
 11
512.37218869928495
 21
437.88586876436312
  0
ARC
  8
_0-b_細線3
  6
CONTINUOUS
 62
    7
 10
487.22005321537779
 20
431.48586876436275
 40
1.3333333333333337
 50
179.99999999996825
 51
269.99999999999977
  0
LINE
  8
_0-b_細線3
  6
CONTINUOUS
 62
    7
 10
485.88671988204317
 20
435.21920209769632
 11
485.88671988204317
 21
431.48586876436349
  0
ARC
  8
_0-b_細線3
  6
CONTINUOUS
 62
    7
 10
514.95338654282511
 20
431.48586876436275
 40
1.3333333333333337
 50
269.99999999999977
 51
359.99999999999966
  0
LINE
  8
_0-b_細線3
  6
CONTINUOUS
 62
    7
 10
516.28671987615837
 20
435.21920209769564
 11
516.28671987615837
 21
431.48586876436275
  0
ARC
  8
_0-b_細線3
  6
CONTINUOUS
 62
    7
 10
493.88671988204317
 20
427.48586876436275
 40
2.6666666666666674
 50
0
 51
89.999999999999915
  0
LINE
  8
_0-b_細線3
  6
CONTINUOUS
 62
    7
 10
493.88671988204317
 20
430.15253543102955
 11
487.22005321537779
 21
430.15253543102955
  0
ARC
  8
_0-b_細線3
  6
CONTINUOUS
 62
    7
 10
508.28671988204462
 20
427.48586876436349
 40
2.6666666666666674
 50
89.999999999999915
 51
179.99999999999983
  0
LINE
  8
_0-b_細線3
  6
CONTINUOUS
 62
    7
 10
508.28671987615837
 20
430.15253543102955
 11
514.95338654282511
 21
430.15253543102955
  0
LINE
  8
_0-b_細線3
  6
CONTINUOUS
 62
    7
 10
507.75338654576751
 20
440.55253543102958
 11
494.42005321243425
 21
440.55253543102958
  0
LINE
  8
_0-b_細線3
  6
CONTINUOUS
 62
    7
 10
496.55338654576792
 20
387.21920209769564
 11
496.55338654871105
 21
427.48586876436275
  0
LINE
  8
_0-b_細線3
  6
CONTINUOUS
 62
    7
 10
505.62005321243362
 20
387.2192020976961
 11
505.62005321537811
 21
427.48586876436349
  0
LINE
  8
_0-b_細線3
  6
CONTINUOUS
 62
    7
 10
505.62005321243362
 20
387.2192020976961
 11
496.55338654576792
 21
387.21920209769564
  0
LINE
  8
_0-b_細線3
  6
CONTINUOUS
 62
    7
 10
493.88671987910141
 20
410.68586876436302
 11
485.87467721243604
 21
410.68586876436302
  0
LINE
  8
_0-b_細線3
  6
CONTINUOUS
 62
    7
 10
493.88671987910141
 20
401.3525354310309
 11
485.87464521243612
 21
401.3525354310309
  0
ARC
  8
_0-b_細線3
  6
CONTINUOUS
 62
    7
 10
485.87464521243612
 20
401.88586876436375
 40
0.5333333333333335
 50
179.99999999999983
 51
269.99999999999977
  0
ARC
  8
_0-b_細線3
  6
CONTINUOUS
 62
    7
 10
506.02925854576836
 20
406.01881276436461
 40
20.687882666666667
 50
166.96197800000419
 51
193.03567000000047
  0
ARC
  8
_0-b_細線3
  6
CONTINUOUS
 62
    7
 10
485.87464521243612
 20
419.48586876436457
 40
0.5333333333333335
 50
89.999999999999915
 51
179.99999999999983
  0
ARC
  8
_0-b_細線3
  6
CONTINUOUS
 62
    7
 10
506.02925854576836
 20
415.35291943102993
 40
20.687882666666667
 50
166.96432999999917
 51
193.03802199999913
  0
LINE
  8
_0-b_細線3
  6
CONTINUOUS
 62
    7
 10
493.88671987910141
 20
420.01920209769742
 11
485.87464521243612
 21
420.01920209769742
  0
LINE
  8
_0-b_細線3
  6
CONTINUOUS
 62
    7
 10
485.34131187910202
 20
401.88586876436375
 11
485.34131187910202
 21
419.48586876436457
  0
ARC
  8
_0-b_細線3
  6
CONTINUOUS
 62
    7
 10
494.42005321243664
 20
392.55253543103004
 40
0.5333333333333335
 50
179.99999999999983
 51
269.99999999999977
  0
LINE
  8
_0-b_細線3
  6
CONTINUOUS
 62
    7
 10
496.55338654429704
 20
392.01920209769628
 11
494.42005321243664
 21
392.01920209769628
  0
ARC
  8
_0-b_細線3
  6
CONTINUOUS
 62
    7
 10
494.42005321243664
 20
428.81920209769498
 40
0.5333333333333335
 50
89.999999999999915
 51
179.99999999999983
  0
LINE
  8
_0-b_細線3
  6
CONTINUOUS
 62
    7
 10
495.79110079632096
 20
429.35253543102965
 11
494.42005321243664
 21
429.35253543102965
  0
LINE
  8
_0-b_細線3
  6
CONTINUOUS
 62
    7
 10
493.88671987910141
 20
409.35253543103022
 11
493.88671987910141
 21
392.55253543103004
  0
LINE
  8
_0-b_細線3
  6
CONTINUOUS
 62
    7
 10
493.88671987910141
 20
428.81920209769498
 11
493.88671987910141
 21
409.35253543103022
  0
LINE
  8
_0-b_細線3
  6
CONTINUOUS
 62
    7
 10
787.22005322015207
 20
410.68586876436302
 11
795.23209588681743
 21
410.68586876436302
  0
LINE
  8
_0-b_細線3
  6
CONTINUOUS
 62
    7
 10
787.22005322015207
 20
401.3525354310309
 11
795.23212788681735
 21
401.3525354310309
  0
ARC
  8
_0-b_細線3
  6
CONTINUOUS
 62
    7
 10
795.23212788681735
 20
401.88586876436375
 40
0.5333333333333335
 50
269.99999999999977
 51
359.99999999999966
  0
ARC
  8
_0-b_細線3
  6
CONTINUOUS
 62
    7
 10
775.07751455348512
 20
406.01881276436461
 40
20.687882666666667
 50
346.96432999999888
 51
13.038021999995388
  0
ARC
  8
_0-b_細線3
  6
CONTINUOUS
 62
    7
 10
795.23212788681735
 20
419.48586876436457
 40
0.5333333333333335
 50
0
 51
89.999999999999915
  0
ARC
  8
_0-b_細線3
  6
CONTINUOUS
 62
    7
 10
775.07751455348512
 20
415.35291943102993
 40
20.687882666666667
 50
346.96197800000022
 51
13.035670000000389
  0
LINE
  8
_0-b_細線3
  6
CONTINUOUS
 62
    7
 10
787.22005322015207
 20
420.01920209769742
 11
795.23212788681735
 21
420.01920209769742
  0
LINE
  8
_0-b_細線3
  6
CONTINUOUS
 62
    7
 10
795.76546122015134
 20
401.88586876436375
 11
795.76546122015134
 21
419.48586876436457
  0
ARC
  8
_0-b_細線3
  6
CONTINUOUS
 62
    7
 10
786.68671988681672
 20
392.55253543103004
 40
0.5333333333333335
 50
269.99999999999977
 51
359.99999999999966
  0
LINE
  8
_0-b_細線3
  6
CONTINUOUS
 62
    7
 10
784.55338655495643
 20
392.01920209769628
 11
786.68671988681672
 21
392.01920209769628
  0
ARC
  8
_0-b_細線3
  6
CONTINUOUS
 62
    7
 10
786.68671988681672
 20
428.81920209769498
 40
0.5333333333333335
 50
0
 51
89.999999999999915
  0
LINE
  8
_0-b_細線3
  6
CONTINUOUS
 62
    7
 10
785.3156723029324
 20
429.35253543102965
 11
786.68671988681672
 21
429.35253543102965
  0
LINE
  8
_0-b_細線3
  6
CONTINUOUS
 62
    7
 10
787.22005322015207
 20
409.35253543103022
 11
787.22005322015207
 21
392.55253543103004
  0
LINE
  8
_0-b_細線3
  6
CONTINUOUS
 62
    7
 10
787.22005322015207
 20
428.81920209769498
 11
787.22005322015207
 21
409.35253543103022
  0
ARC
  8
_0-1_計細線
  6
CONTINUOUS
 62
    3
 10
1323.4545169335311
 20
710.49999999999989
 40
1.5
 50
89.999999999999915
 51
179.99999999999983
  0
LINE
  8
_0-1_計細線
  6
CONTINUOUS
 62
    3
 10
1321.9545169335311
 20
710.49999999999989
 11
1321.9545169335311
 21
708.5
  0
ARC
  8
_0-1_計細線
  6
CONTINUOUS
 62
    3
 10
1321.4545169335311
 20
708.5
 40
1.5
 50
269.99999999999977
 51
359.99999999999966
  0
LINE
  8
_0-1_計細線
  6
CONTINUOUS
 62
    3
 10
1322.9545169335311
 20
710.5
 11
1322.9545169335311
 21
708.5
  0
LINE
  8
_0-1_計細線
  6
CONTINUOUS
 62
    3
 10
1321.4545169335311
 20
707
 11
1315.4545169335311
 21
707
  0
ARC
  8
_0-1_計細線
  6
CONTINUOUS
 62
    3
 10
1323.4545169335311
 20
710.5
 40
0.5
 50
89.999999999999915
 51
179.99999999999983
  0
ARC
  8
_0-1_計細線
  6
CONTINUOUS
 62
    3
 10
1321.4545169335311
 20
708.5
 40
0.5
 50
269.99999999999977
 51
359.99999999999966
  0
LINE
  8
_0-1_計細線
  6
CONTINUOUS
 62
    3
 10
1321.4545169335311
 20
708
 11
1315.4545169335311
 21
708
  0
LINE
  8
_0-1_計細線
  6
CONTINUOUS
 62
    3
 10
1315.4545169335311
 20
708
 11
1315.4545169335311
 21
707
  0
LINE
  8
_0-1_計細線
  6
CONTINUOUS
 62
    3
 10
1332.4545169335313
 20
711
 11
1323.4545169335311
 21
711
  0
ARC
  8
_0-1_計細線
  6
CONTINUOUS
 62
    3
 10
1332.4545169335313
 20
711.99999999999989
 40
1
 50
269.99999999999977
 51
359.99999999999966
  0
LINE
  8
_0-1_計細線
  6
CONTINUOUS
 62
    3
 10
1332.4545169335313
 20
809.99999999999989
 11
1332.4545169335313
 21
711.99999999999989
  0
LINE
  8
_0-1_計細線
  6
CONTINUOUS
 62
    3
 10
1332.4545169335313
 20
711.99999999999989
 11
1323.4545169335311
 21
711.99999999999989
  0
ARC
  8
_0-1_計細線
  6
CONTINUOUS
 62
    3
 10
1207.4545169335315
 20
708.5
 40
1.5
 50
179.99999999999983
 51
269.99999999999977
  0
LINE
  8
_0-1_計細線
  6
CONTINUOUS
 62
    3
 10
1205.9545169335315
 20
710.5
 11
1205.9545169335315
 21
708.5
  0
ARC
  8
_0-1_計細線
  6
CONTINUOUS
 62
    3
 10
1205.4545169335315
 20
710.5
 40
0.5
 50
0
 51
89.999999999999915
  0
TEXT
  8
_0-7_枠細線
 62
    5
 10
560.51320444503426
 20
120.81099460578434
 40
39.999999999999993
 41
0.8000000000000001
 50
0
  1
断面詳細図
  0
TEXT
  8
_0-7_枠細線
 62
    5
 10
744.43155604370304
 20
124.77325875672773
 40
32
 41
0.5999999999999998
 50
0
  1
Ｓ＝１：３
  0
TEXT
  8
_0-7_枠細線
 62
    5
 10
1756.2635219031147
 20
642.79037476040639
 40
24
 41
0.7999999999999999
 50
0
  1
Ｂ
  0
TEXT
  8
_0-7_枠細線
 62
    5
 10
1756.2635219031147
 20
602.79037476040673
 40
24
 41
0.7999999999999999
 50
0
  1
Ｇ
  0
TEXT
  8
_0-7_枠細線
 62
    5
 10
1804.2635219031147
 20
602.79037476040673
 40
24
 41
0.7999999999999999
 50
0
  1
ライトグレー
  0
TEXT
  8
_0-7_枠細線
 62
    5
 10
1823.4635219031145
 20
642.79037476040639
 40
24
 41
0.7999999999999999
 50
0
  1
ベージュ
  0
TEXT
  8
_0-7_枠細線
 62
    5
 10
1756.2635219031147
 20
522.79037476040673
 40
24
 41
0.7999999999999999
 50
0
  1
Ｐ
  0
TEXT
  8
_0-7_枠細線
 62
    5
 10
1756.2635219031147
 20
482.79037476040673
 40
24
 41
0.7999999999999999
 50
0
  1
Ａ
  0
TEXT
  8
_0-7_枠細線
 62
    5
 10
1833.0635219031146
 20
482.79037476040673
 40
24
 41
0.7999999999999999
 50
0
  1
ブルー
  0
TEXT
  8
_0-7_枠細線
 62
    5
 10
1833.0635219031146
 20
522.79037476040673
 40
24
 41
0.7999999999999999
 50
0
  1
ピンク
  0
TEXT
  8
_0-7_枠細線
 62
    5
 10
1756.2635219031147
 20
562.79037476040673
 40
24
 41
0.7999999999999999
 50
0
  1
Ｓ
  0
TEXT
  8
_0-7_枠細線
 62
    5
 10
1823.4635219031145
 20
562.79037476040673
 40
24
 41
0.7999999999999999
 50
0
  1
ホワイト
  0
TEXT
  8
_0-7_枠細線
 62
    5
 10
1804.2635219031147
 20
442.79037476040673
 40
24
 41
0.7999999999999999
 50
0
  1
ダークグレー
  0
TEXT
  8
_0-7_枠細線
 62
    5
 10
1756.2635219031147
 20
402.79037476040639
 40
24
 41
0.7999999999999999
 50
0
  1
Ｍ
  0
TEXT
  8
_0-7_枠細線
 62
    5
 10
1756.2635219031147
 20
442.79037476040673
 40
24
 41
0.7999999999999999
 50
0
  1
Ｄ
  0
TEXT
  8
_0-7_枠細線
 62
    5
 10
1833.0635219031146
 20
402.79037476040639
 40
24
 41
0.7999999999999999
 50
0
  1
ウッド
  0
TEXT
  8
_0-7_枠細線
 62
    5
 10
1756.2635219031147
 20
322.79037476040594
 40
24
 41
0.7999999999999999
 50
0
  1
Ｋ
  0
TEXT
  8
_0-7_枠細線
 62
    5
 10
1823.4635219031145
 20
322.79037476040594
 40
24
 41
0.7999999999999999
 50
0
  1
ブラック
  0
TEXT
  8
_0-7_枠細線
 62
    5
 10
1756.2635219031147
 20
362.79037476040639
 40
24
 41
0.7999999999999999
 50
0
  1
Ｃ
  0
TEXT
  8
_0-7_枠細線
 62
    5
 10
1823.4635219031145
 20
362.79037476040639
 40
24
 41
0.7999999999999999
 50
0
  1
ブラウン
  0
ENDSEC
  0
EOF
