  0
SECTION
  2
HEADER
  9
$ACADVER
  1
AC1009
  9
$INSBASE
 10
0
 20
0
 30
0
  9
$EXTMIN
 10
0
 20
0
  9
$EXTMAX
 10
2376
 20
1680
  9
$LIMMIN
 10
0
 20
0
  9
$LIMMAX
 10
2376
 20
1680
  9
$LTSCALE
 40
8
  0
ENDSEC
  0
SECTION
  2
TABLES
  0
TABLE
  2
LTYPE
 70
     9
  0
LTYPE
  2
CONTINUOUS
 70
    64
  3
実線
 72
    65
 73
     0
 40
0.0
  0
LTYPE
  2
DASHED1
 70
    64
  3
--  --  --  --  --  --  --  --  
 72
    65
 73
     2
 40
2.5
 49
1.25
 49
-1.25
  0
LTYPE
  2
DASHED2
 70
    64
  3
----    ----    ----    ----    
 72
    65
 73
     2
 40
5.0
 49
2.5
 49
-2.5
  0
LTYPE
  2
DASHED3
 70
    64
  3
------  ------  ------  ------  
 72
    65
 73
     2
 40
5.0
 49
3.75
 49
-1.25
  0
LTYPE
  2
CENTER1
 70
    64
  3
----- - ----- - ----- - ----- - 
 72
    65
 73
     4
 40
10.0
 49
6.25
 49
-1.25
 49
1.25
 49
-1.25
  0
LTYPE
  2
CENTER2
 70
    64
  3
----------  --  ----------  --  
 72
    65
 73
     4
 40
20.0
 49
12.5
 49
-2.5
 49
2.5
 49
-2.5
  0
LTYPE
  2
PHANTOM1
 70
    64
  3
--- - - --- - - --- - - --- - - 
 72
    65
 73
     6
 40
10.0
 49
3.25
 49
-1.25
 49
1.25
 49
-1.25
 49
1.25
 49
-1.25
  0
LTYPE
  2
PHANTOM2
 70
    64
  3
--------  -  -  --------  -  -  
 72
    65
 73
     6
 40
20.0
 49
10.0
 49
-2.5
 49
1.25
 49
-2.5
 49
1.25
 49
-2.5
  0
LTYPE
  2
DOT
 70
    64
  3
-   -   -   -   -   -   -   -   
 72
    65
 73
     2
 40
2.5
 49
0.625
 49
-1.875
  0
LTYPE
  2
DUMMY
 70
    64
  3
ダミー
 72
    65
 73
     0
 40
0.0
  0
LTYPE
  2
RAND1
 70
    64
  3
ランダム線1
 72
    65
 73
     4
 40
10.0
 49
1.0
 49
-2.0
 49
3.0
 49
-4.0
  0
LTYPE
  2
RAND2
 70
    64
  3
ランダム線2
 72
    65
 73
     4
 40
14.0
 49
2.0
 49
-3.0
 49
4.0
 49
-5.0
  0
LTYPE
  2
RAND3
 70
    64
  3
ランダム線3
 72
    65
 73
     4
 40
18.0
 49
3.0
 49
-4.0
 49
5.0
 49
-6.0
  0
LTYPE
  2
RAND4
 70
    64
  3
ランダム線4
 72
    65
 73
     4
 40
22.0
 49
4.0
 49
-5.0
 49
6.0
 49
-7.0
  0
LTYPE
  2
RAND5
 70
    64
  3
ランダム線5
 72
    65
 73
     4
 40
26.0
 49
5.0
 49
-6.0
 49
7.0
 49
-8.0
  0
LTYPE
  2
LONG1
 70
    64
  3
----------  --  ----------  --  
 72
    65
 73
     4
 40
40.0
 49
32.5
 49
-2.5
 49
2.5
 49
-2.5
  0
LTYPE
  2
LONG2
 70
    64
  3
--------  -  -  --------  -  -  
 72
    65
 73
     6
 40
40.0
 49
30.0
 49
-2.5
 49
1.25
 49
-2.5
 49
1.25
 49
-2.5
  0
LTYPE
  2
LONG3
 70
    64
  3
+++++++++++++++..+++++++++++++++
 72
    65
 73
     2
 40
40.0
 49
37.5
 49
-2.5
  0
LTYPE
  2
LONG4
 70
    64
  3
+++++++++++++++..+++++++++++++++
 72
    65
 73
     2
 40
80.0
 49
75.0
 49
-5.0
  0
LTYPE
  2
LONG5
 70
    64
  3
----------  --  ----------  --  
 72
    65
 73
     4
 40
60.0
 49
37.5
 49
-7.5
 49
7.5
 49
-7.5
  0
LTYPE
  2
dashed
 70
   64
  3
-------   -------------   ------
 72
   65
 73
    2
 40
7.5
 49
6
 49
-1.5
  0
LTYPE
  2
dashed_spaced
 70
   64
  3
----        --------        ----
 72
   65
 73
    2
 40
12
 49
6
 49
-6
  0
LTYPE
  2
long_dashed_dotted
 70
   64
  3
------------- --- --------------
 72
   65
 73
    4
 40
15.25
 49
12
 49
-1.5
 49
0.25
 49
-1.5
  0
LTYPE
  2
long_dashed_double-dotted
 70
   64
  3
----------- --- --- ------------
 72
   65
 73
    6
 40
17
 49
12
 49
-1.5
 49
0.25
 49
-1.5
 49
0.25
 49
-1.5
  0
LTYPE
  2
long_dashed_triplicate-dotted
 70
   64
  3
--------- --- --- --- ----------
 72
   65
 73
    8
 40
18.75
 49
12
 49
-1.5
 49
0.25
 49
-1.5
 49
0.25
 49
-1.5
 49
0.25
 49
-1.5
  0
LTYPE
  2
dotted
 70
   64
  3
   -       -       -       -    
 72
   65
 73
    2
 40
1.75
 49
0.25
 49
-1.5
  0
LTYPE
  2
chain
 70
   64
  3
-------------- -- --------------
 72
   65
 73
    4
 40
18.5
 49
12
 49
-1.5
 49
3.5
 49
-1.5
  0
LTYPE
  2
chain_double_dash
 70
   64
  3
------------ -- -- -------------
 72
   65
 73
    6
 40
23.5
 49
12
 49
-1.5
 49
3.5
 49
-1.5
 49
3.5
 49
-1.5
  0
LTYPE
  2
dashed_dotted
 70
   64
  3
-----------     -     ----------
 72
   65
 73
    4
 40
9.25
 49
6
 49
-1.5
 49
0.25
 49
-1.5
  0
LTYPE
  2
double-dashed_dotted
 70
   64
  3
------   -----------   -   -----
 72
   65
 73
    6
 40
16.75
 49
6
 49
-1.5
 49
6
 49
-1.5
 49
0.25
 49
-1.5
  0
LTYPE
  2
dashed_double-dotted
 70
   64
  3
---------    -    -    ---------
 72
   65
 73
    6
 40
11
 49
6
 49
-1.5
 49
0.25
 49
-1.5
 49
0.25
 49
-1.5
  0
LTYPE
  2
double-dashed_double-dotted
 70
   64
  3
-----   ---------   -   -   ----
 72
   65
 73
    8
 40
18.5
 49
6
 49
-1.5
 49
6
 49
-1.5
 49
0.25
 49
-1.5
 49
0.25
 49
-1.5
  0
LTYPE
  2
dashed_triplicate-dotted
 70
   64
  3
-------    -    -    -    ------
 72
   65
 73
    8
 40
12.75
 49
6
 49
-1.5
 49
0.25
 49
-1.5
 49
0.25
 49
-1.5
 49
0.25
 49
-1.5
  0
LTYPE
  2
double-dashed_triplicate-dotted
 70
   64
  3
-----  ---------  -  -  -  -----
 72
   65
 73
   10
 40
20.25
 49
6
 49
-1.5
 49
6
 49
-1.5
 49
0.25
 49
-1.5
 49
0.25
 49
-1.5
 49
0.25
 49
-1.5
  0
LTYPE
  2
undefined
 70
   64
  3
--------------------------------
 72
   65
 73
    0
 40
0
  0
ENDTAB
  0
TABLE
  2
STYLE
  5
3
100
AcDbSymbolTable
 70
     1
  0
STYLE
  5
10
100
AcDbSymbolTableRecord
100
AcDbTextStyleTableRecord
  2
STANDARD
 70
     0
 40
0.0
 41
1.0
 50
0.0
 71
     0
 42
0.2
  3
txt
  4
bigfont.shx
  0
STYLE
  5
26
100
AcDbSymbolTableRecord
100
AcDbTextStyleTableRecord
  2
TATEGAKI
 70
    68
 40
0.0
 41
1.0
 50
0.0
 71
     0
 42
1.0
  3
txt
  4
bigfont.shx
  0
ENDTAB
  0
TABLE
  2
LAYER
 70
    9
  0
LAYER
  2
_0-0_計極細
 70
   64
 62
    7
  6
CONTINUOUS
  0
LAYER
  2
_0-1_計細線
 70
   64
 62
    7
  6
CONTINUOUS
  0
LAYER
  2
_0-5_寸法線
 70
   64
 62
    7
  6
CONTINUOUS
  0
LAYER
  2
_0-7_枠細線
 70
   64
 62
    7
  6
CONTINUOUS
  0
LAYER
  2
_0-8_枠中線
 70
   64
 62
    7
  6
CONTINUOUS
  0
LAYER
  2
_0-a_極細3
 70
   64
 62
    7
  6
CONTINUOUS
  0
LAYER
  2
_0-b_細線3
 70
   64
 62
    7
  6
CONTINUOUS
  0
LAYER
  2
_0-d_寸法3
 70
   64
 62
    7
  6
CONTINUOUS
  0
LAYER
  2
ADD_LINE
 70
   64
 62
    7
  6
CONTINUOUS
  0
ENDTAB
  0
ENDSEC
  0
SECTION
  2
BLOCKS
  0
ENDSEC
  0
SECTION
  2
ENTITIES
  0
LINE
  8
_0-8_枠中線
  6
CONTINUOUS
 62
    5
 10
96
 20
96
 11
96
 21
1536
  0
LINE
  8
_0-8_枠中線
  6
CONTINUOUS
 62
    5
 10
96
 20
1536
 11
2280
 21
1536
  0
LINE
  8
_0-8_枠中線
  6
CONTINUOUS
 62
    5
 10
2280
 20
1536
 11
2280
 21
96
  0
LINE
  8
_0-8_枠中線
  6
CONTINUOUS
 62
    5
 10
2280
 20
96
 11
96
 21
96
  0
LINE
  8
_0-7_枠細線
  6
CONTINUOUS
 62
    5
 10
1896
 20
288
 11
1896
 21
160
  0
TEXT
  8
_0-7_枠細線
 62
    5
 10
1500
 20
156
 40
28
 41
1
 50
0
  1
備考
  7
TATEGAKI
  0
TEXT
  8
_0-7_枠細線
 62
    5
 10
1500
 20
220
 40
28
 41
1
 50
0
  1
品番
  7
TATEGAKI
  0
TEXT
  8
_0-7_枠細線
 62
    5
 10
1500
 20
284
 40
28
 41
1
 50
0
  1
品名
  7
TATEGAKI
  0
LINE
  8
_0-7_枠細線
  6
CONTINUOUS
 62
    5
 10
1520
 20
288
 11
1520
 21
96
  0
LINE
  8
_0-7_枠細線
  6
CONTINUOUS
 62
    5
 10
1992
 20
288
 11
1992
 21
96
  0
TEXT
  8
_0-7_枠細線
 62
    5
 10
1908
 20
256
 40
24
 41
1
 50
0
  1
縮　尺
  0
LINE
  8
_0-7_枠細線
  6
CONTINUOUS
 62
    5
 10
1896
 20
248
 11
1992
 21
248
  0
LINE
  8
_0-7_枠細線
  6
CONTINUOUS
 62
    5
 10
1992
 20
160
 11
1480
 21
160
  0
LINE
  8
_0-7_枠細線
  6
CONTINUOUS
 62
    5
 10
2280
 20
144
 11
1992
 21
144
  0
LINE
  8
_0-7_枠細線
  6
CONTINUOUS
 62
    5
 10
1992
 20
192
 11
2280
 21
192
  0
LINE
  8
_0-7_枠細線
  6
CONTINUOUS
 62
    5
 10
2280
 20
224
 11
1992
 21
224
  0
TEXT
  8
_0-7_枠細線
 62
    5
 10
2008
 20
236
 40
40
 41
0.8
 50
0
  1
株式会社シマブン
  0
TEXT
  8
_0-7_枠細線
 62
    5
 10
2004
 20
96
 40
24
 41
1
 50
0
  1
年月日
  0
TEXT
  8
_0-7_枠細線
 62
    5
 10
2004
 20
120
 40
24
 41
1
 50
0
  1
作　成
  0
TEXT
  8
_0-7_枠細線
 62
    5
 10
2010
 20
196
 40
24
 41
1
 50
0
  1
承 認
  0
LINE
  8
_0-7_枠細線
  6
CONTINUOUS
 62
    5
 10
2088
 20
224
 11
2088
 21
96
  0
TEXT
  8
_0-7_枠細線
 62
    5
 10
2106
 20
196
 40
24
 41
1
 50
0
  1
検 図
  0
LINE
  8
_0-7_枠細線
  6
CONTINUOUS
 62
    5
 10
2184
 20
224
 11
2184
 21
144
  0
TEXT
  8
_0-7_枠細線
 62
    5
 10
2200
 20
152
 40
32
 41
1
 50
0
  1
藤戸
  0
TEXT
  8
_0-7_枠細線
 62
    5
 10
2202
 20
196
 40
24
 41
1
 50
0
  1
設 計
  0
TEXT
  8
_0-7_枠細線
 62
    5
 10
1536.7999999999997
 20
111.99999999999989
 40
32
 41
0.5999999999999998
 50
0
  1
品番・色については表参照のこと
  0
TEXT
  8
_0-7_枠細線
 62
    5
 10
2008
 20
152
 40
32
 41
1
 50
0
  1
隠塚
  0
TEXT
  8
_0-7_枠細線
 62
    5
 10
2104
 20
152
 40
32
 41
1
 50
0
  1
渋田
  0
TEXT
  8
_0-7_枠細線
 62
    5
 10
2096
 20
108
 40
24
 41
0.6666666666666666
 50
0
  1
２０１１年０６月２４日
  0
LINE
  8
_0-8_枠中線
  6
CONTINUOUS
 62
    5
 10
1480
 20
288
 11
1480
 21
96
  0
LINE
  8
_0-8_枠中線
  6
CONTINUOUS
 62
    5
 10
2280
 20
288
 11
1480
 21
288
  0
LINE
  8
_0-7_枠細線
  6
CONTINUOUS
 62
    5
 10
1896
 20
224
 11
1480
 21
224
  0
TEXT
  8
_0-7_枠細線
 62
    5
 10
1910.4000000000001
 20
188
 40
32
 41
0.6999999999999999
 50
0
  1
１：８
  0
TEXT
  8
_0-7_枠細線
 62
    5
 10
1536.7999999999997
 20
176
 40
32.000000000000014
 41
0.5999999999999998
 50
0
  1
ＨＲＦＺ－１５Ｌ１０００～１８００
  0
TEXT
  8
_0-7_枠細線
 62
    5
 10
1536.7999999999993
 20
239.24855752183862
 40
32
 41
0.5
 50
0
  1
排水ユニット 樹脂グレーチング 深型＋防水マス
  0
TEXT
  8
_0-7_枠細線
 62
    5
 10
1940.263521903112
 20
1249.0511188404482
 40
24
 41
0.7999999999999998
 50
0
  1
Ｌ
  0
TEXT
  8
_0-7_枠細線
 62
    5
 10
1783.4635219031118
 20
1249.0511188404482
 40
24
 41
0.7999999999999998
 50
0
  1
品　　番
  0
LINE
  8
_0-7_枠細線
  6
CONTINUOUS
 62
    5
 10
1733.8635219031123
 20
1281.051118840448
 11
2229.8635219031094
 21
1281.051118840448
  0
LINE
  8
_0-7_枠細線
  6
CONTINUOUS
 62
    5
 10
1733.8635219031123
 20
1241.0511188404482
 11
2229.8635219031094
 21
1241.0511188404482
  0
LINE
  8
_0-7_枠細線
  6
CONTINUOUS
 62
    5
 10
1733.8635219031123
 20
1201.0511188404485
 11
2229.8635219031094
 21
1201.0511188404485
  0
LINE
  8
_0-7_枠細線
  6
CONTINUOUS
 62
    5
 10
1733.8635219031123
 20
1161.0511188404485
 11
2229.8635219031094
 21
1161.0511188404485
  0
LINE
  8
_0-7_枠細線
  6
CONTINUOUS
 62
    5
 10
1733.8635219031123
 20
1121.0511188404485
 11
2229.8635219031094
 21
1121.0511188404485
  0
LINE
  8
_0-7_枠細線
  6
CONTINUOUS
 62
    5
 10
1733.8635219031123
 20
1081.0511188404485
 11
2229.8635219031094
 21
1081.0511188404485
  0
TEXT
  8
_0-7_枠細線
 62
    5
 10
1744.9997564710068
 20
1289.051118840448
 40
28
 41
1
 50
0
  1
品番寸法表
  0
LINE
  8
_0-7_枠細線
  6
CONTINUOUS
 62
    5
 10
1733.8635219031123
 20
1281.051118840448
 11
1733.8635219031123
 21
1081.0511188404485
  0
LINE
  8
_0-7_枠細線
  6
CONTINUOUS
 62
    5
 10
1909.8635219031123
 20
1281.051118840448
 11
1909.8635219031123
 21
1081.0511188404485
  0
LINE
  8
_0-7_枠細線
  6
CONTINUOUS
 62
    5
 10
1989.8635219031105
 20
1281.051118840448
 11
1989.8635219031105
 21
1081.0511188404485
  0
LINE
  8
_0-7_枠細線
  6
CONTINUOUS
 62
    5
 10
2069.8635219031103
 20
1281.051118840448
 11
2069.8635219031103
 21
1081.0511188404485
  0
LINE
  8
_0-7_枠細線
  6
CONTINUOUS
 62
    5
 10
2149.8635219031075
 20
1281.051118840448
 11
2149.8635219031075
 21
1081.0511188404485
  0
LINE
  8
_0-7_枠細線
  6
CONTINUOUS
 62
    5
 10
2229.8635219031075
 20
1281.051118840448
 11
2229.8635219031075
 21
1081.0511188404485
  0
TEXT
  8
_0-7_枠細線
 62
    5
 10
2020.263521903111
 20
1249.0511188404482
 40
24
 41
0.7999999999999998
 50
0
  1
Ａ
  0
TEXT
  8
_0-7_枠細線
 62
    5
 10
2100.263521903109
 20
1249.0511188404482
 40
24
 41
0.7999999999999998
 50
0
  1
Ｂ
  0
TEXT
  8
_0-7_枠細線
 62
    5
 10
2180.2635219031081
 20
1249.0511188404482
 40
24
 41
0.7999999999999998
 50
0
  1
Ｃ
  0
TEXT
  8
_0-7_枠細線
 62
    5
 10
1925.8635219031114
 20
1169.0511188404485
 40
24
 41
1
 50
0
  1
1194
  0
TEXT
  8
_0-7_枠細線
 62
    5
 10
1937.8635219031114
 20
1209.0511188404489
 40
24
 41
1
 50
0
  1
994
  0
TEXT
  8
_0-7_枠細線
 62
    5
 10
1925.8635219031114
 20
1129.0511188404485
 40
24
 41
1
 50
0
  1
1494
  0
TEXT
  8
_0-7_枠細線
 62
    5
 10
2017.8635219031105
 20
1209.0511188404489
 40
24
 41
1
 50
0
  1
970
  0
TEXT
  8
_0-7_枠細線
 62
    5
 10
2005.8635219031105
 20
1169.0511188404485
 40
24
 41
1
 50
0
  1
1170
  0
TEXT
  8
_0-7_枠細線
 62
    5
 10
2005.8635219031105
 20
1129.0511188404485
 40
24
 41
1
 50
0
  1
1470
  0
TEXT
  8
_0-7_枠細線
 62
    5
 10
2097.8635219031094
 20
1209.0511188404489
 40
24
 41
1
 50
0
  1
967
  0
TEXT
  8
_0-7_枠細線
 62
    5
 10
2085.8635219031094
 20
1169.0511188404485
 40
24
 41
1
 50
0
  1
1167
  0
TEXT
  8
_0-7_枠細線
 62
    5
 10
2073.8635219031094
 20
1129.0511188404485
 40
24
 41
1
 50
0
  1
733×2
  0
TEXT
  8
_0-7_枠細線
 62
    5
 10
2177.8635219031075
 20
1209.0511188404489
 40
24
 41
1
 50
0
  1
914
  0
TEXT
  8
_0-7_枠細線
 62
    5
 10
2165.8635219031075
 20
1169.0511188404485
 40
24
 41
1
 50
0
  1
1114
  0
TEXT
  8
_0-7_枠細線
 62
    5
 10
2165.8635219031075
 20
1129.0511188404485
 40
24
 41
1
 50
0
  1
1414
  0
TEXT
  8
_0-7_枠細線
 62
    5
 10
1925.8635219031114
 20
1089.0511188404485
 40
24
 41
1
 50
0
  1
1794
  0
TEXT
  8
_0-7_枠細線
 62
    5
 10
2005.8635219031105
 20
1089.0511188404485
 40
24
 41
1
 50
0
  1
1770
  0
TEXT
  8
_0-7_枠細線
 62
    5
 10
2073.8635219031094
 20
1089.0511188404485
 40
24
 41
1
 50
0
  1
883×2
  0
TEXT
  8
_0-7_枠細線
 62
    5
 10
2165.8635219031075
 20
1089.0511188404485
 40
24
 41
1
 50
0
  1
1714
  0
TEXT
  8
_0-7_枠細線
 62
    5
 10
1737.8635219031123
 20
1209.0511188404485
 40
24
 41
0.9333333333333331
 50
0
  1
HRFZ-15L1000-○
  0
TEXT
  8
_0-7_枠細線
 62
    5
 10
1737.8635219031123
 20
1169.0511188404482
 40
24
 41
0.9333333333333331
 50
0
  1
HRFZ-15L1200-○
  0
TEXT
  8
_0-7_枠細線
 62
    5
 10
1737.8635219031123
 20
1129.0511188404482
 40
24
 41
0.9333333333333331
 50
0
  1
HRFZ-15L1500-○
  0
TEXT
  8
_0-7_枠細線
 62
    5
 10
1737.8635219031123
 20
1089.0511188404482
 40
24
 41
0.9333333333333331
 50
0
  1
HRFZ-15L1800-○
  0
TEXT
  8
_0-7_枠細線
 62
    5
 10
1783.4635219031127
 20
980.0525315193529
 40
24
 41
0.7999999999999998
 50
0
  1
品　　番
  0
LINE
  8
_0-7_枠細線
  6
CONTINUOUS
 62
    5
 10
1733.8635219031132
 20
1012.0525315193529
 11
1733.8635219031132
 21
812.0525315193529
  0
LINE
  8
_0-7_枠細線
  6
CONTINUOUS
 62
    5
 10
1909.8635219031132
 20
1012.0525315193529
 11
1909.8635219031132
 21
812.0525315193529
  0
LINE
  8
_0-7_枠細線
  6
CONTINUOUS
 62
    5
 10
1989.8635219031114
 20
1012.0525315193529
 11
1989.8635219031114
 21
812.0525315193529
  0
LINE
  8
_0-7_枠細線
  6
CONTINUOUS
 62
    5
 10
2069.8635219031112
 20
1012.0525315193529
 11
2069.8635219031112
 21
812.0525315193529
  0
TEXT
  8
_0-7_枠細線
 62
    5
 10
1741.7946505818356
 20
1020.0525315193529
 40
28
 41
1
 50
0
  1
アンカー位置寸法表
  0
TEXT
  8
_0-7_枠細線
 62
    5
 10
1937.8635219031123
 20
940.05253151935358
 40
24
 41
1
 50
0
  1
924
  0
TEXT
  8
_0-7_枠細線
 62
    5
 10
1925.8635219031123
 20
900.0525315193529
 40
24
 41
1
 50
0
  1
1124
  0
TEXT
  8
_0-7_枠細線
 62
    5
 10
1925.8635219031123
 20
860.0525315193529
 40
24
 41
1
 50
0
  1
1424
  0
TEXT
  8
_0-7_枠細線
 62
    5
 10
1925.8635219031123
 20
820.0525315193529
 40
24
 41
1
 50
0
  1
1724
  0
LINE
  8
_0-7_枠細線
  6
CONTINUOUS
 62
    5
 10
2149.8635219031084
 20
1012.0525315193529
 11
2149.8635219031084
 21
812.0525315193529
  0
LINE
  8
_0-7_枠細線
  6
CONTINUOUS
 62
    5
 10
1733.8635219031132
 20
1012.0525315193529
 11
2149.8635219031084
 21
1012.0525315193529
  0
LINE
  8
_0-7_枠細線
  6
CONTINUOUS
 62
    5
 10
1733.8635219031132
 20
972.0525315193529
 11
2149.8635219031084
 21
972.0525315193529
  0
LINE
  8
_0-7_枠細線
  6
CONTINUOUS
 62
    5
 10
1733.8635219031132
 20
932.0525315193529
 11
2149.8635219031084
 21
932.0525315193529
  0
LINE
  8
_0-7_枠細線
  6
CONTINUOUS
 62
    5
 10
1733.8635219031132
 20
892.0525315193529
 11
2149.8635219031084
 21
892.0525315193529
  0
LINE
  8
_0-7_枠細線
  6
CONTINUOUS
 62
    5
 10
1733.8635219031132
 20
852.0525315193529
 11
2149.8635219031084
 21
852.0525315193529
  0
LINE
  8
_0-7_枠細線
  6
CONTINUOUS
 62
    5
 10
1733.8635219031132
 20
812.0525315193529
 11
2149.8635219031084
 21
812.0525315193529
  0
TEXT
  8
_0-7_枠細線
 62
    5
 10
2000.8667130838433
 20
860.0525315193529
 40
24
 41
1
 50
0
  1
474.7
  0
TEXT
  8
_0-7_枠細線
 62
    5
 10
2000.606003287877
 20
940.0525315193529
 40
24
 41
1
 50
0
  1
462
  0
TEXT
  8
_0-7_枠細線
 62
    5
 10
2000.606003287877
 20
900.0525315193529
 40
24
 41
1
 50
0
  1
562
  0
TEXT
  8
_0-7_枠細線
 62
    5
 10
2000.606003287877
 20
820.0525315193529
 40
24
 41
1
 50
0
  1
431
  0
TEXT
  8
_0-7_枠細線
 62
    5
 10
2104.0718189730133
 20
940.05253151935358
 40
24
 41
1
 50
0
  1
2
  0
TEXT
  8
_0-7_枠細線
 62
    5
 10
2104.0718189730133
 20
900.0525315193529
 40
24
 41
1
 50
0
  1
2
  0
TEXT
  8
_0-7_枠細線
 62
    5
 10
2104.0718189730133
 20
860.0525315193529
 40
24
 41
1
 50
0
  1
3
  0
TEXT
  8
_0-7_枠細線
 62
    5
 10
2104.0718189730133
 20
820.0525315193529
 40
24
 41
1
 50
0
  1
4
  0
TEXT
  8
_0-7_枠細線
 62
    5
 10
1940.2635219031129
 20
980.0525315193529
 40
24
 41
0.7999999999999998
 50
0
  1
Ｄ
  0
TEXT
  8
_0-7_枠細線
 62
    5
 10
2021.3318905328354
 20
980.0525315193529
 40
24
 41
0.7999999999999998
 50
0
  1
Ｅ
  0
TEXT
  8
_0-7_枠細線
 62
    5
 10
2101.1005782806305
 20
980.0525315193529
 40
24
 41
0.7999999999999998
 50
0
  1
Ｎ
  0
TEXT
  8
_0-7_枠細線
 62
    5
 10
1742.2101885697805
 20
779.83602330431677
 40
24
 41
1
 50
0
  1
※ ○に色記号を付記
  0
TEXT
  8
_0-7_枠細線
 62
    5
 10
1737.8635219031132
 20
940.05253151935324
 40
24
 41
0.9333333333333331
 50
0
  1
HRFZ-15L1000-○
  0
TEXT
  8
_0-7_枠細線
 62
    5
 10
1737.8635219031132
 20
900.0525315193529
 40
24
 41
0.9333333333333331
 50
0
  1
HRFZ-15L1200-○
  0
TEXT
  8
_0-7_枠細線
 62
    5
 10
1737.8635219031132
 20
860.0525315193529
 40
24
 41
0.9333333333333331
 50
0
  1
HRFZ-15L1500-○
  0
TEXT
  8
_0-7_枠細線
 62
    5
 10
1737.8635219031132
 20
820.0525315193529
 40
24
 41
0.9333333333333331
 50
0
  1
HRFZ-15L1800-○
  0
TEXT
  8
_0-7_枠細線
 62
    5
 10
1746.6635219031125
 20
682.79037476040639
 40
24
 41
0.8000000000000001
 50
0
  1
記号
  0
TEXT
  8
_0-7_枠細線
 62
    5
 10
1852.2635219031135
 20
682.79037476040639
 40
24
 41
0.8000000000000001
 50
0
  1
色
  0
LINE
  8
_0-7_枠細線
  6
CONTINUOUS
 62
    5
 10
1733.8635219031128
 20
434.79037476040673
 11
2037.8635219031132
 21
434.79037476040673
  0
LINE
  8
_0-7_枠細線
  6
CONTINUOUS
 62
    5
 10
1733.8635219031128
 20
474.79037476040673
 11
2037.8635219031132
 21
474.79037476040673
  0
LINE
  8
_0-7_枠細線
  6
CONTINUOUS
 62
    5
 10
1733.8635219031128
 20
514.79037476040673
 11
2037.8635219031132
 21
514.79037476040673
  0
LINE
  8
_0-7_枠細線
  6
CONTINUOUS
 62
    5
 10
1733.8635219031128
 20
554.79037476040673
 11
2037.8635219031132
 21
554.79037476040673
  0
LINE
  8
_0-7_枠細線
  6
CONTINUOUS
 62
    5
 10
1733.8635219031128
 20
594.79037476040673
 11
2037.8635219031132
 21
594.79037476040673
  0
LINE
  8
_0-7_枠細線
  6
CONTINUOUS
 62
    5
 10
1733.8635219031128
 20
634.79037476040673
 11
2037.8635219031132
 21
634.79037476040673
  0
LINE
  8
_0-7_枠細線
  6
CONTINUOUS
 62
    5
 10
1733.8635219031128
 20
674.79037476040639
 11
2037.8635219031132
 21
674.79037476040639
  0
LINE
  8
_0-7_枠細線
  6
CONTINUOUS
 62
    5
 10
1733.8635219031128
 20
714.79037476040639
 11
2037.8635219031132
 21
714.79037476040639
  0
LINE
  8
_0-7_枠細線
  6
CONTINUOUS
 62
    5
 10
1733.8635219031128
 20
394.79037476040639
 11
2037.8635219031132
 21
394.79037476040639
  0
TEXT
  8
_0-7_枠細線
 62
    5
 10
1953.0635219031142
 20
682.79037476040639
 40
24
 41
0.8000000000000001
 50
0
  1
備　考
  0
TEXT
  8
_0-7_枠細線
 62
    5
 10
1752.5997564710067
 20
722.79037476040639
 40
28
 41
1
 50
0
  1
色記号表
  0
LINE
  8
_0-7_枠細線
  6
CONTINUOUS
 62
    5
 10
1733.8635219031128
 20
354.790374760406
 11
2037.8635219031132
 21
354.790374760406
  0
LINE
  8
_0-7_枠細線
  6
CONTINUOUS
 62
    5
 10
1733.8635219031128
 20
314.79037476040571
 11
2037.8635219031132
 21
314.79037476040571
  0
LINE
  8
_0-7_枠細線
  6
CONTINUOUS
 62
    5
 10
1733.8635219031128
 20
714.79037476040639
 11
1733.8635219031128
 21
314.79037476040571
  0
LINE
  8
_0-7_枠細線
  6
CONTINUOUS
 62
    5
 10
1797.8635219031135
 20
714.79037476040639
 11
1797.8635219031135
 21
314.79037476040571
  0
LINE
  8
_0-7_枠細線
  6
CONTINUOUS
 62
    5
 10
1925.8635219031132
 20
714.79037476040639
 11
1925.8635219031132
 21
314.79037476040571
  0
LINE
  8
_0-7_枠細線
  6
CONTINUOUS
 62
    5
 10
2037.8635219031135
 20
714.79037476040639
 11
2037.8635219031132
 21
314.79037476040571
  0
LINE
  8
_0-7_枠細線
  6
CONTINUOUS
 62
    5
 10
1722.5230167940047
 20
362.81012100960703
 11
1710.5230167940047
 21
386.81012100960703
  0
LINE
  8
_0-7_枠細線
  6
CONTINUOUS
 62
    5
 10
1698.5230167940047
 20
362.81012100960703
 11
1722.5230167940047
 21
362.81012100960703
  0
LINE
  8
_0-7_枠細線
  6
CONTINUOUS
 62
    5
 10
1710.5230167940047
 20
386.81012100960703
 11
1698.5230167940047
 21
362.81012100960703
  0
TEXT
  8
_0-7_枠細線
 62
    5
 10
1702.3072588230416
 20
361.2920090658472
 40
20
 41
0.8
 50
0
  1
４
  0
LINE
  8
_0-7_枠細線
  6
CONTINUOUS
 62
    5
 10
2280
 20
1508
 11
1424
 21
1508
  0
TEXT
  8
_0-7_枠細線
 62
    5
 10
1432
 20
1511.9999999999995
 40
20
 41
1
 50
0
  1
記号
  0
TEXT
  8
_0-7_枠細線
 62
    5
 10
1595
 20
1512
 40
20
 41
1
 50
0
  1
訂　 正　 記　 事
  0
TEXT
  8
_0-7_枠細線
 62
    5
 10
1890
 20
1512
 40
20
 41
1
 50
0
  1
訂 正 年 月 日
  0
TEXT
  8
_0-7_枠細線
 62
    5
 10
2090
 20
1512
 40
20
 41
1
 50
0
  1
備　　　　　考
  0
LINE
  8
_0-7_枠細線
  6
CONTINUOUS
 62
    5
 10
2280
 20
1480
 11
1424
 21
1480
  0
TEXT
  8
_0-7_枠細線
 62
    5
 10
1502.1605925925924
 20
1484
 40
20
 41
1
 50
0
  1
品番・色記号変更
  0
TEXT
  8
_0-7_枠細線
 62
    5
 10
1888
 20
1484
 40
20
 41
0.7199999999999999
 50
0
  1
２０１３．０３．１３
  0
LINE
  8
_0-7_枠細線
  6
CONTINUOUS
 62
    5
 10
2280
 20
1452
 11
1424
 21
1452
  0
LINE
  8
_0-7_枠細線
  6
CONTINUOUS
 62
    5
 10
2280
 20
1424
 11
1424
 21
1424
  0
TEXT
  8
_0-7_枠細線
 62
    5
 10
1502.1605925925924
 20
1428
 40
20
 41
1
 50
0
  1
クロスバーピッチ変更
  0
TEXT
  8
_0-7_枠細線
 62
    5
 10
1888
 20
1428
 40
20
 41
0.7199999999999999
 50
0
  1
２０１５．１１．２０
  0
TEXT
  8
_0-7_枠細線
 62
    5
 10
1443.7842420290369
 20
1425.8165307621866
 40
20
 41
0.8
 50
0
  1
２
  0
LINE
  8
_0-7_枠細線
  6
CONTINUOUS
 62
    5
 10
1464
 20
1426.3077343547952
 11
1452
 21
1450.3077343547952
  0
LINE
  8
_0-7_枠細線
  6
CONTINUOUS
 62
    5
 10
1440
 20
1426.3077343547952
 11
1464
 21
1426.3077343547952
  0
LINE
  8
_0-7_枠細線
  6
CONTINUOUS
 62
    5
 10
1452
 20
1450.3077343547952
 11
1440
 21
1426.3077343547952
  0
LINE
  8
_0-7_枠細線
  6
CONTINUOUS
 62
    5
 10
2280
 20
1396
 11
1424
 21
1396
  0
TEXT
  8
_0-7_枠細線
 62
    5
 10
1443.7842420290369
 20
1397.4314401305048
 40
20
 41
0.8
 50
0
  1
３
  0
TEXT
  8
_0-7_枠細線
 62
    5
 10
1888
 20
1400
 40
20
 41
0.7199999999999999
 50
0
  1
２０１７．０４．０１
  0
LINE
  8
_0-7_枠細線
  6
CONTINUOUS
 62
    5
 10
1464
 20
1370.307734354795
 11
1452
 21
1394.307734354795
  0
LINE
  8
_0-7_枠細線
  6
CONTINUOUS
 62
    5
 10
1440
 20
1370.307734354795
 11
1464
 21
1370.307734354795
  0
LINE
  8
_0-7_枠細線
  6
CONTINUOUS
 62
    5
 10
1452
 20
1394.307734354795
 11
1440
 21
1370.307734354795
  0
TEXT
  8
_0-7_枠細線
 62
    5
 10
1888
 20
1372
 40
20
 41
0.7199999999999999
 50
0
  1
２０１７．０４．０１
  0
TEXT
  8
_0-7_枠細線
 62
    5
 10
1502.1605925925924
 20
1372
 40
20
 41
1
 50
0
  1
ブラウン色（Ｃ）追加
  0
LINE
  8
_0-7_枠細線
  6
CONTINUOUS
 62
    5
 10
2280
 20
1368
 11
1424
 21
1368
  0
LINE
  8
_0-7_枠細線
  6
CONTINUOUS
 62
    5
 10
1452
 20
1422.307734354795
 11
1440
 21
1398.307734354795
  0
LINE
  8
_0-7_枠細線
  6
CONTINUOUS
 62
    5
 10
1440
 20
1398.307734354795
 11
1464
 21
1398.307734354795
  0
LINE
  8
_0-7_枠細線
  6
CONTINUOUS
 62
    5
 10
1464
 20
1398.307734354795
 11
1452
 21
1422.307734354795
  0
TEXT
  8
_0-7_枠細線
 62
    5
 10
1443.7842420290369
 20
1368.789622411035
 40
20
 41
0.8
 50
0
  1
４
  0
TEXT
  8
_0-7_枠細線
 62
    5
 10
1502.1605925925924
 20
1400
 40
20
 41
1
 50
0
  1
取外具形状変更
  0
LINE
  8
_0-7_枠細線
  6
CONTINUOUS
 62
    5
 10
2280
 20
1340
 11
1424
 21
1340
  0
LINE
  8
_0-7_枠細線
  6
CONTINUOUS
 62
    5
 10
1452
 20
1366.307734354795
 11
1440
 21
1342.307734354795
  0
LINE
  8
_0-7_枠細線
  6
CONTINUOUS
 62
    5
 10
1440
 20
1342.307734354795
 11
1464
 21
1342.307734354795
  0
LINE
  8
_0-7_枠細線
  6
CONTINUOUS
 62
    5
 10
1464
 20
1342.307734354795
 11
1452
 21
1366.307734354795
  0
TEXT
  8
_0-7_枠細線
 62
    5
 10
1443.7842420290369
 20
1341.4314401305048
 40
20
 41
0.8
 50
0
  1
５
  0
LINE
  8
_0-7_枠細線
  6
CONTINUOUS
 62
    5
 10
1424
 20
1340
 11
1424
 21
1535.9999999999991
  0
LINE
  8
_0-7_枠細線
  6
CONTINUOUS
 62
    5
 10
1480
 20
1340
 11
1480
 21
1535.9999999999991
  0
LINE
  8
_0-7_枠細線
  6
CONTINUOUS
 62
    5
 10
1880
 20
1340
 11
1880
 21
1535.9999999999991
  0
LINE
  8
_0-7_枠細線
  6
CONTINUOUS
 62
    5
 10
2040
 20
1340
 11
2040
 21
1535.9999999999991
  0
LINE
  8
_0-7_枠細線
  6
CONTINUOUS
 62
    5
 10
1464
 20
1454.3077343547952
 11
1452
 21
1478.3077343547952
  0
LINE
  8
_0-7_枠細線
  6
CONTINUOUS
 62
    5
 10
1440
 20
1454.3077343547952
 11
1464
 21
1454.3077343547952
  0
LINE
  8
_0-7_枠細線
  6
CONTINUOUS
 62
    5
 10
1452
 20
1478.3077343547952
 11
1440
 21
1454.3077343547952
  0
TEXT
  8
_0-7_枠細線
 62
    5
 10
1443.7842420290369
 20
1453.8165307621866
 40
20
 41
0.8
 50
0
  1
１
  0
TEXT
  8
_0-7_枠細線
 62
    5
 10
1502.1605925925924
 20
1456
 40
20
 41
1
 50
0
  1
アンカー材追加
  0
TEXT
  8
_0-7_枠細線
 62
    5
 10
1888
 20
1456
 40
20
 41
0.7199999999999999
 50
0
  1
２０１４．０４．０１
  0
TEXT
  8
_0-7_枠細線
 62
    5
 10
1502.1605925925924
 20
1344
 40
20
 41
1
 50
0
  1
取外具形状変更
  0
TEXT
  8
_0-7_枠細線
 62
    5
 10
1888
 20
1344
 40
20
 41
0.7199999999999999
 50
0
  1
２０２１．０５．０６
  0
LINE
  8
_0-1_計細線
  6
CONTINUOUS
 62
    3
 10
350.45451693352993
 20
1031.7537856296715
 11
350.45451693352993
 21
1175.7537856296715
  0
LINE
  8
_0-1_計細線
  6
CONTINUOUS
 62
    3
 10
350.45451693352993
 20
1175.7537856296715
 11
1344.4545169335299
 21
1175.7537856296715
  0
LINE
  8
_0-1_計細線
  6
CONTINUOUS
 62
    3
 10
1344.4545169335299
 20
1175.7537856296715
 11
1344.4545169335299
 21
1031.7537856296715
  0
LINE
  8
_0-1_計細線
  6
CONTINUOUS
 62
    3
 10
1344.4545169335299
 20
1031.7537856296715
 11
350.45451693352993
 21
1031.7537856296715
  0
LINE
  8
_0-0_計極細
  6
CENTER1
 62
    2
 10
338.1545169335302
 20
1103.7537856296715
 11
1366.4045169335307
 21
1103.7537856296715
  0
ARC
  8
_0-0_計極細
  6
CONTINUOUS
 62
    2
 10
1138.0324850510081
 20
1132.7537856295853
 40
54.312365187078854
 50
327.72737804884275
 51
32.272621951156516
  0
ARC
  8
_0-0_計極細
  6
CONTINUOUS
 62
    2
 10
1229.87654881606
 20
1074.7537856297615
 40
54.312365187078854
 50
147.72737804884292
 51
212.27262195115645
  0
LINE
  8
_0-1_計細線
  6
CONTINUOUS
 62
    3
 10
363.95451693353266
 20
1150.3537856294986
 11
363.95451693353266
 21
1161.7537856294991
  0
LINE
  8
_0-1_計細線
  6
CONTINUOUS
 62
    3
 10
363.95451693353266
 20
1161.7537856294991
 11
1183.9545169335327
 21
1161.7537856294991
  0
LINE
  8
_0-0_計極細
  6
CONTINUOUS
 62
    2
 10
363.95451693353266
 20
1158.5537856294989
 11
1185.8257169172368
 21
1158.5537856294989
  0
LINE
  8
_0-0_計極細
  6
CONTINUOUS
 62
    2
 10
363.95451693353266
 20
1153.5537856294989
 11
1188.2041205856224
 21
1153.5537856294989
  0
LINE
  8
_0-1_計細線
  6
CONTINUOUS
 62
    3
 10
363.95451693353266
 20
1150.3537856294986
 11
1189.4141258599359
 21
1150.3537856294986
  0
LINE
  8
_0-1_計細線
  6
CONTINUOUS
 62
    3
 10
363.95451693353266
 20
1132.8537856292844
 11
363.95451693353266
 21
1144.2537856292849
  0
LINE
  8
_0-1_計細線
  6
CONTINUOUS
 62
    3
 10
363.95451693353266
 20
1144.2537856292849
 11
1191.1133951055797
 21
1144.2537856292849
  0
LINE
  8
_0-0_計極細
  6
CONTINUOUS
 62
    2
 10
363.95451693353266
 20
1141.0537856292847
 11
1191.7069017895217
 21
1141.0537856292847
  0
LINE
  8
_0-0_計極細
  6
CONTINUOUS
 62
    2
 10
363.95451693353266
 20
1136.0537856292847
 11
1192.2445041262702
 21
1136.0537856292847
  0
LINE
  8
_0-1_計細線
  6
CONTINUOUS
 62
    3
 10
363.95451693353266
 20
1132.8537856292844
 11
1192.3447581779421
 21
1132.8537856292844
  0
LINE
  8
_0-1_計細線
  6
CONTINUOUS
 62
    3
 10
363.95451693353266
 20
1080.6537856298307
 11
363.95451693353266
 21
1092.0537856298313
  0
LINE
  8
_0-1_計細線
  6
CONTINUOUS
 62
    3
 10
363.95451693353266
 20
1092.0537856298313
 11
1178.3931241804332
 21
1092.0537856298313
  0
LINE
  8
_0-0_計極細
  6
CONTINUOUS
 62
    2
 10
363.95451693353266
 20
1088.853785629831
 11
1177.4263532757884
 21
1088.853785629831
  0
LINE
  8
_0-0_計極細
  6
CONTINUOUS
 62
    2
 10
363.95451693353266
 20
1083.853785629831
 11
1176.3319598064002
 21
1083.853785629831
  0
LINE
  8
_0-1_計細線
  6
CONTINUOUS
 62
    3
 10
363.95451693353266
 20
1080.6537856298307
 11
1175.8855957571088
 21
1080.6537856298307
  0
LINE
  8
_0-1_計細線
  6
CONTINUOUS
 62
    3
 10
363.95451693353266
 20
1063.2537856291676
 11
363.95451693353266
 21
1074.6537856291682
  0
LINE
  8
_0-1_計細線
  6
CONTINUOUS
 62
    3
 10
363.95451693353266
 20
1074.6537856291682
 11
1175.5642756891273
 21
1074.6537856291682
  0
LINE
  8
_0-0_計極細
  6
CONTINUOUS
 62
    2
 10
363.95451693353266
 20
1071.4537856291679
 11
1175.6645297408515
 21
1071.4537856291679
  0
LINE
  8
_0-0_計極細
  6
CONTINUOUS
 62
    2
 10
363.95451693353266
 20
1066.4537856291679
 11
1176.2021320776842
 21
1066.4537856291679
  0
LINE
  8
_0-1_計細線
  6
CONTINUOUS
 62
    3
 10
363.95451693353266
 20
1063.2537856291676
 11
1176.7956387616816
 21
1063.2537856291676
  0
LINE
  8
_0-1_計細線
  6
CONTINUOUS
 62
    3
 10
363.95451693353266
 20
1045.7537856271204
 11
363.95451693353266
 21
1057.1537856271209
  0
LINE
  8
_0-1_計細線
  6
CONTINUOUS
 62
    3
 10
363.95451693353266
 20
1045.7537856271204
 11
1183.9545169335327
 21
1045.7537856271204
  0
LINE
  8
_0-1_計細線
  6
CONTINUOUS
 62
    3
 10
363.95451693353266
 20
1057.1537856271209
 11
1178.4949080080667
 21
1057.1537856271209
  0
LINE
  8
_0-0_計極細
  6
CONTINUOUS
 62
    2
 10
363.95451693353266
 20
1053.9537856271206
 11
1179.7049132825762
 21
1053.9537856271206
  0
LINE
  8
_0-0_計極細
  6
CONTINUOUS
 62
    2
 10
363.95451693353266
 20
1048.9537856271206
 11
1182.0833169513041
 21
1048.9537856271206
  0
LINE
  8
_0-5_寸法線
  6
CONTINUOUS
 62
    7
 10
350.45451693352993
 20
1191.7537856296715
 11
350.45451693353039
 21
1375.7537856296713
  0
LINE
  8
_0-5_寸法線
  6
CONTINUOUS
 62
    7
 10
350.45451693353039
 20
1367.7537856296713
 11
365.90933015415544
 21
1371.8948903513117
  0
LINE
  8
_0-5_寸法線
  6
CONTINUOUS
 62
    7
 10
350.45451693353039
 20
1367.7537856296713
 11
365.90933015415544
 21
1363.6126809080308
  0
LINE
  8
_0-5_寸法線
  6
CONTINUOUS
 62
    7
 10
1344.4545169335299
 20
1191.7537856296715
 11
1344.4545169335304
 21
1375.7537856296713
  0
LINE
  8
_0-5_寸法線
  6
CONTINUOUS
 62
    7
 10
1344.4545169335304
 20
1367.7537856296713
 11
1328.9997037129053
 21
1363.6126809080311
  0
LINE
  8
_0-5_寸法線
  6
CONTINUOUS
 62
    7
 10
1344.4545169335304
 20
1367.7537856296713
 11
1328.9997037129053
 21
1371.8948903513117
  0
LINE
  8
_0-5_寸法線
  6
CONTINUOUS
 62
    7
 10
350.45451693353039
 20
1367.7537856296713
 11
1344.4545169335304
 21
1367.7537856296713
  0
TEXT
  8
_0-5_寸法線
 62
    7
 10
835.45451693353039
 20
1367.7537856296713
 40
24
 41
1
 50
0
  1
Ｌ
  0
LINE
  8
_0-5_寸法線
  6
CONTINUOUS
 62
    7
 10
350.4545169335297
 20
1015.7537856296715
 11
350.45451693352891
 21
943.75378562967137
  0
LINE
  8
_0-5_寸法線
  6
CONTINUOUS
 62
    7
 10
350.45451693352902
 20
951.75378562967137
 11
365.90933015415408
 21
955.89489035131169
  0
LINE
  8
_0-5_寸法線
  6
CONTINUOUS
 62
    7
 10
350.45451693352902
 20
951.75378562967137
 11
365.90933015415408
 21
947.61268090803105
  0
LINE
  8
_0-5_寸法線
  6
CONTINUOUS
 62
    7
 10
1264.4545169335297
 20
1015.7537856296715
 11
1264.454516933529
 21
943.75378562967137
  0
LINE
  8
_0-5_寸法線
  6
CONTINUOUS
 62
    7
 10
1264.454516933529
 20
951.75378562967137
 11
1248.999703712904
 21
947.61268090803105
  0
LINE
  8
_0-5_寸法線
  6
CONTINUOUS
 62
    7
 10
1264.454516933529
 20
951.75378562967137
 11
1248.999703712904
 21
955.8948903513118
  0
LINE
  8
_0-5_寸法線
  6
CONTINUOUS
 62
    7
 10
350.45451693352902
 20
951.75378562967137
 11
1264.454516933529
 21
951.75378562967137
  0
TEXT
  8
_0-5_寸法線
 62
    7
 10
795.45451693352902
 20
951.75378562967137
 40
24
 41
1
 50
0
  1
Ｃ
  0
LINE
  8
_0-5_寸法線
  6
CONTINUOUS
 62
    7
 10
1264.454516933529
 20
951.75378562967137
 11
1279.9093301541541
 21
955.89489035131157
  0
LINE
  8
_0-5_寸法線
  6
CONTINUOUS
 62
    7
 10
1264.454516933529
 20
951.75378562967137
 11
1279.9093301541541
 21
947.61268090803094
  0
LINE
  8
_0-5_寸法線
  6
CONTINUOUS
 62
    7
 10
1344.4545169335297
 20
1015.7537856296715
 11
1344.454516933529
 21
943.75378562967137
  0
LINE
  8
_0-5_寸法線
  6
CONTINUOUS
 62
    7
 10
1344.454516933529
 20
951.75378562967137
 11
1328.999703712904
 21
947.61268090803105
  0
LINE
  8
_0-5_寸法線
  6
CONTINUOUS
 62
    7
 10
1344.454516933529
 20
951.75378562967137
 11
1328.999703712904
 21
955.8948903513118
  0
LINE
  8
_0-5_寸法線
  6
CONTINUOUS
 62
    7
 10
1264.454516933529
 20
951.75378562967137
 11
1344.454516933529
 21
951.75378562967137
  0
TEXT
  8
_0-5_寸法線
 62
    7
 10
1292.4545169335295
 20
951.75378562967137
 40
24
 41
1
 50
0
  1
80
  0
LINE
  8
_0-0_計極細
  6
CENTER1
 62
    2
 10
370.95451693353266
 20
1167.4045050559673
 11
370.95451693353266
 21
1039.7274754342086
  0
LINE
  8
_0-0_計極細
  6
CONTINUOUS
 62
    2
 10
364.45451693353539
 20
1092.0537856298313
 11
364.45451693353539
 21
1098.0537856296316
  0
LINE
  8
_0-0_計極細
  6
CONTINUOUS
 62
    2
 10
377.45451693353539
 20
1092.0537856298313
 11
377.45451693353539
 21
1098.0537856296316
  0
LINE
  8
_0-0_計極細
  6
CONTINUOUS
 62
    2
 10
364.45451693353539
 20
1109.4537856296322
 11
364.45451693353539
 21
1115.4537856318391
  0
LINE
  8
_0-0_計極細
  6
CONTINUOUS
 62
    2
 10
377.45451693353539
 20
1109.4537856296322
 11
377.45451693353539
 21
1115.4537856318391
  0
LINE
  8
_0-0_計極細
  6
CONTINUOUS
 62
    2
 10
377.45451693353539
 20
1126.8537856318396
 11
377.45451693353539
 21
1132.8537856292844
  0
LINE
  8
_0-0_計極細
  6
CONTINUOUS
 62
    2
 10
364.45451693353539
 20
1126.8537856318396
 11
364.45451693353539
 21
1132.8537856292844
  0
LINE
  8
_0-0_計極細
  6
CONTINUOUS
 62
    2
 10
364.45451693353539
 20
1074.6537856291682
 11
364.45451693353539
 21
1080.6537856298307
  0
LINE
  8
_0-0_計極細
  6
CONTINUOUS
 62
    2
 10
377.45451693353539
 20
1074.6537856291682
 11
377.45451693353539
 21
1080.6537856298307
  0
LINE
  8
_0-0_計極細
  6
CONTINUOUS
 62
    2
 10
364.45451693353539
 20
1144.2537856292849
 11
364.45451693353539
 21
1150.3537856294986
  0
LINE
  8
_0-0_計極細
  6
CONTINUOUS
 62
    2
 10
377.45451693353539
 20
1144.2537856292849
 11
377.45451693353539
 21
1150.3537856294986
  0
LINE
  8
_0-0_計極細
  6
CONTINUOUS
 62
    2
 10
377.45451693353539
 20
1057.1537856271209
 11
377.45451693353539
 21
1063.2537856291676
  0
LINE
  8
_0-0_計極細
  6
CONTINUOUS
 62
    2
 10
364.45451693353539
 20
1057.1537856271209
 11
364.45451693353539
 21
1063.2537856291676
  0
LINE
  8
_0-0_計極細
  6
CENTER1
 62
    2
 10
467.95451693353266
 20
1167.4045050559673
 11
467.95451693353266
 21
1041.253785631505
  0
LINE
  8
_0-0_計極細
  6
CONTINUOUS
 62
    2
 10
474.45451693353539
 20
1092.0537856298313
 11
474.45451693353539
 21
1098.0537856296316
  0
LINE
  8
_0-0_計極細
  6
CONTINUOUS
 62
    2
 10
474.45451693353539
 20
1092.0537856298313
 11
474.45451693353539
 21
1098.0537856296316
  0
LINE
  8
_0-0_計極細
  6
CONTINUOUS
 62
    2
 10
461.45451693353539
 20
1092.0537856298313
 11
461.45451693353539
 21
1098.0537856296316
  0
LINE
  8
_0-0_計極細
  6
CONTINUOUS
 62
    2
 10
461.45451693353539
 20
1092.0537856298313
 11
461.45451693353539
 21
1098.0537856296316
  0
LINE
  8
_0-0_計極細
  6
CONTINUOUS
 62
    2
 10
474.45451693353539
 20
1126.8537856318396
 11
474.45451693353539
 21
1132.8537856292844
  0
LINE
  8
_0-0_計極細
  6
CONTINUOUS
 62
    2
 10
461.45451693353539
 20
1126.8537856318396
 11
461.45451693353539
 21
1132.8537856292844
  0
LINE
  8
_0-0_計極細
  6
CONTINUOUS
 62
    2
 10
461.45451693353539
 20
1074.6537856291682
 11
461.45451693353539
 21
1080.6537856298307
  0
LINE
  8
_0-0_計極細
  6
CONTINUOUS
 62
    2
 10
474.45451693353539
 20
1074.6537856291682
 11
474.45451693353539
 21
1080.6537856298307
  0
LINE
  8
_0-0_計極細
  6
CONTINUOUS
 62
    2
 10
474.45451693353539
 20
1144.2537856292849
 11
474.45451693353539
 21
1150.3537856294986
  0
LINE
  8
_0-0_計極細
  6
CONTINUOUS
 62
    2
 10
474.45451693353539
 20
1144.2537856292849
 11
474.45451693353539
 21
1150.3537856294986
  0
LINE
  8
_0-0_計極細
  6
CONTINUOUS
 62
    2
 10
461.45451693353539
 20
1144.2537856292849
 11
461.45451693353539
 21
1150.3537856294986
  0
LINE
  8
_0-0_計極細
  6
CONTINUOUS
 62
    2
 10
461.45451693353539
 20
1144.2537856292849
 11
461.45451693353539
 21
1150.3537856294986
  0
LINE
  8
_0-0_計極細
  6
CONTINUOUS
 62
    2
 10
474.45451693353539
 20
1057.1537856271209
 11
474.45451693353539
 21
1063.2537856291676
  0
LINE
  8
_0-0_計極細
  6
CONTINUOUS
 62
    2
 10
461.45451693353539
 20
1057.1537856271209
 11
461.45451693353539
 21
1063.2537856291676
  0
LINE
  8
_0-0_計極細
  6
CENTER1
 62
    2
 10
564.95451693353266
 20
1167.4045050559673
 11
564.95451693353266
 21
1041.253785631505
  0
LINE
  8
_0-0_計極細
  6
CONTINUOUS
 62
    2
 10
558.45451693353539
 20
1092.0537856298313
 11
558.45451693353539
 21
1098.0537856296316
  0
LINE
  8
_0-0_計極細
  6
CONTINUOUS
 62
    2
 10
571.45451693353539
 20
1092.0537856298313
 11
571.45451693353539
 21
1098.0537856296316
  0
LINE
  8
_0-0_計極細
  6
CONTINUOUS
 62
    2
 10
558.45451693353539
 20
1109.4537856296322
 11
558.45451693353539
 21
1115.4537856318391
  0
LINE
  8
_0-0_計極細
  6
CONTINUOUS
 62
    2
 10
571.45451693353539
 20
1109.4537856296322
 11
571.45451693353539
 21
1115.4537856318391
  0
LINE
  8
_0-0_計極細
  6
CONTINUOUS
 62
    2
 10
571.45451693353539
 20
1126.8537856318396
 11
571.45451693353539
 21
1132.8537856292844
  0
LINE
  8
_0-0_計極細
  6
CONTINUOUS
 62
    2
 10
558.45451693353539
 20
1126.8537856318396
 11
558.45451693353539
 21
1132.8537856292844
  0
LINE
  8
_0-0_計極細
  6
CONTINUOUS
 62
    2
 10
558.45451693353539
 20
1074.6537856291682
 11
558.45451693353539
 21
1080.6537856298307
  0
LINE
  8
_0-0_計極細
  6
CONTINUOUS
 62
    2
 10
571.45451693353539
 20
1074.6537856291682
 11
571.45451693353539
 21
1080.6537856298307
  0
LINE
  8
_0-0_計極細
  6
CONTINUOUS
 62
    2
 10
558.45451693353539
 20
1144.2537856292849
 11
558.45451693353539
 21
1150.3537856294986
  0
LINE
  8
_0-0_計極細
  6
CONTINUOUS
 62
    2
 10
571.45451693353539
 20
1144.2537856292849
 11
571.45451693353539
 21
1150.3537856294986
  0
LINE
  8
_0-0_計極細
  6
CONTINUOUS
 62
    2
 10
571.45451693353539
 20
1057.1537856271209
 11
571.45451693353539
 21
1063.2537856291676
  0
LINE
  8
_0-0_計極細
  6
CONTINUOUS
 62
    2
 10
558.45451693353539
 20
1057.1537856271209
 11
558.45451693353539
 21
1063.2537856291676
  0
LINE
  8
_0-0_計極細
  6
CENTER1
 62
    2
 10
661.95451693353266
 20
1167.4045050559673
 11
661.95451693353266
 21
1041.253785631505
  0
LINE
  8
_0-0_計極細
  6
CONTINUOUS
 62
    2
 10
655.45451693353539
 20
1092.0537856298313
 11
655.45451693353539
 21
1098.0537856296316
  0
LINE
  8
_0-0_計極細
  6
CONTINUOUS
 62
    2
 10
668.45451693353539
 20
1092.0537856298313
 11
668.45451693353539
 21
1098.0537856296316
  0
LINE
  8
_0-0_計極細
  6
CONTINUOUS
 62
    2
 10
655.45451693353539
 20
1109.4537856296322
 11
655.45451693353539
 21
1115.4537856318391
  0
LINE
  8
_0-0_計極細
  6
CONTINUOUS
 62
    2
 10
668.45451693353539
 20
1109.4537856296322
 11
668.45451693353539
 21
1115.4537856318391
  0
LINE
  8
_0-0_計極細
  6
CONTINUOUS
 62
    2
 10
668.45451693353539
 20
1126.8537856318396
 11
668.45451693353539
 21
1132.8537856292844
  0
LINE
  8
_0-0_計極細
  6
CONTINUOUS
 62
    2
 10
655.45451693353539
 20
1126.8537856318396
 11
655.45451693353539
 21
1132.8537856292844
  0
LINE
  8
_0-0_計極細
  6
CONTINUOUS
 62
    2
 10
655.45451693353539
 20
1074.6537856291682
 11
655.45451693353539
 21
1080.6537856298307
  0
LINE
  8
_0-0_計極細
  6
CONTINUOUS
 62
    2
 10
668.45451693353539
 20
1074.6537856291682
 11
668.45451693353539
 21
1080.6537856298307
  0
LINE
  8
_0-0_計極細
  6
CONTINUOUS
 62
    2
 10
655.45451693353539
 20
1144.2537856292849
 11
655.45451693353539
 21
1150.3537856294986
  0
LINE
  8
_0-0_計極細
  6
CONTINUOUS
 62
    2
 10
668.45451693353539
 20
1144.2537856292849
 11
668.45451693353539
 21
1150.3537856294986
  0
LINE
  8
_0-0_計極細
  6
CONTINUOUS
 62
    2
 10
668.45451693353539
 20
1057.1537856271209
 11
668.45451693353539
 21
1063.2537856291676
  0
LINE
  8
_0-0_計極細
  6
CONTINUOUS
 62
    2
 10
655.45451693353539
 20
1057.1537856271209
 11
655.45451693353539
 21
1063.2537856291676
  0
LINE
  8
_0-0_計極細
  6
CENTER1
 62
    2
 10
758.95451693353266
 20
1167.4045050559673
 11
758.95451693353266
 21
1041.253785631505
  0
LINE
  8
_0-0_計極細
  6
CONTINUOUS
 62
    2
 10
752.45451693353539
 20
1092.0537856298313
 11
752.45451693353539
 21
1098.0537856296316
  0
LINE
  8
_0-0_計極細
  6
CONTINUOUS
 62
    2
 10
765.45451693353539
 20
1092.0537856298313
 11
765.45451693353539
 21
1098.0537856296316
  0
LINE
  8
_0-0_計極細
  6
CONTINUOUS
 62
    2
 10
752.45451693353539
 20
1109.4537856296322
 11
752.45451693353539
 21
1115.4537856318391
  0
LINE
  8
_0-0_計極細
  6
CONTINUOUS
 62
    2
 10
765.45451693353539
 20
1109.4537856296322
 11
765.45451693353539
 21
1115.4537856318391
  0
LINE
  8
_0-0_計極細
  6
CONTINUOUS
 62
    2
 10
765.45451693353539
 20
1126.8537856318396
 11
765.45451693353539
 21
1132.8537856292844
  0
LINE
  8
_0-0_計極細
  6
CONTINUOUS
 62
    2
 10
752.45451693353539
 20
1126.8537856318396
 11
752.45451693353539
 21
1132.8537856292844
  0
LINE
  8
_0-0_計極細
  6
CONTINUOUS
 62
    2
 10
752.45451693353539
 20
1074.6537856291682
 11
752.45451693353539
 21
1080.6537856298307
  0
LINE
  8
_0-0_計極細
  6
CONTINUOUS
 62
    2
 10
765.45451693353539
 20
1074.6537856291682
 11
765.45451693353539
 21
1080.6537856298307
  0
LINE
  8
_0-0_計極細
  6
CONTINUOUS
 62
    2
 10
752.45451693353539
 20
1144.2537856292849
 11
752.45451693353539
 21
1150.3537856294986
  0
LINE
  8
_0-0_計極細
  6
CONTINUOUS
 62
    2
 10
765.45451693353539
 20
1144.2537856292849
 11
765.45451693353539
 21
1150.3537856294986
  0
LINE
  8
_0-0_計極細
  6
CONTINUOUS
 62
    2
 10
765.45451693353539
 20
1057.1537856271209
 11
765.45451693353539
 21
1063.2537856291676
  0
LINE
  8
_0-0_計極細
  6
CONTINUOUS
 62
    2
 10
752.45451693353539
 20
1057.1537856271209
 11
752.45451693353539
 21
1063.2537856291676
  0
LINE
  8
_0-0_計極細
  6
CENTER1
 62
    2
 10
855.95451693353266
 20
1167.4045050559673
 11
855.95451693353266
 21
1041.253785631505
  0
LINE
  8
_0-0_計極細
  6
CONTINUOUS
 62
    2
 10
849.45451693353539
 20
1092.0537856298313
 11
849.45451693353539
 21
1098.0537856296316
  0
LINE
  8
_0-0_計極細
  6
CONTINUOUS
 62
    2
 10
862.45451693353539
 20
1092.0537856298313
 11
862.45451693353539
 21
1098.0537856296316
  0
LINE
  8
_0-0_計極細
  6
CONTINUOUS
 62
    2
 10
849.45451693353539
 20
1109.4537856296322
 11
849.45451693353539
 21
1115.4537856318391
  0
LINE
  8
_0-0_計極細
  6
CONTINUOUS
 62
    2
 10
862.45451693353539
 20
1109.4537856296322
 11
862.45451693353539
 21
1115.4537856318391
  0
LINE
  8
_0-0_計極細
  6
CONTINUOUS
 62
    2
 10
862.45451693353539
 20
1126.8537856318396
 11
862.45451693353539
 21
1132.8537856292844
  0
LINE
  8
_0-0_計極細
  6
CONTINUOUS
 62
    2
 10
849.45451693353539
 20
1126.8537856318396
 11
849.45451693353539
 21
1132.8537856292844
  0
LINE
  8
_0-0_計極細
  6
CONTINUOUS
 62
    2
 10
849.45451693353539
 20
1074.6537856291682
 11
849.45451693353539
 21
1080.6537856298307
  0
LINE
  8
_0-0_計極細
  6
CONTINUOUS
 62
    2
 10
862.45451693353539
 20
1074.6537856291682
 11
862.45451693353539
 21
1080.6537856298307
  0
LINE
  8
_0-0_計極細
  6
CONTINUOUS
 62
    2
 10
849.45451693353539
 20
1144.2537856292849
 11
849.45451693353539
 21
1150.3537856294986
  0
LINE
  8
_0-0_計極細
  6
CONTINUOUS
 62
    2
 10
862.45451693353539
 20
1144.2537856292849
 11
862.45451693353539
 21
1150.3537856294986
  0
LINE
  8
_0-0_計極細
  6
CONTINUOUS
 62
    2
 10
862.45451693353539
 20
1057.1537856271209
 11
862.45451693353539
 21
1063.2537856291676
  0
LINE
  8
_0-0_計極細
  6
CONTINUOUS
 62
    2
 10
849.45451693353539
 20
1057.1537856271209
 11
849.45451693353539
 21
1063.2537856291676
  0
LINE
  8
_0-0_計極細
  6
CENTER1
 62
    2
 10
855.95451723968404
 20
1167.4045050559673
 11
855.95451723968404
 21
1041.253785631505
  0
LINE
  8
_0-0_計極細
  6
CONTINUOUS
 62
    2
 10
862.45451723968131
 20
1092.0537856298313
 11
862.45451723968131
 21
1098.0537856296316
  0
LINE
  8
_0-0_計極細
  6
CONTINUOUS
 62
    2
 10
849.45451723968131
 20
1092.0537856298313
 11
849.45451723968131
 21
1098.0537856296316
  0
LINE
  8
_0-0_計極細
  6
CONTINUOUS
 62
    2
 10
862.45451723968131
 20
1109.4537856296322
 11
862.45451723968131
 21
1115.4537856318391
  0
LINE
  8
_0-0_計極細
  6
CONTINUOUS
 62
    2
 10
849.45451723968131
 20
1109.4537856296322
 11
849.45451723968131
 21
1115.4537856318391
  0
LINE
  8
_0-0_計極細
  6
CONTINUOUS
 62
    2
 10
849.45451723968131
 20
1126.8537856318396
 11
849.45451723968131
 21
1132.8537856292844
  0
LINE
  8
_0-0_計極細
  6
CONTINUOUS
 62
    2
 10
862.45451723968131
 20
1126.8537856318396
 11
862.45451723968131
 21
1132.8537856292844
  0
LINE
  8
_0-0_計極細
  6
CONTINUOUS
 62
    2
 10
862.45451723968131
 20
1074.6537856291682
 11
862.45451723968131
 21
1080.6537856298307
  0
LINE
  8
_0-0_計極細
  6
CONTINUOUS
 62
    2
 10
849.45451723968131
 20
1074.6537856291682
 11
849.45451723968131
 21
1080.6537856298307
  0
LINE
  8
_0-0_計極細
  6
CONTINUOUS
 62
    2
 10
862.45451723968131
 20
1144.2537856292849
 11
862.45451723968131
 21
1150.3537856294986
  0
LINE
  8
_0-0_計極細
  6
CONTINUOUS
 62
    2
 10
849.45451723968131
 20
1144.2537856292849
 11
849.45451723968131
 21
1150.3537856294986
  0
LINE
  8
_0-0_計極細
  6
CONTINUOUS
 62
    2
 10
849.45451723968131
 20
1057.1537856271209
 11
849.45451723968131
 21
1063.2537856291676
  0
LINE
  8
_0-0_計極細
  6
CONTINUOUS
 62
    2
 10
862.45451723968131
 20
1057.1537856271209
 11
862.45451723968131
 21
1063.2537856291676
  0
LINE
  8
_0-0_計極細
  6
CENTER1
 62
    2
 10
935.95451693353266
 20
1167.4045050559673
 11
935.95451693353266
 21
1041.253785631505
  0
LINE
  8
_0-0_計極細
  6
CONTINUOUS
 62
    2
 10
942.45451693352993
 20
1092.0537856298313
 11
942.45451693352993
 21
1098.0537856296316
  0
LINE
  8
_0-0_計極細
  6
CONTINUOUS
 62
    2
 10
929.45451693352993
 20
1092.0537856298313
 11
929.45451693352993
 21
1098.0537856296316
  0
LINE
  8
_0-0_計極細
  6
CONTINUOUS
 62
    2
 10
942.45451693352993
 20
1109.4537856296322
 11
942.45451693352993
 21
1115.4537856318391
  0
LINE
  8
_0-0_計極細
  6
CONTINUOUS
 62
    2
 10
929.45451693352993
 20
1109.4537856296322
 11
929.45451693352993
 21
1115.4537856318391
  0
LINE
  8
_0-0_計極細
  6
CONTINUOUS
 62
    2
 10
929.45451693352993
 20
1126.8537856318396
 11
929.45451693352993
 21
1132.8537856292844
  0
LINE
  8
_0-0_計極細
  6
CONTINUOUS
 62
    2
 10
942.45451693352993
 20
1126.8537856318396
 11
942.45451693352993
 21
1132.8537856292844
  0
LINE
  8
_0-0_計極細
  6
CONTINUOUS
 62
    2
 10
942.45451693352993
 20
1074.6537856291682
 11
942.45451693352993
 21
1080.6537856298307
  0
LINE
  8
_0-0_計極細
  6
CONTINUOUS
 62
    2
 10
929.45451693352993
 20
1074.6537856291682
 11
929.45451693352993
 21
1080.6537856298307
  0
LINE
  8
_0-0_計極細
  6
CONTINUOUS
 62
    2
 10
942.45451693352993
 20
1144.2537856292849
 11
942.45451693352993
 21
1150.3537856294986
  0
LINE
  8
_0-0_計極細
  6
CONTINUOUS
 62
    2
 10
929.45451693352993
 20
1144.2537856292849
 11
929.45451693352993
 21
1150.3537856294986
  0
LINE
  8
_0-0_計極細
  6
CONTINUOUS
 62
    2
 10
929.45451693352993
 20
1057.1537856271209
 11
929.45451693352993
 21
1063.2537856291676
  0
LINE
  8
_0-0_計極細
  6
CONTINUOUS
 62
    2
 10
942.45451693352993
 20
1057.1537856271209
 11
942.45451693352993
 21
1063.2537856291676
  0
LINE
  8
_0-0_計極細
  6
CENTER1
 62
    2
 10
1032.9545169335327
 20
1167.4045050559673
 11
1032.9545169335327
 21
1041.253785631505
  0
LINE
  8
_0-0_計極細
  6
CONTINUOUS
 62
    2
 10
1039.4545169335299
 20
1092.0537856298313
 11
1039.4545169335299
 21
1098.0537856296316
  0
LINE
  8
_0-0_計極細
  6
CONTINUOUS
 62
    2
 10
1026.4545169335299
 20
1092.0537856298313
 11
1026.4545169335299
 21
1098.0537856296316
  0
LINE
  8
_0-0_計極細
  6
CONTINUOUS
 62
    2
 10
1039.4545169335299
 20
1109.4537856296322
 11
1039.4545169335299
 21
1115.4537856318391
  0
LINE
  8
_0-0_計極細
  6
CONTINUOUS
 62
    2
 10
1026.4545169335299
 20
1109.4537856296322
 11
1026.4545169335299
 21
1115.4537856318391
  0
LINE
  8
_0-0_計極細
  6
CONTINUOUS
 62
    2
 10
1026.4545169335299
 20
1126.8537856318396
 11
1026.4545169335299
 21
1132.8537856292844
  0
LINE
  8
_0-0_計極細
  6
CONTINUOUS
 62
    2
 10
1039.4545169335299
 20
1126.8537856318396
 11
1039.4545169335299
 21
1132.8537856292844
  0
LINE
  8
_0-0_計極細
  6
CONTINUOUS
 62
    2
 10
1039.4545169335299
 20
1074.6537856291682
 11
1039.4545169335299
 21
1080.6537856298307
  0
LINE
  8
_0-0_計極細
  6
CONTINUOUS
 62
    2
 10
1026.4545169335299
 20
1074.6537856291682
 11
1026.4545169335299
 21
1080.6537856298307
  0
LINE
  8
_0-0_計極細
  6
CONTINUOUS
 62
    2
 10
1039.4545169335299
 20
1144.2537856292849
 11
1039.4545169335299
 21
1150.3537856294986
  0
LINE
  8
_0-0_計極細
  6
CONTINUOUS
 62
    2
 10
1026.4545169335299
 20
1144.2537856292849
 11
1026.4545169335299
 21
1150.3537856294986
  0
LINE
  8
_0-0_計極細
  6
CONTINUOUS
 62
    2
 10
1026.4545169335299
 20
1057.1537856271209
 11
1026.4545169335299
 21
1063.2537856291676
  0
LINE
  8
_0-0_計極細
  6
CONTINUOUS
 62
    2
 10
1039.4545169335299
 20
1057.1537856271209
 11
1039.4545169335299
 21
1063.2537856291676
  0
LINE
  8
_0-0_計極細
  6
CENTER1
 62
    2
 10
1129.9545169335327
 20
1167.4045050559673
 11
1129.9545169335327
 21
1041.253785631505
  0
LINE
  8
_0-0_計極細
  6
CONTINUOUS
 62
    2
 10
1136.4545169335299
 20
1092.0537856298313
 11
1136.4545169335299
 21
1098.0537856296316
  0
LINE
  8
_0-0_計極細
  6
CONTINUOUS
 62
    2
 10
1123.4545169335299
 20
1092.0537856298313
 11
1123.4545169335299
 21
1098.0537856296316
  0
LINE
  8
_0-0_計極細
  6
CONTINUOUS
 62
    2
 10
1136.4545169335299
 20
1109.4537856296322
 11
1136.4545169335299
 21
1115.4537856318391
  0
LINE
  8
_0-0_計極細
  6
CONTINUOUS
 62
    2
 10
1123.4545169335299
 20
1109.4537856296322
 11
1123.4545169335299
 21
1115.4537856318391
  0
LINE
  8
_0-0_計極細
  6
CONTINUOUS
 62
    2
 10
1123.4545169335299
 20
1126.8537856318396
 11
1123.4545169335299
 21
1132.8537856292844
  0
LINE
  8
_0-0_計極細
  6
CONTINUOUS
 62
    2
 10
1136.4545169335299
 20
1126.8537856318396
 11
1136.4545169335299
 21
1132.8537856292844
  0
LINE
  8
_0-0_計極細
  6
CONTINUOUS
 62
    2
 10
1136.4545169335299
 20
1074.6537856291682
 11
1136.4545169335299
 21
1080.6537856298307
  0
LINE
  8
_0-0_計極細
  6
CONTINUOUS
 62
    2
 10
1123.4545169335299
 20
1074.6537856291682
 11
1123.4545169335299
 21
1080.6537856298307
  0
LINE
  8
_0-0_計極細
  6
CONTINUOUS
 62
    2
 10
1136.4545169335299
 20
1144.2537856292849
 11
1136.4545169335299
 21
1150.3537856294986
  0
LINE
  8
_0-0_計極細
  6
CONTINUOUS
 62
    2
 10
1123.4545169335299
 20
1144.2537856292849
 11
1123.4545169335299
 21
1150.3537856294986
  0
LINE
  8
_0-0_計極細
  6
CONTINUOUS
 62
    2
 10
1123.4545169335299
 20
1057.1537856271209
 11
1123.4545169335299
 21
1063.2537856291676
  0
LINE
  8
_0-0_計極細
  6
CONTINUOUS
 62
    2
 10
1136.4545169335299
 20
1057.1537856271209
 11
1136.4545169335299
 21
1063.2537856291676
  0
LINE
  8
_0-0_計極細
  6
CENTER1
 62
    2
 10
1226.9545169335327
 20
1167.4045050559673
 11
1226.9545169335327
 21
1041.253785631505
  0
LINE
  8
_0-0_計極細
  6
CENTER1
 62
    2
 10
1323.9545169335327
 20
1167.4045050559673
 11
1323.9545169335327
 21
1041.253785631505
  0
LINE
  8
_0-1_計細線
  6
CONTINUOUS
 62
    3
 10
363.95451693353266
 20
1126.8537856318396
 11
1192.0234381102125
 21
1126.8537856318396
  0
LINE
  8
_0-0_計極細
  6
CONTINUOUS
 62
    2
 10
363.95451693353266
 20
1123.6537856318394
 11
1191.5770740610621
 21
1123.6537856318394
  0
LINE
  8
_0-0_計極細
  6
CONTINUOUS
 62
    2
 10
363.95451693353266
 20
1118.6537856318394
 11
1190.4826805919035
 21
1118.6537856318394
  0
LINE
  8
_0-1_計細線
  6
CONTINUOUS
 62
    3
 10
363.95451693353266
 20
1115.4537856318391
 11
363.95451693353266
 21
1126.8537856318396
  0
LINE
  8
_0-1_計細線
  6
CONTINUOUS
 62
    3
 10
363.95451693353266
 20
1115.4537856318391
 11
1189.5159096874152
 21
1115.4537856318391
  0
LINE
  8
_0-0_計極細
  6
CONTINUOUS
 62
    2
 10
363.95451693353266
 20
1106.2537856296319
 11
1185.441165819587
 21
1106.2537856296319
  0
LINE
  8
_0-0_計極細
  6
CONTINUOUS
 62
    2
 10
363.95451693353266
 20
1101.2537856296319
 11
1182.4678680474333
 21
1101.2537856296319
  0
LINE
  8
_0-1_計細線
  6
CONTINUOUS
 62
    3
 10
363.95451693353266
 20
1098.0537856296316
 11
1180.815943314082
 21
1098.0537856296316
  0
LINE
  8
_0-1_計細線
  6
CONTINUOUS
 62
    3
 10
363.95451693353266
 20
1109.4537856296322
 11
1187.0930905529456
 21
1109.4537856296322
  0
LINE
  8
_0-1_計細線
  6
CONTINUOUS
 62
    3
 10
363.95451693353266
 20
1098.0537856296316
 11
363.95451693353266
 21
1109.4537856296322
  0
LINE
  8
_0-0_計極細
  6
CONTINUOUS
 62
    2
 10
474.45451693353539
 20
1109.4537856320387
 11
474.45451693353539
 21
1110.1037856318399
  0
LINE
  8
_0-0_計極細
  6
CONTINUOUS
 62
    2
 10
474.45451693353539
 20
1114.8037856318397
 11
474.45451693353539
 21
1115.4537856318391
  0
LINE
  8
_0-0_計極細
  6
CONTINUOUS
 62
    2
 10
461.45451693353539
 20
1109.4537856320387
 11
461.45451693353539
 21
1110.1037856318399
  0
LINE
  8
_0-0_計極細
  6
CONTINUOUS
 62
    2
 10
461.45451693353539
 20
1114.8037856318397
 11
461.45451693353539
 21
1115.4537856318391
  0
LINE
  8
_0-5_寸法線
  6
CONTINUOUS
 62
    7
 10
436.89660359517984
 20
1111.8482277286926
 11
444.89660359517984
 21
1097.9918212681414
  0
LINE
  8
_0-5_寸法線
  6
CONTINUOUS
 62
    7
 10
436.89660359517984
 20
1111.8482277286926
 11
436.89660359517984
 21
1095.8482277286926
  0
LINE
  8
_0-5_寸法線
  6
CONTINUOUS
 62
    7
 10
436.89660359517984
 20
1111.8482277286926
 11
467.387732458762
 21
998.05378562967167
  0
LINE
  8
_0-5_寸法線
  6
CONTINUOUS
 62
    7
 10
467.387732458762
 20
998.05378562967167
 11
563.387732458762
 21
998.05378562967167
  0
TEXT
  8
_0-5_寸法線
 62
    7
 10
467.387732458762
 20
998.05378562967167
 40
24
 41
0.8000000000000001
 50
0
  1
取　外　具
  0
TEXT
  8
_0-5_寸法線
 62
    7
 10
469.84595108157919
 20
970.81383236666125
 40
24
 41
0.7999999999999999
 50
0
  1
(標準付属)
  0
LINE
  8
_0-1_計細線
  6
CONTINUOUS
 62
    3
 10
429.95451693353175
 20
1110.1037856318399
 11
482.95451693353175
 21
1110.1037856318399
  0
LINE
  8
_0-1_計細線
  6
CONTINUOUS
 62
    3
 10
482.95451693353175
 20
1114.8037856318397
 11
429.95451693353175
 21
1114.8037856318397
  0
LINE
  8
_0-1_計細線
  6
CONTINUOUS
 62
    3
 10
429.95451693353175
 20
1114.8037856318397
 11
429.95451693353175
 21
1110.1037856318399
  0
LINE
  8
_0-1_計細線
  6
CONTINUOUS
 62
    3
 10
472.95451693353175
 20
1114.8037856318397
 11
472.95451693353175
 21
1110.1037856318399
  0
LINE
  8
_0-1_計細線
  6
CONTINUOUS
 62
    3
 10
480.95451693353175
 20
1114.8037856318397
 11
480.95451693353175
 21
1110.1037856318399
  0
LINE
  8
_0-1_計細線
  6
CONTINUOUS
 62
    3
 10
482.95451693353175
 20
1114.8037856318397
 11
482.95451693353175
 21
1110.1037856318399
  0
LINE
  8
_0-1_計細線
  6
CONTINUOUS
 62
    3
 10
478.95451693353175
 20
1114.8037856318397
 11
478.95451693353175
 21
1110.1037856318399
  0
LINE
  8
_0-1_計細線
  6
CONTINUOUS
 62
    3
 10
476.95451693353175
 20
1114.8037856318397
 11
476.95451693353175
 21
1110.1037856318399
  0
LINE
  8
_0-1_計細線
  6
CONTINUOUS
 62
    3
 10
474.95451693353175
 20
1114.8037856318397
 11
474.95451693353175
 21
1110.1037856318399
  0
LINE
  8
_0-5_寸法線
  6
CONTINUOUS
 62
    7
 10
606.54009359359998
 20
1068.5761555218403
 11
614.54009359725512
 21
1054.7197490633996
  0
LINE
  8
_0-5_寸法線
  6
CONTINUOUS
 62
    7
 10
606.54009359359998
 20
1068.5761555218403
 11
606.5400935978206
 21
1052.5761555218403
  0
LINE
  8
_0-5_寸法線
  6
CONTINUOUS
 62
    7
 10
606.54009359359998
 20
1068.5761555218403
 11
625.43650567447412
 21
998.05378562967167
  0
LINE
  8
_0-5_寸法線
  6
CONTINUOUS
 62
    7
 10
625.43650567447412
 20
998.05378562967167
 11
841.74228345225288
 21
998.05378562967167
  0
TEXT
  8
_0-5_寸法線
 62
    7
 10
630.54228345225283
 20
998.05378562967167
 40
24
 41
0.8000000000000001
 50
0
  1
セーフティグレーチング
  0
LINE
  8
_0-5_寸法線
  6
CONTINUOUS
 62
    7
 10
869.27496831999997
 20
1038.1287013246845
 11
877.27496830620578
 21
1024.2722948561693
  0
LINE
  8
_0-5_寸法線
  6
CONTINUOUS
 62
    7
 10
869.27496831999997
 20
1038.1287013246845
 11
869.27496830407188
 21
1022.1287013246845
  0
LINE
  8
_0-5_寸法線
  6
CONTINUOUS
 62
    7
 10
869.27496831999997
 20
1038.1287013246845
 11
880.04652581283881
 21
997.92870132468374
  0
LINE
  8
_0-5_寸法線
  6
CONTINUOUS
 62
    7
 10
880.04652581283881
 20
997.92870132468374
 11
995.24652581283885
 21
997.92870132468374
  0
TEXT
  8
_0-5_寸法線
 62
    7
 10
880.04652581283881
 20
997.92870132468374
 40
24
 41
0.8000000000000001
 50
0
  1
排水ユニット
  0
LINE
  8
_0-5_寸法線
  6
CONTINUOUS
 62
    7
 10
334.45451693352993
 20
1175.7537856296715
 11
206.4545169335297
 21
1175.7537856296715
  0
LINE
  8
_0-5_寸法線
  6
CONTINUOUS
 62
    7
 10
214.4545169335297
 20
1175.7537856296715
 11
218.59562165517002
 21
1160.2989724090464
  0
LINE
  8
_0-5_寸法線
  6
CONTINUOUS
 62
    7
 10
214.4545169335297
 20
1175.7537856296715
 11
210.31341221188939
 21
1160.2989724090464
  0
LINE
  8
_0-5_寸法線
  6
CONTINUOUS
 62
    7
 10
334.45451693352993
 20
1031.7537856296715
 11
206.4545169335297
 21
1031.7537856296715
  0
LINE
  8
_0-5_寸法線
  6
CONTINUOUS
 62
    7
 10
214.4545169335297
 20
1031.7537856296715
 11
210.31341221188939
 21
1047.2085988502965
  0
LINE
  8
_0-5_寸法線
  6
CONTINUOUS
 62
    7
 10
214.4545169335297
 20
1031.7537856296715
 11
218.59562165517002
 21
1047.2085988502965
  0
LINE
  8
_0-5_寸法線
  6
CONTINUOUS
 62
    7
 10
214.4545169335297
 20
1175.7537856296715
 11
214.4545169335297
 21
1031.7537856296715
  0
TEXT
  8
_0-5_寸法線
 62
    7
 10
214.4545169335297
 20
1085.7537856296713
 40
24
 41
1
 50
90
  1
144
  0
LINE
  8
_0-5_寸法線
  6
CONTINUOUS
 62
    7
 10
270.4545169335297
 20
1175.7537856296715
 11
266.31341221188939
 21
1191.2085988502965
  0
LINE
  8
_0-5_寸法線
  6
CONTINUOUS
 62
    7
 10
270.4545169335297
 20
1175.7537856296715
 11
274.59562165517013
 21
1191.2085988502965
  0
LINE
  8
_0-5_寸法線
  6
CONTINUOUS
 62
    7
 10
334.45451693352993
 20
1163.7537856296715
 11
262.4545169335297
 21
1163.7537856296715
  0
LINE
  8
_0-5_寸法線
  6
CONTINUOUS
 62
    7
 10
270.4545169335297
 20
1215.7537856296715
 11
270.4545169335297
 21
1163.7537856296715
  0
TEXT
  8
_0-5_寸法線
 62
    7
 10
270.4545169335297
 20
1188.5416823514593
 40
24
 41
1
 50
90
  1
12
  0
LINE
  8
_0-5_寸法線
  6
CONTINUOUS
 62
    7
 10
270.4545169335297
 20
1163.7537856296715
 11
274.59562165516991
 21
1148.2989724090464
  0
LINE
  8
_0-5_寸法線
  6
CONTINUOUS
 62
    7
 10
270.4545169335297
 20
1163.7537856296715
 11
266.31341221188927
 21
1148.2989724090464
  0
LINE
  8
_0-5_寸法線
  6
CONTINUOUS
 62
    7
 10
334.45451693352993
 20
1043.7537856296715
 11
262.4545169335297
 21
1043.7537856296715
  0
LINE
  8
_0-5_寸法線
  6
CONTINUOUS
 62
    7
 10
270.4545169335297
 20
1043.7537856296715
 11
266.31341221188939
 21
1059.2085988502965
  0
LINE
  8
_0-5_寸法線
  6
CONTINUOUS
 62
    7
 10
270.4545169335297
 20
1043.7537856296715
 11
274.59562165517013
 21
1059.2085988502965
  0
LINE
  8
_0-5_寸法線
  6
CONTINUOUS
 62
    7
 10
270.4545169335297
 20
1163.7537856296715
 11
270.4545169335297
 21
1043.7537856296715
  0
TEXT
  8
_0-5_寸法線
 62
    7
 10
270.4545169335297
 20
1085.7537856296713
 40
24
 41
1
 50
90
  1
120
  0
LINE
  8
_0-5_寸法線
  6
CONTINUOUS
 62
    7
 10
270.4545169335297
 20
1031.7537856296715
 11
274.59562165516991
 21
1016.2989724090464
  0
LINE
  8
_0-5_寸法線
  6
CONTINUOUS
 62
    7
 10
270.4545169335297
 20
1031.7537856296715
 11
266.31341221188927
 21
1016.2989724090464
  0
LINE
  8
_0-5_寸法線
  6
CONTINUOUS
 62
    7
 10
270.4545169335297
 20
1043.7537856296715
 11
270.4545169335297
 21
991.75378562967148
  0
TEXT
  8
_0-5_寸法線
 62
    7
 10
270.4545169335297
 20
993.21253945747731
 40
24
 41
1
 50
90
  1
12
  0
LINE
  8
_0-5_寸法線
  6
CONTINUOUS
 62
    7
 10
363.95451693353277
 20
1191.7537856296715
 11
363.95451693353311
 21
1263.7537856296715
  0
LINE
  8
_0-5_寸法線
  6
CONTINUOUS
 62
    7
 10
363.95451693353311
 20
1255.7537856296715
 11
379.40933015415817
 21
1259.8948903513119
  0
LINE
  8
_0-5_寸法線
  6
CONTINUOUS
 62
    7
 10
363.95451693353311
 20
1255.7537856296715
 11
379.40933015415817
 21
1251.6126809080311
  0
LINE
  8
_0-5_寸法線
  6
CONTINUOUS
 62
    7
 10
1330.9545169335299
 20
1191.7537856296715
 11
1330.9545169335304
 21
1263.7537856296715
  0
LINE
  8
_0-5_寸法線
  6
CONTINUOUS
 62
    7
 10
1330.9545169335304
 20
1255.7537856296715
 11
1315.4997037129053
 21
1251.6126809080313
  0
LINE
  8
_0-5_寸法線
  6
CONTINUOUS
 62
    7
 10
1330.9545169335304
 20
1255.7537856296715
 11
1315.4997037129053
 21
1259.8948903513119
  0
LINE
  8
_0-5_寸法線
  6
CONTINUOUS
 62
    7
 10
363.95451693353311
 20
1255.7537856296715
 11
1330.9545169335304
 21
1255.7537856296715
  0
TEXT
  8
_0-5_寸法線
 62
    7
 10
835.45451693353175
 20
1255.7537856296715
 40
24
 41
1
 50
0
  1
Ｂ
  0
LINE
  8
_0-5_寸法線
  6
CONTINUOUS
 62
    7
 10
350.45451693353039
 20
1311.7537856296713
 11
334.99970371290533
 21
1307.6126809080311
  0
LINE
  8
_0-5_寸法線
  6
CONTINUOUS
 62
    7
 10
350.45451693353039
 20
1311.7537856296713
 11
334.99970371290533
 21
1315.8948903513117
  0
LINE
  8
_0-5_寸法線
  6
CONTINUOUS
 62
    7
 10
362.45451693352993
 20
1191.7537856296715
 11
362.45451693353039
 21
1319.7537856296713
  0
LINE
  8
_0-5_寸法線
  6
CONTINUOUS
 62
    7
 10
310.45451693353039
 20
1311.7537856296713
 11
362.45451693353039
 21
1311.7537856296713
  0
TEXT
  8
_0-5_寸法線
 62
    7
 10
306.04422169811937
 20
1311.7537856296713
 40
24
 41
1
 50
0
  1
12
  0
LINE
  8
_0-5_寸法線
  6
CONTINUOUS
 62
    7
 10
362.45451693353039
 20
1311.7537856296713
 11
377.90933015415544
 21
1315.8948903513115
  0
LINE
  8
_0-5_寸法線
  6
CONTINUOUS
 62
    7
 10
362.45451693353039
 20
1311.7537856296713
 11
377.90933015415544
 21
1307.6126809080308
  0
LINE
  8
_0-5_寸法線
  6
CONTINUOUS
 62
    7
 10
1332.4545169335299
 20
1191.7537856296715
 11
1332.4545169335304
 21
1319.7537856296713
  0
LINE
  8
_0-5_寸法線
  6
CONTINUOUS
 62
    7
 10
1332.4545169335304
 20
1311.7537856296713
 11
1316.9997037129053
 21
1307.6126809080311
  0
LINE
  8
_0-5_寸法線
  6
CONTINUOUS
 62
    7
 10
1332.4545169335304
 20
1311.7537856296713
 11
1316.9997037129053
 21
1315.8948903513117
  0
LINE
  8
_0-5_寸法線
  6
CONTINUOUS
 62
    7
 10
362.45451693353039
 20
1311.7537856296713
 11
1332.4545169335304
 21
1311.7537856296713
  0
TEXT
  8
_0-5_寸法線
 62
    7
 10
835.45451693353039
 20
1311.7537856296713
 40
24
 41
1
 50
0
  1
Ａ
  0
LINE
  8
_0-5_寸法線
  6
CONTINUOUS
 62
    7
 10
1344.4545169335304
 20
1311.7537856296713
 11
1359.9093301541554
 21
1315.8948903513115
  0
LINE
  8
_0-5_寸法線
  6
CONTINUOUS
 62
    7
 10
1344.4545169335304
 20
1311.7537856296713
 11
1359.9093301541554
 21
1307.6126809080308
  0
LINE
  8
_0-5_寸法線
  6
CONTINUOUS
 62
    7
 10
1332.4545169335304
 20
1311.7537856296713
 11
1384.4545169335304
 21
1311.7537856296713
  0
TEXT
  8
_0-5_寸法線
 62
    7
 10
1362.3378537735864
 20
1311.7537856296713
 40
24
 41
1
 50
0
  1
12
  0
LINE
  8
_0-1_計細線
  6
CONTINUOUS
 62
    3
 10
1447.4545169335299
 20
1175.7537856296713
 11
1447.4545169335299
 21
1031.7537856296715
  0
LINE
  8
_0-1_計細線
  6
CONTINUOUS
 62
    3
 10
1447.4545169335299
 20
1031.7537856296715
 11
1455.4545169335299
 21
1031.7537856296715
  0
LINE
  8
_0-1_計細線
  6
CONTINUOUS
 62
    3
 10
1455.4545169335299
 20
1031.7537856296715
 11
1455.4545169335299
 21
1175.7537856296713
  0
LINE
  8
_0-1_計細線
  6
CONTINUOUS
 62
    3
 10
1455.4545169335299
 20
1175.7537856296713
 11
1447.4545169335299
 21
1175.7537856296713
  0
LINE
  8
_0-1_計細線
  6
CONTINUOUS
 62
    3
 10
1535.4545169335302
 20
1042.7537856296719
 11
1570.4545169335302
 21
1042.7537856296719
  0
LINE
  8
_0-1_計細線
  6
CONTINUOUS
 62
    3
 10
1570.4545169335302
 20
1042.7537856296719
 11
1570.4545169335302
 21
1041.5537856296717
  0
LINE
  8
_0-1_計細線
  6
CONTINUOUS
 62
    3
 10
1570.4545169335302
 20
1041.5537856296717
 11
1535.4545169335302
 21
1041.5537856296717
  0
LINE
  8
_0-1_計細線
  6
CONTINUOUS
 62
    3
 10
1535.4545169335302
 20
1041.5537856296717
 11
1535.4545169335302
 21
1042.7537856296719
  0
LINE
  8
_0-1_計細線
  6
CONTINUOUS
 62
    3
 10
1537.4545169335302
 20
1041.5537856296717
 11
1537.4545169335302
 21
1042.7537856296719
  0
LINE
  8
_0-1_計細線
  6
CONTINUOUS
 62
    3
 10
1547.4545169335302
 20
1041.5537856296717
 11
1547.4545169335302
 21
1042.7537856296719
  0
LINE
  8
_0-1_計細線
  6
CONTINUOUS
 62
    3
 10
1549.4545169335302
 20
1041.5537856296717
 11
1549.4545169335302
 21
1042.7537856296719
  0
LINE
  8
_0-1_計細線
  6
CONTINUOUS
 62
    3
 10
1551.4545169335302
 20
1041.5537856296717
 11
1551.4545169335302
 21
1042.7537856296719
  0
LINE
  8
_0-1_計細線
  6
CONTINUOUS
 62
    3
 10
1553.4545169335302
 20
1041.5537856296717
 11
1553.4545169335302
 21
1042.7537856296719
  0
LINE
  8
_0-1_計細線
  6
CONTINUOUS
 62
    3
 10
1567.4545169335302
 20
1041.5537856296717
 11
1567.4545169335302
 21
1042.7537856296719
  0
LINE
  8
_0-1_計細線
  6
CONTINUOUS
 62
    3
 10
1535.4545169335302
 20
1165.9537856296713
 11
1570.4545169335302
 21
1165.9537856296713
  0
LINE
  8
_0-1_計細線
  6
CONTINUOUS
 62
    3
 10
1570.4545169335302
 20
1165.9537856296713
 11
1570.4545169335302
 21
1164.7537856296715
  0
LINE
  8
_0-1_計細線
  6
CONTINUOUS
 62
    3
 10
1570.4545169335302
 20
1164.7537856296715
 11
1535.4545169335302
 21
1164.7537856296715
  0
LINE
  8
_0-1_計細線
  6
CONTINUOUS
 62
    3
 10
1535.4545169335302
 20
1164.7537856296715
 11
1535.4545169335302
 21
1165.9537856296713
  0
LINE
  8
_0-1_計細線
  6
CONTINUOUS
 62
    3
 10
1537.4545169335302
 20
1164.7537856296715
 11
1537.4545169335302
 21
1165.9537856296713
  0
LINE
  8
_0-1_計細線
  6
CONTINUOUS
 62
    3
 10
1547.4545169335302
 20
1164.7537856296715
 11
1547.4545169335302
 21
1165.9537856296713
  0
LINE
  8
_0-1_計細線
  6
CONTINUOUS
 62
    3
 10
1549.4545169335302
 20
1164.7537856296715
 11
1549.4545169335302
 21
1165.9537856296713
  0
LINE
  8
_0-1_計細線
  6
CONTINUOUS
 62
    3
 10
1551.4545169335302
 20
1164.7537856296715
 11
1551.4545169335302
 21
1165.9537856296713
  0
LINE
  8
_0-1_計細線
  6
CONTINUOUS
 62
    3
 10
1553.4545169335302
 20
1164.7537856296715
 11
1553.4545169335302
 21
1165.9537856296713
  0
LINE
  8
_0-1_計細線
  6
CONTINUOUS
 62
    3
 10
1567.4545169335302
 20
1164.7537856296715
 11
1567.4545169335302
 21
1165.9537856296713
  0
LINE
  8
_0-1_計細線
  6
CONTINUOUS
 62
    3
 10
1547.4545169335302
 20
1164.7537856296715
 11
1547.4545169335302
 21
1042.7537856296719
  0
LINE
  8
_0-1_計細線
  6
CONTINUOUS
 62
    3
 10
1455.4545169335302
 20
1164.7537856296715
 11
1547.4545169335302
 21
1164.7537856296715
  0
LINE
  8
_0-1_計細線
  6
CONTINUOUS
 62
    3
 10
1547.4545169335302
 20
1042.7537856296719
 11
1455.4545169335297
 21
1042.7537856296719
  0
LINE
  8
_0-0_計極細
  6
CENTER1
 62
    2
 10
1424.4464398417977
 20
1103.7537856296715
 11
1575.0072142493577
 21
1103.7537856296715
  0
LINE
  8
_0-5_寸法線
  6
CONTINUOUS
 62
    7
 10
1447.4545169335299
 20
1191.753785629671
 11
1447.4545169335299
 21
1263.7537856296715
  0
LINE
  8
_0-5_寸法線
  6
CONTINUOUS
 62
    7
 10
1447.4545169335299
 20
1255.7537856296715
 11
1462.909330154155
 21
1259.8948903513119
  0
LINE
  8
_0-5_寸法線
  6
CONTINUOUS
 62
    7
 10
1447.4545169335299
 20
1255.7537856296715
 11
1462.909330154155
 21
1251.6126809080311
  0
LINE
  8
_0-5_寸法線
  6
CONTINUOUS
 62
    7
 10
1547.4545169335299
 20
1181.9537856296713
 11
1547.4545169335299
 21
1263.7537856296715
  0
LINE
  8
_0-5_寸法線
  6
CONTINUOUS
 62
    7
 10
1547.4545169335299
 20
1255.7537856296715
 11
1531.9997037129049
 21
1251.6126809080313
  0
LINE
  8
_0-5_寸法線
  6
CONTINUOUS
 62
    7
 10
1547.4545169335299
 20
1255.7537856296715
 11
1531.9997037129049
 21
1259.8948903513119
  0
LINE
  8
_0-5_寸法線
  6
CONTINUOUS
 62
    7
 10
1447.4545169335299
 20
1255.7537856296715
 11
1547.4545169335299
 21
1255.7537856296715
  0
TEXT
  8
_0-5_寸法線
 62
    7
 10
1479.4545169335299
 20
1255.7537856296715
 40
24
 41
1
 50
0
  1
100
  0
LINE
  8
_0-5_寸法線
  6
CONTINUOUS
 62
    7
 10
1570.4545169335299
 20
1181.9537856296713
 11
1570.4545169335299
 21
1263.7537856296715
  0
LINE
  8
_0-5_寸法線
  6
CONTINUOUS
 62
    7
 10
1570.4545169335299
 20
1255.7537856296715
 11
1585.909330154155
 21
1259.8948903513117
  0
LINE
  8
_0-5_寸法線
  6
CONTINUOUS
 62
    7
 10
1570.4545169335299
 20
1255.7537856296715
 11
1585.909330154155
 21
1251.6126809080311
  0
LINE
  8
_0-5_寸法線
  6
CONTINUOUS
 62
    7
 10
1547.4545169335299
 20
1255.7537856296715
 11
1610.4545169335299
 21
1255.7537856296715
  0
TEXT
  8
_0-5_寸法線
 62
    7
 10
1589.0387928013427
 20
1255.7537856296715
 40
24
 41
1
 50
0
  1
23
  0
LINE
  8
_0-5_寸法線
  6
CONTINUOUS
 62
    7
 10
1447.4545169335299
 20
1191.753785629671
 11
1447.4545169335299
 21
1319.7537856296715
  0
LINE
  8
_0-5_寸法線
  6
CONTINUOUS
 62
    7
 10
1447.4545169335299
 20
1311.7537856296715
 11
1462.909330154155
 21
1315.8948903513119
  0
LINE
  8
_0-5_寸法線
  6
CONTINUOUS
 62
    7
 10
1447.4545169335299
 20
1311.7537856296715
 11
1462.909330154155
 21
1307.6126809080311
  0
LINE
  8
_0-5_寸法線
  6
CONTINUOUS
 62
    7
 10
1570.4545169335299
 20
1181.9537856296713
 11
1570.4545169335299
 21
1319.7537856296715
  0
LINE
  8
_0-5_寸法線
  6
CONTINUOUS
 62
    7
 10
1570.4545169335299
 20
1311.7537856296715
 11
1554.9997037129049
 21
1307.6126809080313
  0
LINE
  8
_0-5_寸法線
  6
CONTINUOUS
 62
    7
 10
1570.4545169335299
 20
1311.7537856296715
 11
1554.9997037129049
 21
1315.8948903513119
  0
LINE
  8
_0-5_寸法線
  6
CONTINUOUS
 62
    7
 10
1447.4545169335299
 20
1311.7537856296715
 11
1570.4545169335299
 21
1311.7537856296715
  0
TEXT
  8
_0-5_寸法線
 62
    7
 10
1490.9545169335299
 20
1311.7537856296706
 40
24
 41
1
 50
0
  1
123
  0
LINE
  8
_0-1_計細線
  6
CONTINUOUS
 62
    3
 10
1260.4545217127959
 20
1029.9975111024162
 11
1260.454521712805
 21
1027.9910812683322
  0
LINE
  8
_0-1_計細線
  6
CONTINUOUS
 62
    3
 10
1259.454522812797
 20
1029.9975111024144
 11
1259.4545228128043
 21
1027.9910812683295
  0
LINE
  8
_0-1_計細線
  6
CONTINUOUS
 62
    3
 10
1268.4545129105188
 20
1029.9975111024162
 11
1268.4545129105115
 21
1027.9910812683322
  0
LINE
  8
_0-1_計細線
  6
CONTINUOUS
 62
    3
 10
1269.4545118105159
 20
1029.9975111024144
 11
1269.4545118105104
 21
1027.9910812683295
  0
ARC
  8
_0-1_計細線
  6
CONTINUOUS
 62
    3
 10
1258.4545239128054
 20
1027.9910812683249
 40
0.9999989000003957
 50
265.47193698636795
 51
0.0000000002601948
  0
ARC
  8
_0-1_計細線
  6
CONTINUOUS
 62
    3
 10
1258.4545239128054
 20
1027.9910812683249
 40
1.9999978000008021
 50
265.47193698641991
 51
0.0000000002080846
  0
ARC
  8
_0-1_計細線
  6
CONTINUOUS
 62
    3
 10
1270.454510710513
 20
1027.9910812683249
 40
0.9999989000003957
 50
179.99999999973946
 51
274.52806301363131
  0
ARC
  8
_0-1_計細線
  6
CONTINUOUS
 62
    3
 10
1270.454510710513
 20
1027.9910812683249
 40
1.9999978000008021
 50
179.99999999976549
 51
274.52806301357936
  0
ARC
  8
_0-1_計細線
  6
CONTINUOUS
 62
    3
 10
1258.4545239127999
 20
1029.9975111024135
 40
0.9999989000003957
 50
0.000000000208441
 51
85.349290995367824
  0
ARC
  8
_0-1_計細線
  6
CONTINUOUS
 62
    3
 10
1270.4545107105184
 20
1029.9975111024135
 40
0.9999989000003957
 50
94.650709004632191
 51
179.99999999979156
  0
ARC
  8
_0-1_計細線
  6
CONTINUOUS
 62
    3
 10
1258.4545239128054
 20
1179.5164899910244
 40
1.9999978000008021
 50
359.99999999976512
 51
94.52806301357937
  0
LINE
  8
_0-1_計細線
  6
CONTINUOUS
 62
    3
 10
1260.4545217127959
 20
1177.5100601569277
 11
1260.454521712805
 21
1179.5164899910162
  0
LINE
  8
_0-1_計細線
  6
CONTINUOUS
 62
    3
 10
1259.454522812797
 20
1177.5100601569322
 11
1259.4545228128043
 21
1179.5164899910189
  0
ARC
  8
_0-1_計細線
  6
CONTINUOUS
 62
    3
 10
1258.4545239128054
 20
1179.5164899910244
 40
0.9999989000003957
 50
359.99999999968696
 51
94.528063013631325
  0
ARC
  8
_0-1_計細線
  6
CONTINUOUS
 62
    3
 10
1258.4545239127999
 20
1177.5100601569377
 40
0.9999989000003957
 50
274.65070900462763
 51
359.99999999973909
  0
ARC
  8
_0-1_計細線
  6
CONTINUOUS
 62
    3
 10
1270.454510710513
 20
1179.5164899910244
 40
1.9999978000008021
 50
85.471936986420275
 51
180.00000000023414
  0
LINE
  8
_0-1_計細線
  6
CONTINUOUS
 62
    3
 10
1268.4545129105188
 20
1177.5100601569277
 11
1268.4545129105115
 21
1179.5164899910162
  0
LINE
  8
_0-1_計細線
  6
CONTINUOUS
 62
    3
 10
1269.4545118105159
 20
1177.5100601569322
 11
1269.4545118105104
 21
1179.5164899910189
  0
ARC
  8
_0-1_計細線
  6
CONTINUOUS
 62
    3
 10
1270.454510710513
 20
1179.5164899910244
 40
0.9999989000003957
 50
85.471936986368334
 51
180.0000000002602
  0
ARC
  8
_0-1_計細線
  6
CONTINUOUS
 62
    3
 10
1270.4545107105184
 20
1177.5100601569377
 40
0.9999989000003957
 50
180.0000000002602
 51
265.34929099537169
  0
LINE
  8
_0-1_計細線
  6
CONTINUOUS
 62
    3
 10
1394.4539422918313
 20
1066.2539545295961
 11
1394.4539422918313
 21
1103.7537856296724
  0
LINE
  8
_0-1_計細線
  6
CONTINUOUS
 62
    3
 10
1393.4539467958309
 20
1065.2539590335939
 11
1375.7435452165407
 21
1065.2539590335939
  0
ARC
  8
_0-1_計細線
  6
CONTINUOUS
 62
    3
 10
1393.4539467958309
 20
1066.2539545295961
 40
0.9999954960020431
 50
269.99999999999977
 51
359.99999999999966
  0
LINE
  8
_0-1_計細線
  6
CONTINUOUS
 62
    3
 10
1374.5398319853446
 20
1066.2539545295961
 11
1374.5398319853446
 21
1103.7537856296724
  0
ARC
  8
_0-1_計細線
  6
CONTINUOUS
 62
    3
 10
1363.9848967438154
 20
1058.7539883095808
 40
4.9999774800103012
 50
269.99999999999977
 51
334.79169788885179
  0
LINE
  8
_0-1_計細線
  6
CONTINUOUS
 62
    3
 10
1363.9848967438154
 20
1053.7540108295682
 11
1356.7850385164054
 21
1053.7540108295682
  0
LINE
  8
_0-1_計細線
  6
CONTINUOUS
 62
    3
 10
1371.2197388523489
 20
1062.3835239410239
 11
1368.5087031080054
 21
1056.6244459221382
  0
ARC
  8
_0-1_計細線
  6
CONTINUOUS
 62
    3
 10
1375.7435452165407
 20
1060.253981553584
 40
4.9999774800103012
 50
89.999999999999915
 51
154.79169788884269
  0
LINE
  8
_0-1_計細線
  6
CONTINUOUS
 62
    3
 10
1393.4539467958309
 20
1142.2536122257527
 11
1375.7435452165353
 21
1142.2536122257527
  0
ARC
  8
_0-1_計細線
  6
CONTINUOUS
 62
    3
 10
1393.4539467958309
 20
1141.2536167297496
 40
0.9999954960020431
 50
0
 51
89.999999999999915
  0
LINE
  8
_0-1_計細線
  6
CONTINUOUS
 62
    3
 10
1394.4539422918313
 20
1141.2536167297496
 11
1394.4539422918313
 21
1103.7537856296724
  0
LINE
  8
_0-1_計細線
  6
CONTINUOUS
 62
    3
 10
1363.9848967438154
 20
1153.7535604297757
 11
1356.7850385164054
 21
1153.7535604297757
  0
LINE
  8
_0-1_計細線
  6
CONTINUOUS
 62
    3
 10
1371.2197388523489
 20
1145.1240473183209
 11
1368.5087031080054
 21
1150.8831253372057
  0
ARC
  8
_0-1_計細線
  6
CONTINUOUS
 62
    3
 10
1363.9848967438154
 20
1148.753582949764
 40
4.9999774800103012
 50
25.208302111166724
 51
89.999999999999915
  0
LINE
  8
_0-1_計細線
  6
CONTINUOUS
 62
    3
 10
1374.5398319853446
 20
1141.2536167297496
 11
1374.5398319853446
 21
1103.7537856296724
  0
ARC
  8
_0-1_計細線
  6
CONTINUOUS
 62
    3
 10
1375.7435452165353
 20
1147.2535897057626
 40
4.9999774800103012
 50
205.20830211117578
 51
269.99999999999977
  0
ARC
  8
_0-1_計細線
  6
CONTINUOUS
 62
    3
 10
1089.7864145199289
 20
1103.7537856296724
 40
279.9987388805763
 50
349.95892672538434
 51
10.041073274614771
  0
ARC
  8
_0-1_計細線
  6
CONTINUOUS
 62
    3
 10
1264.4545173107979
 20
1103.753785630531
 40
76.999915300030807
 50
69.238804446806753
 51
85.471936986412274
  0
ARC
  8
_0-1_計細線
  6
CONTINUOUS
 62
    3
 10
1270.4545107105184
 20
1177.5100601569377
 40
1.9999978000008021
 50
180.00000000023414
 51
241.41858827403928
  0
ARC
  8
_0-1_計細線
  6
CONTINUOUS
 62
    3
 10
1258.4545239127999
 20
1177.5100601569377
 40
1.9999978000008021
 50
298.58141172595998
 51
359.99999999976512
  0
ARC
  8
_0-1_計細線
  6
CONTINUOUS
 62
    3
 10
1264.454517312515
 20
1103.753785630531
 40
76.999915300030793
 50
94.528063013584998
 51
110.73222615762117
  0
ARC
  8
_0-1_計細線
  6
CONTINUOUS
 62
    3
 10
1264.454517312515
 20
1103.753785630531
 40
77.999914200031199
 50
94.528063013585594
 51
112.61971368823328
  0
ARC
  8
_0-1_計細線
  6
CONTINUOUS
 62
    3
 10
1264.4545173107979
 20
1103.7537856288147
 40
77.999914200031185
 50
274.52806301358657
 51
292.61971368822543
  0
ARC
  8
_0-1_計細線
  6
CONTINUOUS
 62
    3
 10
1264.4545173107979
 20
1103.7537856288147
 40
76.999915300030807
 50
274.52806301358737
 51
290.76119555318547
  0
ARC
  8
_0-1_計細線
  6
CONTINUOUS
 62
    3
 10
1270.4545107105184
 20
1029.9975111024135
 40
1.9999978000008021
 50
118.58141172650308
 51
179.99999999976549
  0
ARC
  8
_0-1_計細線
  6
CONTINUOUS
 62
    3
 10
1264.454517312515
 20
1103.7537856288147
 40
72.99991970002921
 50
260.50585233982599
 51
265.34929099534548
  0
ARC
  8
_0-1_計細線
  6
CONTINUOUS
 62
    3
 10
1264.454517312515
 20
1103.7537856288147
 40
76.999915300030793
 50
249.23880444681367
 51
265.47193698641462
  0
ARC
  8
_0-1_計細線
  6
CONTINUOUS
 62
    3
 10
1264.454517312515
 20
1103.7537856288147
 40
77.999914200031199
 50
247.38028631177229
 51
265.47193698641269
  0
ARC
  8
_0-1_計細線
  6
CONTINUOUS
 62
    3
 10
1264.4545173116601
 20
1103.7537856296715
 40
97.999892200039184
 50
47.28142374106443
 51
132.71857625893557
  0
ARC
  8
_0-1_計細線
  6
CONTINUOUS
 62
    3
 10
1264.4545173116601
 20
1103.7537856296715
 40
103.99988560004158
 50
43.813121927209544
 51
136.18687807279045
  0
ARC
  8
_0-1_計細線
  6
CONTINUOUS
 62
    3
 10
1264.4545173116601
 20
1103.7537856296715
 40
104.99988450004199
 50
43.291866968424173
 51
136.70813303157516
  0
ARC
  8
_0-1_計細線
  6
CONTINUOUS
 62
    3
 10
1264.4545173116601
 20
1103.7537856296715
 40
104.99988450004199
 50
223.29186696842467
 51
316.70813303157405
  0
ARC
  8
_0-1_計細線
  6
CONTINUOUS
 62
    3
 10
1264.4545173116601
 20
1103.7537856296715
 40
103.99988560004158
 50
223.81312192720938
 51
316.18687807278934
  0
ARC
  8
_0-1_計細線
  6
CONTINUOUS
 62
    3
 10
1264.4545173116601
 20
1103.7537856296715
 40
97.999892200039184
 50
227.28142374106443
 51
312.71857625893449
  0
ARC
  8
_0-1_計細線
  6
CONTINUOUS
 62
    3
 10
1264.454517312515
 20
1103.753785630531
 40
72.99991970002921
 50
94.650709004654175
 51
99.494147660191203
  0
ARC
  8
_0-1_計細線
  6
CONTINUOUS
 62
    3
 10
1264.4545173107979
 20
1103.753785630531
 40
72.999919700029196
 50
80.505852339808982
 51
85.349290995342969
  0
ARC
  8
_0-1_計細線
  6
CONTINUOUS
 62
    3
 10
1264.4545173107979
 20
1103.753785630531
 40
77.999914200031185
 50
67.380286311766582
 51
85.471936986413084
  0
ARC
  8
_0-1_計細線
  6
CONTINUOUS
 62
    3
 10
1264.4545173116601
 20
1103.7537856296724
 40
97.999568408158495
 50
324.71909441953784
 51
35.280905580461592
  0
ARC
  8
_0-1_計細線
  6
CONTINUOUS
 62
    3
 10
1264.4545173116601
 20
1103.7537856296724
 40
103.99954198416816
 50
320.2851662147026
 51
39.714833980366059
  0
ARC
  8
_0-1_計細線
  6
CONTINUOUS
 62
    3
 10
1264.4545173116601
 20
1103.7537856296724
 40
104.99953758016983
 50
319.63270296679093
 51
40.367297033208359
  0
ARC
  8
_0-1_計細線
  6
CONTINUOUS
 62
    3
 10
1264.4545173107979
 20
1103.7537856288147
 40
72.999919700029196
 50
274.65070900465662
 51
279.49506964702414
  0
ARC
  8
_0-1_計細線
  6
CONTINUOUS
 62
    3
 10
1258.4545239127999
 20
1029.9975111024135
 40
1.9999978000008021
 50
0.0000000001823859
 51
61.41858827348549
  0
LINE
  8
_0-1_計細線
  6
CONTINUOUS
 62
    3
 10
1264.4545169335295
 20
659.75378562967148
 11
1189.4545166273781
 21
659.75378562967148
  0
LINE
  8
_0-1_計細線
  6
CONTINUOUS
 62
    3
 10
350.45451693352948
 20
751.75378562967148
 11
1264.4545169335295
 21
751.75378562967148
  0
LINE
  8
_0-1_計細線
  6
CONTINUOUS
 62
    3
 10
1189.4545166273781
 20
659.75378562967148
 11
855.4864963112766
 21
667.82064602676292
  0
LINE
  8
_0-1_計細線
  6
CONTINUOUS
 62
    3
 10
839.68050578122325
 20
668.20243323777493
 11
393.4864963112766
 21
678.9800663207443
  0
LINE
  8
_0-1_計細線
  6
CONTINUOUS
 62
    3
 10
379.68050578122325
 20
691.17407548452957
 11
377.68050578122325
 21
689.17407548452957
  0
LINE
  8
_0-1_計細線
  6
CONTINUOUS
 62
    3
 10
377.68050578122325
 20
679.17407548452957
 11
377.68050578122325
 21
689.17407548452957
  0
LINE
  8
_0-1_計細線
  6
CONTINUOUS
 62
    3
 10
393.68050547506186
 20
679.17407548452957
 11
393.68050547506186
 21
689.17407548452957
  0
LINE
  8
_0-1_計細線
  6
CONTINUOUS
 62
    3
 10
379.68050578122325
 20
675.17407548452957
 11
377.68050578122325
 21
673.17407548452957
  0
LINE
  8
_0-1_計細線
  6
CONTINUOUS
 62
    3
 10
379.68050578122325
 20
677.17407548452957
 11
379.68050578122325
 21
675.17407548452957
  0
LINE
  8
_0-1_計細線
  6
CONTINUOUS
 62
    3
 10
377.68050578122325
 20
679.17407548452957
 11
379.68050578122325
 21
677.17407548452957
  0
LINE
  8
_0-1_計細線
  6
CONTINUOUS
 62
    3
 10
391.68050547506186
 20
675.17407548452957
 11
393.68050547506186
 21
673.17407548452957
  0
LINE
  8
_0-1_計細線
  6
CONTINUOUS
 62
    3
 10
391.68050547506186
 20
677.17407548452957
 11
391.68050547506186
 21
675.17407548452957
  0
LINE
  8
_0-1_計細線
  6
CONTINUOUS
 62
    3
 10
393.68050547506186
 20
679.17407548452957
 11
391.68050547506186
 21
677.17407548452957
  0
LINE
  8
_0-1_計細線
  6
CONTINUOUS
 62
    3
 10
377.68050578122325
 20
673.17407548452957
 11
377.68050578122325
 21
659.17407548452957
  0
ARC
  8
_0-1_計細線
  6
CONTINUOUS
 62
    3
 10
380.68050578122325
 20
659.17407548452957
 40
3
 50
179.99999999999983
 51
269.99999999999977
  0
LINE
  8
_0-1_計細線
  6
CONTINUOUS
 62
    3
 10
380.68050578122325
 20
656.17407548452957
 11
390.68050547506186
 21
656.17407548452957
  0
LINE
  8
_0-1_計細線
  6
CONTINUOUS
 62
    3
 10
393.68050547506186
 20
673.17407548452957
 11
393.68050547506186
 21
659.17407548452957
  0
ARC
  8
_0-1_計細線
  6
CONTINUOUS
 62
    3
 10
390.68050547506186
 20
659.17407548452957
 40
3
 50
269.99999999999977
 51
359.99999999999966
  0
LINE
  8
_0-1_計細線
  6
CONTINUOUS
 62
    3
 10
379.68050578122325
 20
691.17407548452957
 11
391.68050547506186
 21
691.17407548452957
  0
LINE
  8
_0-1_計細線
  6
CONTINUOUS
 62
    3
 10
393.68050547506186
 20
689.17407548452957
 11
391.68050547506186
 21
691.17407548452957
  0
LINE
  8
_0-0_計極細
  6
CENTER1
 62
    2
 10
385.45451693352948
 20
694.8247949108254
 11
385.45451693352948
 21
652.62815891717969
  0
LINE
  8
_0-1_計細線
  6
CONTINUOUS
 62
    3
 10
841.68050578122325
 20
680.01465519054841
 11
839.68050578122325
 21
678.01465519054841
  0
LINE
  8
_0-1_計細線
  6
CONTINUOUS
 62
    3
 10
839.68050578122325
 20
668.01465519054841
 11
839.68050578122325
 21
678.01465519054841
  0
LINE
  8
_0-1_計細線
  6
CONTINUOUS
 62
    3
 10
855.68050547506186
 20
668.01465519054841
 11
855.68050547506186
 21
678.01465519054841
  0
LINE
  8
_0-1_計細線
  6
CONTINUOUS
 62
    3
 10
841.68050578122325
 20
664.01465519054841
 11
839.68050578122325
 21
662.01465519054841
  0
LINE
  8
_0-1_計細線
  6
CONTINUOUS
 62
    3
 10
841.68050578122325
 20
666.01465519054841
 11
841.68050578122325
 21
664.01465519054841
  0
LINE
  8
_0-1_計細線
  6
CONTINUOUS
 62
    3
 10
839.68050578122325
 20
668.01465519054841
 11
841.68050578122325
 21
666.01465519054841
  0
LINE
  8
_0-1_計細線
  6
CONTINUOUS
 62
    3
 10
853.68050547506186
 20
664.01465519054841
 11
855.68050547506186
 21
662.01465519054841
  0
LINE
  8
_0-1_計細線
  6
CONTINUOUS
 62
    3
 10
853.68050547506186
 20
666.01465519054841
 11
853.68050547506186
 21
664.01465519054841
  0
LINE
  8
_0-1_計細線
  6
CONTINUOUS
 62
    3
 10
855.68050547506186
 20
668.01465519054841
 11
853.68050547506186
 21
666.01465519054841
  0
LINE
  8
_0-1_計細線
  6
CONTINUOUS
 62
    3
 10
839.68050578122325
 20
662.01465519054841
 11
839.68050578122325
 21
648.01465519054841
  0
ARC
  8
_0-1_計細線
  6
CONTINUOUS
 62
    3
 10
842.68050578122325
 20
648.01465519054841
 40
3
 50
179.99999999999983
 51
269.99999999999977
  0
LINE
  8
_0-1_計細線
  6
CONTINUOUS
 62
    3
 10
842.68050578122325
 20
645.01465519054841
 11
852.68050547506186
 21
645.01465519054841
  0
LINE
  8
_0-1_計細線
  6
CONTINUOUS
 62
    3
 10
855.68050547506186
 20
662.01465519054841
 11
855.68050547506186
 21
648.01465519054841
  0
ARC
  8
_0-1_計細線
  6
CONTINUOUS
 62
    3
 10
852.68050547506186
 20
648.01465519054841
 40
3
 50
269.99999999999977
 51
359.99999999999966
  0
LINE
  8
_0-1_計細線
  6
CONTINUOUS
 62
    3
 10
841.68050578122325
 20
680.01465519054841
 11
853.68050547506186
 21
680.01465519054841
  0
LINE
  8
_0-1_計細線
  6
CONTINUOUS
 62
    3
 10
855.68050547506186
 20
678.01465519054841
 11
853.68050547506186
 21
680.01465519054841
  0
LINE
  8
_0-0_計極細
  6
CENTER1
 62
    2
 10
847.45451693352948
 20
683.66537461684425
 11
847.45451693352948
 21
641.46873862319853
  0
LINE
  8
_0-5_寸法線
  6
CONTINUOUS
 62
    7
 10
385.45451693352948
 20
656.17407548452957
 11
394.17980435386585
 21
642.76253718974317
  0
LINE
  8
_0-5_寸法線
  6
CONTINUOUS
 62
    7
 10
385.45451693352948
 20
656.17407548452957
 11
386.30506834746825
 21
640.19669890724856
  0
LINE
  8
_0-5_寸法線
  6
CONTINUOUS
 62
    7
 10
385.45451693352948
 20
656.17407548452957
 11
398.59507023820265
 21
615.84480416674069
  0
LINE
  8
_0-5_寸法線
  6
CONTINUOUS
 62
    7
 10
398.59507023820265
 20
615.84480416674069
 11
475.39507023820261
 21
615.84480416674069
  0
TEXT
  8
_0-5_寸法線
 62
    7
 10
398.59507023820265
 20
615.84480416674069
 40
24
 41
0.8000000000000001
 50
0
  1
アンカー
  0
LINE
  8
_0-1_計細線
  6
CONTINUOUS
 62
    3
 10
1333.4545169335295
 20
758.75378562967148
 11
1333.4545169335295
 21
660.75378562967148
  0
ARC
  8
_0-1_計細線
  6
CONTINUOUS
 62
    3
 10
1333.4545169335295
 20
758.75378562967148
 40
1
 50
89.999999999999915
 51
179.99999999999983
  0
LINE
  8
_0-1_計細線
  6
CONTINUOUS
 62
    3
 10
1343.4545169335295
 20
759.75378562967148
 11
1333.4545169335295
 21
759.75378562967148
  0
ARC
  8
_0-1_計細線
  6
CONTINUOUS
 62
    3
 10
1343.4545169335295
 20
758.75378562967148
 40
1
 50
0
 51
89.999999999999915
  0
LINE
  8
_0-1_計細線
  6
CONTINUOUS
 62
    3
 10
1344.4545169335295
 20
751.75378562967148
 11
1344.4545169335295
 21
758.75378562967148
  0
LINE
  8
_0-1_計細線
  6
CONTINUOUS
 62
    3
 10
1343.4545169335295
 20
751.75378562967148
 11
1344.4545169335295
 21
751.75378562967148
  0
LINE
  8
_0-1_計細線
  6
CONTINUOUS
 62
    3
 10
1343.4545169335295
 20
758.75378562967148
 11
1333.4545169335295
 21
758.75378562967148
  0
LINE
  8
_0-1_計細線
  6
CONTINUOUS
 62
    3
 10
1343.4545169335295
 20
751.75378562967148
 11
1343.4545169335295
 21
758.75378562967148
  0
LINE
  8
_0-1_計細線
  6
CONTINUOUS
 62
    3
 10
1333.4545169335295
 20
759.75378562967148
 11
351.45451693352948
 21
759.75378562967148
  0
LINE
  8
_0-1_計細線
  6
CONTINUOUS
 62
    3
 10
350.45451693352948
 20
751.75378562967148
 11
350.45451693352948
 21
758.75378562967148
  0
ARC
  8
_0-1_計細線
  6
CONTINUOUS
 62
    3
 10
351.45451693352948
 20
758.75378562967148
 40
1
 50
89.999999999999915
 51
179.99999999999983
  0
LINE
  8
_0-1_計細線
  6
CONTINUOUS
 62
    3
 10
377.68050578122325
 20
679.36185353175631
 11
362.43036938749424
 21
679.73021431434961
  0
LINE
  8
_0-1_計細線
  6
CONTINUOUS
 62
    3
 10
361.45451693352948
 20
680.72992271984617
 11
361.45451693352948
 21
751.75378562967148
  0
ARC
  8
_0-1_計細線
  6
CONTINUOUS
 62
    3
 10
362.45451693352948
 20
680.72992271984617
 40
1
 50
179.99999999999983
 51
268.61631303212988
  0
LINE
  8
_0-5_寸法線
  6
CONTINUOUS
 62
    7
 10
350.45451693352948
 20
775.75378562967148
 11
350.45451693352948
 21
847.75378562967148
  0
LINE
  8
_0-5_寸法線
  6
CONTINUOUS
 62
    7
 10
350.45451693352948
 20
839.75378562967148
 11
365.90933015415453
 21
843.8948903513118
  0
LINE
  8
_0-5_寸法線
  6
CONTINUOUS
 62
    7
 10
350.45451693352948
 20
839.75378562967148
 11
365.90933015415453
 21
835.61268090803117
  0
LINE
  8
_0-5_寸法線
  6
CONTINUOUS
 62
    7
 10
385.45451693352948
 20
775.75378562967148
 11
385.45451693352948
 21
847.75378562967148
  0
LINE
  8
_0-5_寸法線
  6
CONTINUOUS
 62
    7
 10
385.45451693352948
 20
839.75378562967148
 11
369.99970371290442
 21
835.61268090803117
  0
LINE
  8
_0-5_寸法線
  6
CONTINUOUS
 62
    7
 10
385.45451693352948
 20
839.75378562967148
 11
369.99970371290442
 21
843.89489035131191
  0
LINE
  8
_0-5_寸法線
  6
CONTINUOUS
 62
    7
 10
350.45451693352948
 20
839.75378562967148
 11
385.45451693352948
 21
839.75378562967148
  0
TEXT
  8
_0-5_寸法線
 62
    7
 10
355.95451693352948
 20
839.75378562967148
 40
24
 41
1
 50
0
  1
35
  0
LINE
  8
_0-5_寸法線
  6
CONTINUOUS
 62
    7
 10
385.45451693352948
 20
839.75378562967148
 11
400.90933015415453
 21
843.89489035131169
  0
LINE
  8
_0-5_寸法線
  6
CONTINUOUS
 62
    7
 10
385.45451693352948
 20
839.75378562967148
 11
400.90933015415453
 21
835.61268090803105
  0
LINE
  8
_0-5_寸法線
  6
CONTINUOUS
 62
    7
 10
1309.4545169335295
 20
775.75378562967148
 11
1309.4545169335295
 21
847.75378562967148
  0
LINE
  8
_0-5_寸法線
  6
CONTINUOUS
 62
    7
 10
1309.4545169335295
 20
839.75378562967148
 11
1293.9997037129044
 21
835.61268090803117
  0
LINE
  8
_0-5_寸法線
  6
CONTINUOUS
 62
    7
 10
1309.4545169335295
 20
839.75378562967148
 11
1293.9997037129044
 21
843.89489035131191
  0
LINE
  8
_0-5_寸法線
  6
CONTINUOUS
 62
    7
 10
385.45451693352948
 20
839.75378562967148
 11
1309.4545169335295
 21
839.75378562967148
  0
TEXT
  8
_0-5_寸法線
 62
    7
 10
787.45451693352948
 20
839.75378562967148
 40
24
 41
1
 50
0
  1
Ｄ＝Ｎ×Ｅ
  0
LINE
  8
_0-5_寸法線
  6
CONTINUOUS
 62
    7
 10
1309.4545169335295
 20
839.75378562967148
 11
1324.9093301541545
 21
843.89489035131169
  0
LINE
  8
_0-5_寸法線
  6
CONTINUOUS
 62
    7
 10
1309.4545169335295
 20
839.75378562967148
 11
1324.9093301541545
 21
835.61268090803105
  0
LINE
  8
_0-5_寸法線
  6
CONTINUOUS
 62
    7
 10
1344.4545169335295
 20
775.75378562967148
 11
1344.4545169335295
 21
847.75378562967148
  0
LINE
  8
_0-5_寸法線
  6
CONTINUOUS
 62
    7
 10
1344.4545169335295
 20
839.75378562967148
 11
1328.9997037129044
 21
835.61268090803117
  0
LINE
  8
_0-5_寸法線
  6
CONTINUOUS
 62
    7
 10
1344.4545169335295
 20
839.75378562967148
 11
1328.9997037129044
 21
843.89489035131191
  0
LINE
  8
_0-5_寸法線
  6
CONTINUOUS
 62
    7
 10
1309.4545169335295
 20
839.75378562967148
 11
1344.4545169335295
 21
839.75378562967148
  0
TEXT
  8
_0-5_寸法線
 62
    7
 10
1314.9545169335295
 20
839.75378562967148
 40
24
 41
1
 50
0
  1
35
  0
LINE
  8
_0-5_寸法線
  6
CONTINUOUS
 62
    7
 10
345.45451693352948
 20
679.75378562967148
 11
262.45451693352925
 21
679.75378562967171
  0
LINE
  8
_0-5_寸法線
  6
CONTINUOUS
 62
    7
 10
270.45451693352925
 20
679.75378562967171
 11
266.31341221188893
 21
695.20859885029677
  0
LINE
  8
_0-5_寸法線
  6
CONTINUOUS
 62
    7
 10
270.45451693352925
 20
679.75378562967171
 11
274.59562165516968
 21
695.20859885029677
  0
LINE
  8
_0-5_寸法線
  6
CONTINUOUS
 62
    7
 10
334.45451693352948
 20
759.75378562967148
 11
262.45451693352925
 21
759.75378562967171
  0
LINE
  8
_0-5_寸法線
  6
CONTINUOUS
 62
    7
 10
270.45451693352925
 20
759.75378562967171
 11
274.59562165516968
 21
744.29897240904666
  0
LINE
  8
_0-5_寸法線
  6
CONTINUOUS
 62
    7
 10
270.45451693352925
 20
759.75378562967171
 11
266.31341221188893
 21
744.29897240904666
  0
LINE
  8
_0-5_寸法線
  6
CONTINUOUS
 62
    7
 10
270.45451693352925
 20
679.75378562967171
 11
270.45451693352925
 21
759.75378562967171
  0
TEXT
  8
_0-5_寸法線
 62
    7
 10
270.45451693352925
 20
707.7537856296716
 40
24
 41
1
 50
90
  1
80
  0
LINE
  8
_0-0_計極細
  6
DASHED2
 62
    2
 10
1309.4545169335295
 20
675.40450505596732
 11
1309.4545169335295
 21
633.20786906232161
  0
LINE
  8
_0-1_計細線
  6
DASHED2
 62
    3
 10
1317.680505475061
 20
669.75378562967148
 11
1315.680505475061
 21
671.75378562967148
  0
LINE
  8
_0-1_計細線
  6
DASHED2
 62
    3
 10
1303.6805057812228
 20
671.75378562967148
 11
1315.680505475061
 21
671.75378562967148
  0
ARC
  8
_0-1_計細線
  6
DASHED2
 62
    3
 10
1314.680505475061
 20
639.75378562967148
 40
3
 50
269.99999999999977
 51
359.99999999999966
  0
LINE
  8
_0-1_計細線
  6
DASHED2
 62
    3
 10
1317.680505475061
 20
653.75378562967148
 11
1317.680505475061
 21
639.75378562967148
  0
LINE
  8
_0-1_計細線
  6
DASHED2
 62
    3
 10
1304.6805057812228
 20
636.75378562967148
 11
1314.680505475061
 21
636.75378562967148
  0
ARC
  8
_0-1_計細線
  6
DASHED2
 62
    3
 10
1304.6805057812228
 20
639.75378562967148
 40
3
 50
179.99999999999983
 51
269.99999999999977
  0
LINE
  8
_0-1_計細線
  6
DASHED2
 62
    3
 10
1301.6805057812228
 20
653.75378562967148
 11
1301.6805057812228
 21
639.75378562967148
  0
LINE
  8
_0-1_計細線
  6
DASHED2
 62
    3
 10
1317.680505475061
 20
659.75378562967148
 11
1315.680505475061
 21
657.75378562967148
  0
LINE
  8
_0-1_計細線
  6
DASHED2
 62
    3
 10
1315.680505475061
 20
657.75378562967148
 11
1315.680505475061
 21
655.75378562967148
  0
LINE
  8
_0-1_計細線
  6
DASHED2
 62
    3
 10
1315.680505475061
 20
655.75378562967148
 11
1317.680505475061
 21
653.75378562967148
  0
LINE
  8
_0-1_計細線
  6
DASHED2
 62
    3
 10
1301.6805057812228
 20
659.75378562967148
 11
1303.6805057812228
 21
657.75378562967148
  0
LINE
  8
_0-1_計細線
  6
DASHED2
 62
    3
 10
1303.6805057812228
 20
657.75378562967148
 11
1303.6805057812228
 21
655.75378562967148
  0
LINE
  8
_0-1_計細線
  6
DASHED2
 62
    3
 10
1303.6805057812228
 20
655.75378562967148
 11
1301.6805057812228
 21
653.75378562967148
  0
LINE
  8
_0-1_計細線
  6
DASHED2
 62
    3
 10
1317.680505475061
 20
659.75378562967148
 11
1317.680505475061
 21
669.75378562967148
  0
LINE
  8
_0-1_計細線
  6
DASHED2
 62
    3
 10
1301.6805057812228
 20
659.75378562967148
 11
1301.6805057812228
 21
669.75378562967148
  0
LINE
  8
_0-1_計細線
  6
DASHED2
 62
    3
 10
1303.6805057812228
 20
671.75378562967148
 11
1301.6805057812228
 21
669.75378562967148
  0
LINE
  8
_0-0_計極細
  6
DASHED2
 62
    2
 10
1309.4545169335295
 20
675.40450505596732
 11
1309.4545169335295
 21
633.20786906232161
  0
LINE
  8
_0-1_計細線
  6
DASHED2
 62
    3
 10
1317.680505475061
 20
669.75378562967148
 11
1315.680505475061
 21
671.75378562967148
  0
LINE
  8
_0-1_計細線
  6
DASHED2
 62
    3
 10
1303.6805057812232
 20
671.75378562967148
 11
1315.680505475061
 21
671.75378562967148
  0
ARC
  8
_0-1_計細線
  6
DASHED2
 62
    3
 10
1314.680505475061
 20
639.75378562967148
 40
3
 50
269.99999999999977
 51
359.99999999999966
  0
LINE
  8
_0-1_計細線
  6
DASHED2
 62
    3
 10
1317.680505475061
 20
653.75378562967148
 11
1317.680505475061
 21
639.75378562967148
  0
LINE
  8
_0-1_計細線
  6
DASHED2
 62
    3
 10
1304.6805057812232
 20
636.75378562967148
 11
1314.680505475061
 21
636.75378562967148
  0
ARC
  8
_0-1_計細線
  6
DASHED2
 62
    3
 10
1304.6805057812232
 20
639.75378562967148
 40
3
 50
179.99999999999983
 51
269.99999999999977
  0
LINE
  8
_0-1_計細線
  6
DASHED2
 62
    3
 10
1301.6805057812232
 20
653.75378562967148
 11
1301.6805057812232
 21
639.75378562967148
  0
LINE
  8
_0-1_計細線
  6
DASHED2
 62
    3
 10
1317.680505475061
 20
659.75378562967148
 11
1315.680505475061
 21
657.75378562967148
  0
LINE
  8
_0-1_計細線
  6
DASHED2
 62
    3
 10
1315.680505475061
 20
657.75378562967148
 11
1315.680505475061
 21
655.75378562967148
  0
LINE
  8
_0-1_計細線
  6
DASHED2
 62
    3
 10
1315.680505475061
 20
655.75378562967148
 11
1317.680505475061
 21
653.75378562967148
  0
LINE
  8
_0-1_計細線
  6
DASHED2
 62
    3
 10
1301.6805057812232
 20
659.75378562967148
 11
1303.6805057812232
 21
657.75378562967148
  0
LINE
  8
_0-1_計細線
  6
DASHED2
 62
    3
 10
1303.6805057812232
 20
657.75378562967148
 11
1303.6805057812232
 21
655.75378562967148
  0
LINE
  8
_0-1_計細線
  6
DASHED2
 62
    3
 10
1303.6805057812232
 20
655.75378562967148
 11
1301.6805057812232
 21
653.75378562967148
  0
LINE
  8
_0-1_計細線
  6
DASHED2
 62
    3
 10
1317.680505475061
 20
659.75378562967148
 11
1317.680505475061
 21
669.75378562967148
  0
LINE
  8
_0-1_計細線
  6
DASHED2
 62
    3
 10
1301.6805057812232
 20
659.75378562967148
 11
1301.6805057812232
 21
669.75378562967148
  0
LINE
  8
_0-1_計細線
  6
DASHED2
 62
    3
 10
1303.6805057812232
 20
671.75378562967148
 11
1301.6805057812232
 21
669.75378562967148
  0
LINE
  8
_0-5_寸法線
  6
CONTINUOUS
 62
    7
 10
1228.5016042837731
 20
614.16738604046236
 11
1228.5016042837731
 21
598.16738604046236
  0
LINE
  8
_0-5_寸法線
  6
CONTINUOUS
 62
    7
 10
1228.5016042837731
 20
614.16738604046236
 11
1220.5016042837731
 21
600.31097957991142
  0
LINE
  8
_0-5_寸法線
  6
CONTINUOUS
 62
    7
 10
1228.5016042837731
 20
614.16738604046236
 11
1187.8476382769429
 21
462.44471937379581
  0
LINE
  8
_0-5_寸法線
  6
CONTINUOUS
 62
    7
 10
1187.8476382769429
 20
462.44471937379581
 11
975.57114850827088
 21
462.44471937379581
  0
TEXT
  8
_0-5_寸法線
 62
    7
 10
975.57114850827077
 20
465.63049715157354
 40
24
 41
0.7999999999999998
 50
0
  1
縦引き排水トラップ一式
  0
LINE
  8
_0-5_寸法線
  6
CONTINUOUS
 62
    7
 10
1410.4931288984742
 20
503.7537242298169
 11
1594.4931288984747
 21
503.75372422981627
  0
LINE
  8
_0-5_寸法線
  6
CONTINUOUS
 62
    7
 10
1586.4931288984747
 20
503.75372422981627
 11
1582.3520241768344
 21
519.20853745044133
  0
LINE
  8
_0-5_寸法線
  6
CONTINUOUS
 62
    7
 10
1586.4931288984747
 20
503.75372422981627
 11
1590.6342336201151
 21
519.20853745044133
  0
LINE
  8
_0-5_寸法線
  6
CONTINUOUS
 62
    7
 10
1410.4931288984742
 20
583.75325623019148
 11
1594.4931288984747
 21
583.7532562301908
  0
LINE
  8
_0-5_寸法線
  6
CONTINUOUS
 62
    7
 10
1586.4931288984747
 20
583.7532562301908
 11
1590.6342336201151
 21
568.29844300956574
  0
LINE
  8
_0-5_寸法線
  6
CONTINUOUS
 62
    7
 10
1586.4931288984747
 20
583.7532562301908
 11
1582.3520241768344
 21
568.29844300956574
  0
LINE
  8
_0-5_寸法線
  6
CONTINUOUS
 62
    7
 10
1586.4931288984747
 20
503.75372422981627
 11
1586.4931288984747
 21
583.7532562301908
  0
TEXT
  8
_0-5_寸法線
 62
    7
 10
1586.4931288984747
 20
531.75349023000354
 40
24
 41
1
 50
90
  1
80
  0
LINE
  8
_0-5_寸法線
  6
CONTINUOUS
 62
    7
 10
1410.4923759920518
 20
513.94545061078657
 11
1482.4931288984742
 21
513.94545061078634
  0
LINE
  8
_0-5_寸法線
  6
CONTINUOUS
 62
    7
 10
1474.4931288984742
 20
513.94545061078634
 11
1470.352024176834
 21
529.40026383141139
  0
LINE
  8
_0-5_寸法線
  6
CONTINUOUS
 62
    7
 10
1474.4931288984742
 20
513.94545061078634
 11
1478.6342336201146
 21
529.40026383141139
  0
LINE
  8
_0-5_寸法線
  6
CONTINUOUS
 62
    7
 10
1410.4923759920518
 20
573.55844426746239
 11
1482.4931288984742
 21
573.55844426746216
  0
LINE
  8
_0-5_寸法線
  6
CONTINUOUS
 62
    7
 10
1474.4931288984742
 20
573.55844426746216
 11
1478.6342336201146
 21
558.10363104683711
  0
LINE
  8
_0-5_寸法線
  6
CONTINUOUS
 62
    7
 10
1474.4931288984742
 20
573.55844426746216
 11
1470.352024176834
 21
558.10363104683711
  0
LINE
  8
_0-5_寸法線
  6
CONTINUOUS
 62
    7
 10
1474.4931288984742
 20
513.94545061078634
 11
1474.4931288984742
 21
573.55844426746216
  0
TEXT
  8
_0-5_寸法線
 62
    7
 10
1474.4931288984742
 20
489.75194743912425
 40
24
 41
1
 50
90
  1
Rc2(59.6)
  0
LINE
  8
_0-5_寸法線
  6
CONTINUOUS
 62
    7
 10
1143.484268406585
 20
503.75372422981701
 11
1015.4842684065832
 21
503.75372422981741
  0
LINE
  8
_0-5_寸法線
  6
CONTINUOUS
 62
    7
 10
1023.4842684065832
 20
503.75372422981741
 11
1019.3431636849429
 21
519.20853745044246
  0
LINE
  8
_0-5_寸法線
  6
CONTINUOUS
 62
    7
 10
1023.4842684065832
 20
503.75372422981741
 11
1027.6253731282236
 21
519.20853745044246
  0
LINE
  8
_0-5_寸法線
  6
CONTINUOUS
 62
    7
 10
1143.484268406585
 20
759.75408458945208
 11
1015.4842684065832
 21
759.75408458945253
  0
LINE
  8
_0-5_寸法線
  6
CONTINUOUS
 62
    7
 10
1023.4842684065832
 20
759.75408458945253
 11
1027.6253731282236
 21
744.29927136882748
  0
LINE
  8
_0-5_寸法線
  6
CONTINUOUS
 62
    7
 10
1023.4842684065832
 20
759.75408458945253
 11
1019.3431636849429
 21
744.29927136882748
  0
LINE
  8
_0-5_寸法線
  6
CONTINUOUS
 62
    7
 10
1023.4842684065832
 20
503.75372422981741
 11
1023.4842684065832
 21
759.75408458945253
  0
TEXT
  8
_0-5_寸法線
 62
    7
 10
1023.4842684065831
 20
553.75390440963497
 40
24
 41
1
 50
89.999999999999915
  1
256(216)～282
  0
LINE
  8
_0-5_寸法線
  6
CONTINUOUS
 62
    7
 10
1143.484268406585
 20
503.75372422981701
 11
1071.4842684065832
 21
503.75372422981735
  0
LINE
  8
_0-5_寸法線
  6
CONTINUOUS
 62
    7
 10
1079.4842684065832
 20
503.75372422981729
 11
1075.343163684943
 21
519.20853745044235
  0
LINE
  8
_0-5_寸法線
  6
CONTINUOUS
 62
    7
 10
1079.4842684065832
 20
503.75372422981729
 11
1083.6253731282236
 21
519.20853745044235
  0
LINE
  8
_0-5_寸法線
  6
CONTINUOUS
 62
    7
 10
1143.484268406585
 20
593.7536332298472
 11
1071.4842684065832
 21
593.75363322984742
  0
LINE
  8
_0-5_寸法線
  6
CONTINUOUS
 62
    7
 10
1079.4842684065832
 20
593.75363322984742
 11
1083.6253731282234
 21
578.29882000922225
  0
LINE
  8
_0-5_寸法線
  6
CONTINUOUS
 62
    7
 10
1079.4842684065832
 20
593.75363322984742
 11
1075.3431636849427
 21
578.29882000922237
  0
LINE
  8
_0-5_寸法線
  6
CONTINUOUS
 62
    7
 10
1079.4842684065832
 20
503.75372422981729
 11
1079.4842684065832
 21
593.75363322984742
  0
TEXT
  8
_0-5_寸法線
 62
    7
 10
1079.4842684065832
 20
536.75367872983236
 40
24
 41
1
 50
90
  1
90
  0
LINE
  8
_0-5_寸法線
  6
CONTINUOUS
 62
    7
 10
1079.4842684065832
 20
593.75363322984742
 11
1075.343163684943
 21
609.20844645047248
  0
LINE
  8
_0-5_寸法線
  6
CONTINUOUS
 62
    7
 10
1079.4842684065832
 20
593.75363322984742
 11
1083.6253731282236
 21
609.20844645047248
  0
LINE
  8
_0-5_寸法線
  6
CONTINUOUS
 62
    7
 10
1143.484268406585
 20
759.75408458945219
 11
1071.4842684065832
 21
759.75408458945242
  0
LINE
  8
_0-5_寸法線
  6
CONTINUOUS
 62
    7
 10
1079.4842684065832
 20
759.75408458945242
 11
1083.6253731282234
 21
744.29927136882725
  0
LINE
  8
_0-5_寸法線
  6
CONTINUOUS
 62
    7
 10
1079.4842684065832
 20
759.75408458945242
 11
1075.3431636849427
 21
744.29927136882736
  0
LINE
  8
_0-5_寸法線
  6
CONTINUOUS
 62
    7
 10
1079.4842684065832
 20
593.75363322984742
 11
1079.4842684065832
 21
759.75408458945242
  0
TEXT
  8
_0-5_寸法線
 62
    7
 10
1079.4842684065829
 20
598.75385890964992
 40
24
 41
1
 50
89.999999999999844
  1
166(126)～192
  0
LINE
  8
_0-5_寸法線
  6
CONTINUOUS
 62
    7
 10
1237.3477606623753
 20
511.99399449458997
 11
1237.3477606623753
 21
495.99399449458997
  0
LINE
  8
_0-5_寸法線
  6
CONTINUOUS
 62
    7
 10
1237.3477606623753
 20
511.99399449458997
 11
1229.3477606623753
 21
498.13758803403897
  0
LINE
  8
_0-5_寸法線
  6
CONTINUOUS
 62
    7
 10
1237.3477606623753
 20
511.99399449458997
 11
1213.7038515050251
 21
423.75372422981695
  0
LINE
  8
_0-5_寸法線
  6
CONTINUOUS
 62
    7
 10
1213.7038515050251
 20
423.75372422981695
 11
1079.3038515050252
 21
423.75372422981695
  0
TEXT
  8
_0-5_寸法線
 62
    7
 10
1079.3038515050252
 20
423.75372422981695
 40
24
 41
0.7999999999999998
 50
0
  1
防水マス横引き
  0
LINE
  8
_0-b_細線3
  6
CONTINUOUS
 62
    7
 10
537.44145641544105
 20
161.90647914882607
 11
857.44145641544083
 21
161.90647914882607
  0
LINE
  8
_0-b_細線3
  6
CONTINUOUS
 62
    7
 10
860.10812308210757
 20
159.23981248215932
 11
534.77478974877431
 21
159.23981248215932
  0
LINE
  8
_0-b_細線3
  6
CONTINUOUS
 62
    7
 10
505.44145641544105
 20
404.57314581549281
 11
505.44145641544105
 21
425.90647914882607
  0
LINE
  8
_0-b_細線3
  6
CONTINUOUS
 62
    7
 10
505.44145641544105
 20
425.90647914882607
 11
537.44145641544105
 21
425.90647914882607
  0
LINE
  8
_0-b_細線3
  6
CONTINUOUS
 62
    7
 10
857.44145641544083
 20
425.90647914882607
 11
889.44145641544083
 21
425.90647914882607
  0
LINE
  8
_0-b_細線3
  6
CONTINUOUS
 62
    7
 10
889.44145641544083
 20
425.90647914882607
 11
889.44145641544083
 21
404.57314581549281
  0
LINE
  8
_0-b_細線3
  6
CONTINUOUS
 62
    7
 10
889.44145641544083
 20
404.57314581549281
 11
886.77478974877431
 21
404.57314581549281
  0
LINE
  8
_0-b_細線3
  6
CONTINUOUS
 62
    7
 10
886.77478974877431
 20
404.57314581549281
 11
886.77478974877431
 21
423.23981248215932
  0
LINE
  8
_0-b_細線3
  6
CONTINUOUS
 62
    7
 10
886.77478974877431
 20
423.23981248215932
 11
860.10812308210757
 21
423.23981248215932
  0
LINE
  8
_0-b_細線3
  6
CONTINUOUS
 62
    7
 10
534.77478974877431
 20
423.23981248215932
 11
508.10812308210757
 21
423.23981248215932
  0
LINE
  8
_0-b_細線3
  6
CONTINUOUS
 62
    7
 10
508.10812308210757
 20
423.23981248215932
 11
508.10812308210757
 21
404.57314581549281
  0
LINE
  8
_0-b_細線3
  6
CONTINUOUS
 62
    7
 10
508.10812308210757
 20
404.57314581549281
 11
505.44145641544105
 21
404.57314581549281
  0
LINE
  8
_0-b_細線3
  6
CONTINUOUS
 62
    7
 10
537.44145641544105
 20
425.90647914882607
 11
537.44145641544105
 21
161.90647914882607
  0
LINE
  8
_0-b_細線3
  6
CONTINUOUS
 62
    7
 10
857.44145641544083
 20
161.90647914882607
 11
857.44145641544083
 21
425.90647914882607
  0
LINE
  8
_0-b_細線3
  6
CONTINUOUS
 62
    7
 10
860.10812308210757
 20
423.23981248215932
 11
860.10812308210757
 21
159.23981248215932
  0
LINE
  8
_0-b_細線3
  6
CONTINUOUS
 62
    7
 10
534.77478974877431
 20
159.23981248215932
 11
534.77478974877431
 21
423.23981248215932
  0
ARC
  8
_0-b_細線3
  6
CONTINUOUS
 62
    7
 10
777.70812308696304
 20
417.90647914882538
 40
2.666666666666667
 50
89.999999999999915
 51
179.99999999999983
  0
ARC
  8
_0-b_細線3
  6
CONTINUOUS
 62
    7
 10
778.95598759717041
 20
423.23981248215932
 40
2.666666666666667
 50
269.99999999999977
 51
329.99999999997726
  0
ARC
  8
_0-b_細線3
  6
CONTINUOUS
 62
    7
 10
783.5747897506867
 20
420.57314581549281
 40
2.666666666666667
 50
89.999999999999915
 51
150.00000000001765
  0
LINE
  8
_0-b_細線3
  6
CONTINUOUS
 62
    7
 10
777.70812308696304
 20
420.57314581549281
 11
778.95598759717041
 21
420.57314581549281
  0
ARC
  8
_0-b_細線3
  6
CONTINUOUS
 62
    7
 10
802.77478974774431
 20
417.90647914882607
 40
2.666666666666667
 50
0
 51
89.999999999999915
  0
ARC
  8
_0-b_細線3
  6
CONTINUOUS
 62
    7
 10
801.52692523753694
 20
423.23981248215932
 40
2.666666666666667
 50
210.00000000000202
 51
269.99999999999977
  0
ARC
  8
_0-b_細線3
  6
CONTINUOUS
 62
    7
 10
796.90812308402064
 20
420.57314581549281
 40
2.666666666666667
 50
30.000000000002391
 51
89.999999999999901
  0
LINE
  8
_0-b_細線3
  6
CONTINUOUS
 62
    7
 10
802.77478974774431
 20
420.57314581549281
 11
801.52692523753694
 21
420.57314581549281
  0
ARC
  8
_0-b_細線3
  6
CONTINUOUS
 62
    7
 10
776.37478975363024
 20
414.17314581549249
 40
1.3333333333333335
 50
179.99999999999983
 51
269.99999999999977
  0
LINE
  8
_0-b_細線3
  6
CONTINUOUS
 62
    7
 10
775.04145642029698
 20
417.90647914882538
 11
775.04145642029698
 21
414.17314581549249
  0
ARC
  8
_0-b_細線3
  6
CONTINUOUS
 62
    7
 10
804.10812308107688
 20
414.17314581549317
 40
1.3333333333333335
 50
269.99999999999977
 51
359.99999999999966
  0
LINE
  8
_0-b_細線3
  6
CONTINUOUS
 62
    7
 10
805.44145641441037
 20
417.90647914882607
 11
805.44145641441037
 21
414.17314581549317
  0
ARC
  8
_0-b_細線3
  6
CONTINUOUS
 62
    7
 10
783.04145642029698
 20
410.17314581549249
 40
2.666666666666667
 50
0
 51
89.999999999999915
  0
LINE
  8
_0-b_細線3
  6
CONTINUOUS
 62
    7
 10
783.04145642029698
 20
412.83981248215923
 11
776.37478975363024
 21
412.83981248215923
  0
ARC
  8
_0-b_細線3
  6
CONTINUOUS
 62
    7
 10
797.44145642029662
 20
410.17314581549317
 40
2.666666666666667
 50
89.999999999999915
 51
179.99999999999983
  0
LINE
  8
_0-b_細線3
  6
CONTINUOUS
 62
    7
 10
797.44145641441037
 20
412.83981248215923
 11
804.10812308107688
 21
412.83981248215923
  0
LINE
  8
_0-b_細線3
  6
CONTINUOUS
 62
    7
 10
796.90812308402064
 20
423.23981248215932
 11
783.5747897506867
 21
423.23981248215932
  0
LINE
  8
_0-b_細線3
  6
CONTINUOUS
 62
    7
 10
785.70812308401992
 20
369.90647914882538
 11
785.70812308696304
 21
410.17314581549249
  0
LINE
  8
_0-b_細線3
  6
CONTINUOUS
 62
    7
 10
794.77478975068743
 20
369.90647914882584
 11
794.77478975363056
 21
410.17314581549317
  0
LINE
  8
_0-b_細線3
  6
CONTINUOUS
 62
    7
 10
794.77478975068743
 20
369.90647914882584
 11
785.70812308401992
 21
369.90647914882538
  0
ARC
  8
_0-b_細線3
  6
CONTINUOUS
 62
    7
 10
731.30812308598161
 20
417.90647914882538
 40
2.666666666666667
 50
89.999999999999915
 51
179.99999999998533
  0
ARC
  8
_0-b_細線3
  6
CONTINUOUS
 62
    7
 10
732.55598759618852
 20
423.23981248215932
 40
2.666666666666667
 50
269.99999999999977
 51
329.99999999998454
  0
ARC
  8
_0-b_細線3
  6
CONTINUOUS
 62
    7
 10
737.17478974970481
 20
420.57314581549281
 40
2.666666666666667
 50
89.999999999999915
 51
150.00000000001032
  0
LINE
  8
_0-b_細線3
  6
CONTINUOUS
 62
    7
 10
731.30812308598161
 20
420.57314581549281
 11
732.55598759618852
 21
420.57314581549281
  0
ARC
  8
_0-b_細線3
  6
CONTINUOUS
 62
    7
 10
756.37478974676242
 20
417.90647914882607
 40
2.666666666666667
 50
359.99999999998499
 51
89.999999999999545
  0
ARC
  8
_0-b_細線3
  6
CONTINUOUS
 62
    7
 10
755.12692523655551
 20
423.23981248215932
 40
2.666666666666667
 50
209.99999999999713
 51
269.99999999999977
  0
ARC
  8
_0-b_細線3
  6
CONTINUOUS
 62
    7
 10
750.50812308303921
 20
420.57314581549281
 40
2.666666666666667
 50
30.000000000007276
 51
89.999999999999901
  0
LINE
  8
_0-b_細線3
  6
CONTINUOUS
 62
    7
 10
756.37478974676242
 20
420.57314581549281
 11
755.12692523655551
 21
420.57314581549281
  0
ARC
  8
_0-b_細線3
  6
CONTINUOUS
 62
    7
 10
729.97478975264903
 20
414.17314581549317
 40
1.3333333333333335
 50
179.99999999999983
 51
269.99999999999977
  0
LINE
  8
_0-b_細線3
  6
CONTINUOUS
 62
    7
 10
728.64145641931509
 20
417.90647914882607
 11
728.64145641931509
 21
414.17314581549317
  0
ARC
  8
_0-b_細線3
  6
CONTINUOUS
 62
    7
 10
757.70812308009567
 20
414.17314581549249
 40
1.3333333333333335
 50
269.99999999999977
 51
359.99999999999966
  0
LINE
  8
_0-b_細線3
  6
CONTINUOUS
 62
    7
 10
759.04145641342893
 20
417.90647914882538
 11
759.04145641342893
 21
414.17314581549249
  0
ARC
  8
_0-b_細線3
  6
CONTINUOUS
 62
    7
 10
736.64145641931509
 20
410.17314581549249
 40
2.666666666666667
 50
0
 51
89.999999999999915
  0
LINE
  8
_0-b_細線3
  6
CONTINUOUS
 62
    7
 10
736.64145641931509
 20
412.83981248215923
 11
729.97478975264903
 21
412.83981248215923
  0
ARC
  8
_0-b_細線3
  6
CONTINUOUS
 62
    7
 10
751.04145641931518
 20
410.17314581549317
 40
2.666666666666667
 50
89.999999999999915
 51
179.99999999999983
  0
LINE
  8
_0-b_細線3
  6
CONTINUOUS
 62
    7
 10
751.04145641342893
 20
412.83981248215923
 11
757.70812308009567
 21
412.83981248215923
  0
LINE
  8
_0-b_細線3
  6
CONTINUOUS
 62
    7
 10
750.50812308303921
 20
423.23981248215932
 11
737.17478974970481
 21
423.23981248215932
  0
LINE
  8
_0-b_細線3
  6
CONTINUOUS
 62
    7
 10
739.30812308303848
 20
369.90647914882538
 11
739.30812308598161
 21
410.17314581549249
  0
LINE
  8
_0-b_細線3
  6
CONTINUOUS
 62
    7
 10
748.37478974970554
 20
369.90647914882584
 11
748.37478975264867
 21
410.17314581549317
  0
LINE
  8
_0-b_細線3
  6
CONTINUOUS
 62
    7
 10
748.37478974970554
 20
369.90647914882584
 11
739.30812308303848
 21
369.90647914882538
  0
ARC
  8
_0-b_細線3
  6
CONTINUOUS
 62
    7
 10
684.90812308505019
 20
417.90647914882538
 40
2.666666666666667
 50
89.999999999999915
 51
179.99999999999983
  0
ARC
  8
_0-b_細線3
  6
CONTINUOUS
 62
    7
 10
686.15598759525687
 20
423.23981248215932
 40
2.666666666666667
 50
269.99999999999977
 51
329.99999999999187
  0
ARC
  8
_0-b_細線3
  6
CONTINUOUS
 62
    7
 10
690.77478974877317
 20
420.57314581549281
 40
2.666666666666667
 50
89.999999999999915
 51
150.00000000000298
  0
LINE
  8
_0-b_細線3
  6
CONTINUOUS
 62
    7
 10
684.90812308505019
 20
420.57314581549281
 11
686.15598759525687
 21
420.57314581549281
  0
ARC
  8
_0-b_細線3
  6
CONTINUOUS
 62
    7
 10
709.97478974583078
 20
417.90647914882607
 40
2.666666666666667
 50
0
 51
89.999999999999915
  0
ARC
  8
_0-b_細線3
  6
CONTINUOUS
 62
    7
 10
708.72692523562523
 20
423.23981248215932
 40
2.666666666666667
 50
209.99999999998249
 51
269.99999999999977
  0
ARC
  8
_0-b_細線3
  6
CONTINUOUS
 62
    7
 10
704.1081230821078
 20
420.57314581549281
 40
2.666666666666667
 50
30.000000000009717
 51
89.999999999999901
  0
LINE
  8
_0-b_細線3
  6
CONTINUOUS
 62
    7
 10
709.97478974583078
 20
420.57314581549281
 11
708.72692523562523
 21
420.57314581549281
  0
ARC
  8
_0-b_細線3
  6
CONTINUOUS
 62
    7
 10
683.57478975171807
 20
414.17314581549249
 40
1.3333333333333335
 50
179.99999999999983
 51
269.99999999999977
  0
LINE
  8
_0-b_細線3
  6
CONTINUOUS
 62
    7
 10
682.24145641838345
 20
417.90647914882538
 11
682.24145641838345
 21
414.17314581549249
  0
ARC
  8
_0-b_細線3
  6
CONTINUOUS
 62
    7
 10
711.30812307916403
 20
414.17314581549317
 40
1.3333333333333335
 50
269.99999999999977
 51
359.99999999999966
  0
LINE
  8
_0-b_細線3
  6
CONTINUOUS
 62
    7
 10
712.64145641249866
 20
417.90647914882607
 11
712.64145641249866
 21
414.17314581549317
  0
ARC
  8
_0-b_細線3
  6
CONTINUOUS
 62
    7
 10
690.24145641838345
 20
410.17314581549249
 40
2.666666666666667
 50
0
 51
89.999999999999915
  0
LINE
  8
_0-b_細線3
  6
CONTINUOUS
 62
    7
 10
690.24145641838345
 20
412.83981248215923
 11
683.57478975171807
 21
412.83981248215923
  0
ARC
  8
_0-b_細線3
  6
CONTINUOUS
 62
    7
 10
704.64145641838377
 20
410.17314581549317
 40
2.666666666666667
 50
89.999999999999915
 51
179.99999999999983
  0
LINE
  8
_0-b_細線3
  6
CONTINUOUS
 62
    7
 10
704.64145641249752
 20
412.83981248215923
 11
711.30812307916403
 21
412.83981248215923
  0
LINE
  8
_0-b_細線3
  6
CONTINUOUS
 62
    7
 10
704.1081230821078
 20
423.23981248215932
 11
690.77478974877317
 21
423.23981248215932
  0
LINE
  8
_0-b_細線3
  6
CONTINUOUS
 62
    7
 10
692.9081230821082
 20
369.90647914882538
 11
692.90812308505019
 21
410.17314581549249
  0
LINE
  8
_0-b_細線3
  6
CONTINUOUS
 62
    7
 10
701.9747897487739
 20
369.90647914882584
 11
701.97478975171703
 21
410.17314581549317
  0
LINE
  8
_0-b_細線3
  6
CONTINUOUS
 62
    7
 10
701.9747897487739
 20
369.90647914882584
 11
692.9081230821082
 21
369.90647914882538
  0
ARC
  8
_0-b_細線3
  6
CONTINUOUS
 62
    7
 10
592.10812308665095
 20
417.90647914882538
 40
2.666666666666667
 50
89.999999999999915
 51
179.99999999999983
  0
ARC
  8
_0-b_細線3
  6
CONTINUOUS
 62
    7
 10
593.35598759685718
 20
423.23981248215932
 40
2.666666666666667
 50
269.99999999999977
 51
329.99999999999676
  0
ARC
  8
_0-b_細線3
  6
CONTINUOUS
 62
    7
 10
597.97478975037393
 20
420.57314581549281
 40
2.666666666666667
 50
89.999999999999915
 51
150.00000000000298
  0
LINE
  8
_0-b_細線3
  6
CONTINUOUS
 62
    7
 10
592.10812308665095
 20
420.57314581549281
 11
593.35598759685718
 21
420.57314581549281
  0
ARC
  8
_0-b_細線3
  6
CONTINUOUS
 62
    7
 10
617.17478974743153
 20
417.90647914882607
 40
2.666666666666667
 50
0
 51
89.999999999999915
  0
ARC
  8
_0-b_細線3
  6
CONTINUOUS
 62
    7
 10
615.92692523722553
 20
423.23981248215932
 40
2.666666666666667
 50
209.99999999998738
 51
269.99999999999977
  0
ARC
  8
_0-b_細線3
  6
CONTINUOUS
 62
    7
 10
611.30812308370787
 20
420.57314581549281
 40
2.666666666666667
 50
30.000000000002391
 51
89.999999999985349
  0
LINE
  8
_0-b_細線3
  6
CONTINUOUS
 62
    7
 10
617.17478974743153
 20
420.57314581549281
 11
615.92692523722553
 21
420.57314581549281
  0
ARC
  8
_0-b_細線3
  6
CONTINUOUS
 62
    7
 10
590.77478975331815
 20
414.17314581549249
 40
1.3333333333333335
 50
179.99999999999983
 51
269.99999999999977
  0
LINE
  8
_0-b_細線3
  6
CONTINUOUS
 62
    7
 10
589.44145641998375
 20
417.90647914882538
 11
589.44145641998375
 21
414.17314581549249
  0
ARC
  8
_0-b_細線3
  6
CONTINUOUS
 62
    7
 10
618.50812308076502
 20
414.17314581549317
 40
1.3333333333333335
 50
269.99999999999977
 51
359.99999999999966
  0
LINE
  8
_0-b_細線3
  6
CONTINUOUS
 62
    7
 10
619.84145641409896
 20
417.90647914882607
 11
619.84145641409896
 21
414.17314581549317
  0
ARC
  8
_0-b_細線3
  6
CONTINUOUS
 62
    7
 10
597.44145641998375
 20
410.17314581549249
 40
2.666666666666667
 50
0
 51
89.999999999999915
  0
LINE
  8
_0-b_細線3
  6
CONTINUOUS
 62
    7
 10
597.44145641998375
 20
412.83981248215923
 11
590.77478975331815
 21
412.83981248215923
  0
ARC
  8
_0-b_細線3
  6
CONTINUOUS
 62
    7
 10
611.84145641998452
 20
410.17314581549317
 40
2.666666666666667
 50
89.999999999999915
 51
179.99999999999983
  0
LINE
  8
_0-b_細線3
  6
CONTINUOUS
 62
    7
 10
611.84145641409827
 20
412.83981248215923
 11
618.50812308076502
 21
412.83981248215923
  0
LINE
  8
_0-b_細線3
  6
CONTINUOUS
 62
    7
 10
611.30812308370787
 20
423.23981248215932
 11
597.97478975037393
 21
423.23981248215932
  0
LINE
  8
_0-b_細線3
  6
CONTINUOUS
 62
    7
 10
600.10812308370851
 20
369.90647914882538
 11
600.10812308665095
 21
410.17314581549249
  0
LINE
  8
_0-b_細線3
  6
CONTINUOUS
 62
    7
 10
609.1747897503742
 20
369.90647914882584
 11
609.17478975331778
 21
410.17314581549317
  0
LINE
  8
_0-b_細線3
  6
CONTINUOUS
 62
    7
 10
609.1747897503742
 20
369.90647914882584
 11
600.10812308370851
 21
369.90647914882538
  0
ARC
  8
_0-b_細線3
  6
CONTINUOUS
 62
    7
 10
638.50812308574837
 20
417.90647914882538
 40
2.666666666666667
 50
89.999999999999915
 51
179.99999999998533
  0
ARC
  8
_0-b_細線3
  6
CONTINUOUS
 62
    7
 10
639.75598759595505
 20
423.23981248215932
 40
2.666666666666667
 50
269.99999999999977
 51
329.99999999999187
  0
ARC
  8
_0-b_細線3
  6
CONTINUOUS
 62
    7
 10
644.37478974947135
 20
420.57314581549281
 40
2.666666666666667
 50
89.999999999999915
 51
150.00000000000298
  0
LINE
  8
_0-b_細線3
  6
CONTINUOUS
 62
    7
 10
638.50812308574837
 20
420.57314581549281
 11
639.75598759595505
 21
420.57314581549281
  0
ARC
  8
_0-b_細線3
  6
CONTINUOUS
 62
    7
 10
663.57478974652895
 20
417.90647914882607
 40
2.666666666666667
 50
359.99999999998499
 51
89.999999999999545
  0
ARC
  8
_0-b_細線3
  6
CONTINUOUS
 62
    7
 10
662.3269252363234
 20
423.23981248215932
 40
2.666666666666667
 50
209.99999999998249
 51
269.99999999999977
  0
ARC
  8
_0-b_細線3
  6
CONTINUOUS
 62
    7
 10
657.70812308280597
 20
420.57314581549281
 40
2.666666666666667
 50
30.000000000009717
 51
89.999999999999901
  0
LINE
  8
_0-b_細線3
  6
CONTINUOUS
 62
    7
 10
663.57478974652895
 20
420.57314581549281
 11
662.3269252363234
 21
420.57314581549281
  0
ARC
  8
_0-b_細線3
  6
CONTINUOUS
 62
    7
 10
637.17478975241625
 20
414.17314581549317
 40
1.3333333333333335
 50
179.99999999999983
 51
269.99999999999977
  0
LINE
  8
_0-b_細線3
  6
CONTINUOUS
 62
    7
 10
635.84145641908162
 20
417.90647914882607
 11
635.84145641908162
 21
414.17314581549317
  0
ARC
  8
_0-b_細線3
  6
CONTINUOUS
 62
    7
 10
664.90812307986243
 20
414.17314581549249
 40
1.3333333333333335
 50
269.99999999999977
 51
359.99999999999966
  0
LINE
  8
_0-b_細線3
  6
CONTINUOUS
 62
    7
 10
666.24145641319683
 20
417.90647914882538
 11
666.24145641319683
 21
414.17314581549249
  0
ARC
  8
_0-b_細線3
  6
CONTINUOUS
 62
    7
 10
643.84145641908162
 20
410.17314581549249
 40
2.666666666666667
 50
0
 51
89.999999999999915
  0
LINE
  8
_0-b_細線3
  6
CONTINUOUS
 62
    7
 10
643.84145641908162
 20
412.83981248215923
 11
637.17478975241625
 21
412.83981248215923
  0
ARC
  8
_0-b_細線3
  6
CONTINUOUS
 62
    7
 10
658.24145641908194
 20
410.17314581549317
 40
2.666666666666667
 50
89.999999999999915
 51
179.99999999999983
  0
LINE
  8
_0-b_細線3
  6
CONTINUOUS
 62
    7
 10
658.24145641319569
 20
412.83981248215923
 11
664.90812307986243
 21
412.83981248215923
  0
LINE
  8
_0-b_細線3
  6
CONTINUOUS
 62
    7
 10
657.70812308280597
 20
423.23981248215932
 11
644.37478974947135
 21
423.23981248215932
  0
LINE
  8
_0-b_細線3
  6
CONTINUOUS
 62
    7
 10
646.50812308280638
 20
369.90647914882538
 11
646.50812308574837
 21
410.17314581549249
  0
LINE
  8
_0-b_細線3
  6
CONTINUOUS
 62
    7
 10
655.57478974947207
 20
369.90647914882584
 11
655.5747897524152
 21
410.17314581549317
  0
LINE
  8
_0-b_細線3
  6
CONTINUOUS
 62
    7
 10
655.57478974947207
 20
369.90647914882584
 11
646.50812308280638
 21
369.90647914882538
  0
ARC
  8
_0-b_細線3
  6
CONTINUOUS
 62
    7
 10
824.37478975420208
 20
417.90647914882607
 40
2.666666666666667
 50
89.999999999999915
 51
179.99999999999983
  0
ARC
  8
_0-b_細線3
  6
CONTINUOUS
 62
    7
 10
825.6226542644074
 20
423.23981248215932
 40
2.666666666666667
 50
269.99999999999977
 51
329.99999999999187
  0
ARC
  8
_0-b_細線3
  6
CONTINUOUS
 62
    7
 10
830.24145641792506
 20
420.57314581549281
 40
2.666666666666667
 50
89.999999999999915
 51
150.00000000001765
  0
LINE
  8
_0-b_細線3
  6
CONTINUOUS
 62
    7
 10
824.37478975420208
 20
420.57314581549281
 11
825.6226542644074
 21
420.57314581549281
  0
ARC
  8
_0-b_細線3
  6
CONTINUOUS
 62
    7
 10
849.44145641498267
 20
417.90647914882607
 40
2.666666666666667
 50
359.99999999998499
 51
89.999999999999545
  0
ARC
  8
_0-b_細線3
  6
CONTINUOUS
 62
    7
 10
848.19359190477576
 20
423.23981248215932
 40
2.666666666666667
 50
209.99999999999713
 51
269.99999999999977
  0
ARC
  8
_0-b_細線3
  6
CONTINUOUS
 62
    7
 10
843.57478975125832
 20
420.57314581549281
 40
2.666666666666667
 50
29.999999999995062
 51
89.999999999975572
  0
LINE
  8
_0-b_細線3
  6
CONTINUOUS
 62
    7
 10
849.44145641498267
 20
420.57314581549281
 11
848.19359190477576
 21
420.57314581549281
  0
ARC
  8
_0-b_細線3
  6
CONTINUOUS
 62
    7
 10
823.0414564208686
 20
414.17314581549317
 40
1.3333333333333335
 50
179.99999999999983
 51
269.99999999999977
  0
LINE
  8
_0-b_細線3
  6
CONTINUOUS
 62
    7
 10
821.7081230875342
 20
417.90647914882607
 11
821.7081230875342
 21
414.17314581549317
  0
ARC
  8
_0-b_細線3
  6
CONTINUOUS
 62
    7
 10
850.77478974831592
 20
414.17314581549317
 40
1.3333333333333335
 50
269.99999999999977
 51
359.99999999997033
  0
LINE
  8
_0-b_細線3
  6
CONTINUOUS
 62
    7
 10
852.10812308164918
 20
417.90647914882538
 11
852.10812308164918
 21
414.17314581549249
  0
ARC
  8
_0-b_細線3
  6
CONTINUOUS
 62
    7
 10
829.70812308753398
 20
410.17314581549249
 40
2.666666666666667
 50
0
 51
89.999999999999915
  0
LINE
  8
_0-b_細線3
  6
CONTINUOUS
 62
    7
 10
829.70812308753398
 20
412.83981248215923
 11
823.0414564208686
 21
412.83981248215923
  0
ARC
  8
_0-b_細線3
  6
CONTINUOUS
 62
    7
 10
844.1081230875343
 20
410.17314581549317
 40
2.666666666666667
 50
89.999999999999915
 51
179.99999999999983
  0
LINE
  8
_0-b_細線3
  6
CONTINUOUS
 62
    7
 10
844.10812308164805
 20
412.83981248215923
 11
850.77478974831592
 21
412.83981248215923
  0
LINE
  8
_0-b_細線3
  6
CONTINUOUS
 62
    7
 10
843.57478975125832
 20
423.23981248215932
 11
830.24145641792506
 21
423.23981248215932
  0
LINE
  8
_0-b_細線3
  6
CONTINUOUS
 62
    7
 10
832.37478975125873
 20
369.90647914882538
 11
832.37478975420186
 21
410.17314581549249
  0
LINE
  8
_0-b_細線3
  6
CONTINUOUS
 62
    7
 10
841.44145641792443
 20
369.90647914882584
 11
841.44145642086892
 21
410.17314581549317
  0
LINE
  8
_0-b_細線3
  6
CONTINUOUS
 62
    7
 10
841.44145641792443
 20
369.90647914882584
 11
832.37478975125873
 21
369.90647914882538
  0
LINE
  8
_0-a_極細3
  6
CENTER1
 62
    7
 10
697.44145641544105
 20
344.00915197210634
 11
697.44145641544105
 21
445.52915197211632
  0
LINE
  8
_0-b_細線3
  6
CONTINUOUS
 62
    7
 10
570.5081230782489
 20
364.57314581549235
 11
561.44145641158184
 21
364.57314581549235
  0
LINE
  8
_0-b_細線3
  6
CONTINUOUS
 62
    7
 10
589.44145641544037
 20
364.57314581549235
 11
581.17478974588062
 21
364.57314581549235
  0
LINE
  8
_0-b_細線3
  6
CONTINUOUS
 62
    7
 10
805.44145641544173
 20
364.57314581549235
 11
813.70812308500149
 21
364.57314581549235
  0
LINE
  8
_0-b_細線3
  6
CONTINUOUS
 62
    7
 10
590.77478974877408
 20
368.57314581549213
 11
589.44145641544037
 21
369.90647914882584
  0
LINE
  8
_0-b_細線3
  6
CONTINUOUS
 62
    7
 10
590.77478974877408
 20
365.90647914882516
 11
590.77478974877408
 21
368.57314581549213
  0
LINE
  8
_0-b_細線3
  6
CONTINUOUS
 62
    7
 10
589.44145641544037
 20
364.57314581549235
 11
590.77478974877408
 21
365.90647914882516
  0
LINE
  8
_0-b_細線3
  6
CONTINUOUS
 62
    7
 10
542.77478974877431
 20
364.57314581549235
 11
589.44145641544037
 21
364.57314581549235
  0
LINE
  8
_0-b_細線3
  6
CONTINUOUS
 62
    7
 10
538.77478974877386
 20
316.5731458154919
 11
537.44145641544105
 21
317.90647914882538
  0
LINE
  8
_0-b_細線3
  6
CONTINUOUS
 62
    7
 10
541.44145641544105
 20
316.5731458154919
 11
538.77478974877386
 21
316.5731458154919
  0
LINE
  8
_0-b_細線3
  6
CONTINUOUS
 62
    7
 10
542.77478974877431
 20
317.90647914882538
 11
541.44145641544105
 21
316.5731458154919
  0
LINE
  8
_0-b_細線3
  6
CONTINUOUS
 62
    7
 10
542.77478974877431
 20
364.57314581549235
 11
542.77478974877431
 21
317.90647914882538
  0
LINE
  8
_0-b_細線3
  6
CONTINUOUS
 62
    7
 10
537.44145641544105
 20
364.57314581549235
 11
537.44145641544105
 21
317.90647914882538
  0
LINE
  8
_0-b_細線3
  6
CONTINUOUS
 62
    7
 10
542.77478974877431
 20
369.90647914882584
 11
589.44145641544037
 21
369.90647914882584
  0
ARC
  8
_0-b_細線3
  6
CONTINUOUS
 62
    7
 10
542.77478974877431
 20
364.57314581549235
 40
5.333333333333333
 50
89.999999999999915
 51
179.99999999999983
  0
LINE
  8
_0-b_細線3
  6
CONTINUOUS
 62
    7
 10
804.10812308210802
 20
368.57314581549213
 11
805.44145641544173
 21
369.90647914882584
  0
LINE
  8
_0-b_細線3
  6
CONTINUOUS
 62
    7
 10
804.10812308210802
 20
365.90647914882516
 11
804.10812308210802
 21
368.57314581549213
  0
LINE
  8
_0-b_細線3
  6
CONTINUOUS
 62
    7
 10
805.44145641544173
 20
364.57314581549235
 11
804.10812308210802
 21
365.90647914882516
  0
LINE
  8
_0-b_細線3
  6
CONTINUOUS
 62
    7
 10
852.1081230821078
 20
364.57314581549235
 11
805.44145641544173
 21
364.57314581549235
  0
LINE
  8
_0-b_細線3
  6
CONTINUOUS
 62
    7
 10
856.10812308210825
 20
316.5731458154919
 11
857.44145641544105
 21
317.90647914882538
  0
LINE
  8
_0-b_細線3
  6
CONTINUOUS
 62
    7
 10
853.44145641544105
 20
316.5731458154919
 11
856.10812308210825
 21
316.5731458154919
  0
LINE
  8
_0-b_細線3
  6
CONTINUOUS
 62
    7
 10
852.1081230821078
 20
317.90647914882538
 11
853.44145641544105
 21
316.5731458154919
  0
LINE
  8
_0-b_細線3
  6
CONTINUOUS
 62
    7
 10
852.1081230821078
 20
364.57314581549235
 11
852.1081230821078
 21
317.90647914882538
  0
LINE
  8
_0-b_細線3
  6
CONTINUOUS
 62
    7
 10
852.1081230821078
 20
369.90647914882584
 11
805.44145641544173
 21
369.90647914882584
  0
LINE
  8
_0-b_細線3
  6
CONTINUOUS
 62
    7
 10
857.44145641544105
 20
364.57314581549235
 11
857.44145641544105
 21
317.90647914882538
  0
ARC
  8
_0-b_細線3
  6
CONTINUOUS
 62
    7
 10
852.1081230821078
 20
364.57314581549235
 40
5.333333333333333
 50
0
 51
89.999999999999915
  0
LINE
  8
_0-b_細線3
  6
CONTINUOUS
 62
    7
 10
701.97478974928049
 20
376.83975312535904
 11
714.37478975072781
 21
376.83975312535904
  0
LINE
  8
_0-d_寸法3
  6
CONTINUOUS
 62
    7
 10
685.18474530249068
 20
380.19108090381013
 11
636.38793212316227
 21
421.13646884521182
  0
LINE
  8
_0-d_寸法3
  6
CONTINUOUS
 62
    7
 10
642.51628766811405
 20
415.99416796771948
 11
638.37518294647373
 21
431.44898118834459
  0
LINE
  8
_0-d_寸法3
  6
CONTINUOUS
 62
    7
 10
642.51628766811405
 20
415.99416796771948
 11
646.65739238975436
 21
431.44898118834459
  0
LINE
  8
_0-d_寸法3
  6
CONTINUOUS
 62
    7
 10
685.18474530249068
 20
433.52441423714379
 11
636.38793212316227
 21
474.46980217854531
  0
LINE
  8
_0-d_寸法3
  6
CONTINUOUS
 62
    7
 10
642.51628766811405
 20
469.32750130105296
 11
646.65739238975436
 21
453.87268808042785
  0
LINE
  8
_0-d_寸法3
  6
CONTINUOUS
 62
    7
 10
642.51628766811405
 20
469.32750130105296
 11
638.37518294647373
 21
453.87268808042785
  0
LINE
  8
_0-d_寸法3
  6
CONTINUOUS
 62
    7
 10
642.51628766811405
 20
415.99416796771948
 11
642.51628766811405
 21
469.32750130105296
  0
TEXT
  8
_0-d_寸法3
 62
    7
 10
642.51628766811405
 20
431.15511052188435
 40
24
 41
1
 50
90
  1
20
  0
LINE
  8
_0-d_寸法3
  6
CONTINUOUS
 62
    7
 10
537.44145641544105
 20
300.5731458154919
 11
537.44145641544105
 21
280.5731458154919
  0
LINE
  8
_0-d_寸法3
  6
CONTINUOUS
 62
    7
 10
537.44145641544105
 20
288.5731458154919
 11
552.89626963606611
 21
292.71425053713222
  0
LINE
  8
_0-d_寸法3
  6
CONTINUOUS
 62
    7
 10
537.44145641544105
 20
288.5731458154919
 11
552.89626963606611
 21
284.43204109385158
  0
LINE
  8
_0-d_寸法3
  6
CONTINUOUS
 62
    7
 10
590.77478974877408
 20
348.57314581549235
 11
590.77478974877386
 21
280.5731458154919
  0
LINE
  8
_0-d_寸法3
  6
CONTINUOUS
 62
    7
 10
590.77478974877386
 20
288.5731458154919
 11
575.3199765281488
 21
284.43204109385169
  0
LINE
  8
_0-d_寸法3
  6
CONTINUOUS
 62
    7
 10
590.77478974877386
 20
288.5731458154919
 11
575.3199765281488
 21
292.71425053713233
  0
LINE
  8
_0-d_寸法3
  6
CONTINUOUS
 62
    7
 10
537.44145641544105
 20
288.5731458154919
 11
590.77478974877386
 21
288.5731458154919
  0
TEXT
  8
_0-d_寸法3
 62
    7
 10
552.10812308210734
 20
288.5731458154919
 40
24
 41
1
 50
0
  1
20
  0
LINE
  8
_0-d_寸法3
  6
CONTINUOUS
 62
    7
 10
590.77478974877386
 20
288.5731458154919
 11
606.22960296939902
 21
292.7142505371321
  0
LINE
  8
_0-d_寸法3
  6
CONTINUOUS
 62
    7
 10
590.77478974877386
 20
288.5731458154919
 11
606.22960296939891
 21
284.43204109385147
  0
LINE
  8
_0-d_寸法3
  6
CONTINUOUS
 62
    7
 10
804.10812308210802
 20
348.57314581549235
 11
804.1081230821078
 21
280.5731458154919
  0
LINE
  8
_0-d_寸法3
  6
CONTINUOUS
 62
    7
 10
804.1081230821078
 20
288.5731458154919
 11
788.65330986148274
 21
284.43204109385169
  0
LINE
  8
_0-d_寸法3
  6
CONTINUOUS
 62
    7
 10
804.1081230821078
 20
288.5731458154919
 11
788.65330986148274
 21
292.71425053713233
  0
LINE
  8
_0-d_寸法3
  6
CONTINUOUS
 62
    7
 10
590.77478974877386
 20
288.5731458154919
 11
804.1081230821078
 21
288.5731458154919
  0
TEXT
  8
_0-d_寸法3
 62
    7
 10
685.44145641544083
 20
288.5731458154919
 40
24
 41
1
 50
0
  1
80
  0
LINE
  8
_0-d_寸法3
  6
CONTINUOUS
 62
    7
 10
804.1081230821078
 20
288.5731458154919
 11
819.56293630273296
 21
292.7142505371321
  0
LINE
  8
_0-d_寸法3
  6
CONTINUOUS
 62
    7
 10
804.1081230821078
 20
288.5731458154919
 11
819.56293630273285
 21
284.43204109385147
  0
LINE
  8
_0-d_寸法3
  6
CONTINUOUS
 62
    7
 10
857.44145641544083
 20
300.5731458154919
 11
857.44145641544083
 21
280.5731458154919
  0
LINE
  8
_0-d_寸法3
  6
CONTINUOUS
 62
    7
 10
857.44145641544083
 20
288.5731458154919
 11
841.98664319481577
 21
284.43204109385169
  0
LINE
  8
_0-d_寸法3
  6
CONTINUOUS
 62
    7
 10
857.44145641544083
 20
288.5731458154919
 11
841.98664319481577
 21
292.71425053713233
  0
LINE
  8
_0-d_寸法3
  6
CONTINUOUS
 62
    7
 10
804.1081230821078
 20
288.5731458154919
 11
857.44145641544083
 21
288.5731458154919
  0
TEXT
  8
_0-d_寸法3
 62
    7
 10
818.77478974877431
 20
288.5731458154919
 40
24
 41
1
 50
0
  1
20
  0
LINE
  8
_0-d_寸法3
  6
CONTINUOUS
 62
    7
 10
743.84145641637201
 20
441.90647914882629
 11
743.84145641637201
 21
513.90647914882607
  0
LINE
  8
_0-d_寸法3
  6
CONTINUOUS
 62
    7
 10
743.84145641637201
 20
505.90647914882607
 11
759.29626963699707
 21
510.04758387046638
  0
LINE
  8
_0-d_寸法3
  6
CONTINUOUS
 62
    7
 10
743.84145641637201
 20
505.90647914882607
 11
759.29626963699707
 21
501.76537442718575
  0
LINE
  8
_0-d_寸法3
  6
CONTINUOUS
 62
    7
 10
790.24145641733639
 20
441.90647914882629
 11
790.24145641733639
 21
513.90647914882607
  0
LINE
  8
_0-d_寸法3
  6
CONTINUOUS
 62
    7
 10
790.24145641733639
 20
505.90647914882607
 11
774.78664319671134
 21
501.7653744271858
  0
LINE
  8
_0-d_寸法3
  6
CONTINUOUS
 62
    7
 10
790.24145641733639
 20
505.90647914882607
 11
774.78664319671134
 21
510.04758387046644
  0
LINE
  8
_0-d_寸法3
  6
CONTINUOUS
 62
    7
 10
743.84145641637201
 20
505.90647914882607
 11
790.24145641733639
 21
505.90647914882607
  0
TEXT
  8
_0-d_寸法3
 62
    7
 10
725.36757176094488
 20
481.90647914882607
 40
24
 41
1
 50
0
  1
(17.4)
  0
LINE
  8
_0-d_寸法3
  6
CONTINUOUS
 62
    7
 10
790.24145641733639
 20
505.90647914882607
 11
805.69626963796156
 21
510.04758387046627
  0
LINE
  8
_0-d_寸法3
  6
CONTINUOUS
 62
    7
 10
790.24145641733639
 20
505.90647914882607
 11
805.69626963796145
 21
501.76537442718563
  0
LINE
  8
_0-d_寸法3
  6
CONTINUOUS
 62
    7
 10
836.90812308400291
 20
441.90647914882629
 11
836.90812308400291
 21
513.90647914882607
  0
LINE
  8
_0-d_寸法3
  6
CONTINUOUS
 62
    7
 10
836.90812308400291
 20
505.90647914882607
 11
821.45330986337785
 21
501.7653744271858
  0
LINE
  8
_0-d_寸法3
  6
CONTINUOUS
 62
    7
 10
836.90812308400291
 20
505.90647914882607
 11
821.45330986337785
 21
510.04758387046644
  0
LINE
  8
_0-d_寸法3
  6
CONTINUOUS
 62
    7
 10
790.24145641733639
 20
505.90647914882607
 11
836.90812308400291
 21
505.90647914882607
  0
TEXT
  8
_0-d_寸法3
 62
    7
 10
767.42481390904595
 20
505.90647914882584
 40
24
 41
1
 50
0
  1
(17.4)
  0
LINE
  8
_0-d_寸法3
  6
CONTINUOUS
 62
    7
 10
505.44145641544105
 20
433.90647914882607
 11
505.44145641544105
 21
625.90647647947458
  0
LINE
  8
_0-d_寸法3
  6
CONTINUOUS
 62
    7
 10
505.44145641544105
 20
617.90647647947458
 11
520.89626963606622
 21
622.04758120111489
  0
LINE
  8
_0-d_寸法3
  6
CONTINUOUS
 62
    7
 10
505.44145641544105
 20
617.90647647947458
 11
520.89626963606622
 21
613.76537175783426
  0
LINE
  8
_0-d_寸法3
  6
CONTINUOUS
 62
    7
 10
889.44145641544105
 20
433.90647914882607
 11
889.44145641544105
 21
625.90647647947458
  0
LINE
  8
_0-d_寸法3
  6
CONTINUOUS
 62
    7
 10
889.44145641544105
 20
617.90647647947458
 11
873.986643194816
 21
613.76537175783426
  0
LINE
  8
_0-d_寸法3
  6
CONTINUOUS
 62
    7
 10
889.44145641544105
 20
617.90647647947458
 11
873.986643194816
 21
622.04758120111501
  0
LINE
  8
_0-d_寸法3
  6
CONTINUOUS
 62
    7
 10
505.44145641544105
 20
617.90647647947458
 11
889.44145641544105
 21
617.90647647947458
  0
TEXT
  8
_0-d_寸法3
 62
    7
 10
679.44145641544173
 20
617.90647647947458
 40
24
 41
1
 50
0
  1
144
  0
LINE
  8
_0-d_寸法3
  6
CONTINUOUS
 62
    7
 10
573.17478974197275
 20
441.90647914882607
 11
573.17478974197275
 21
513.90647914882607
  0
LINE
  8
_0-d_寸法3
  6
CONTINUOUS
 62
    7
 10
573.17478974197275
 20
505.90647914882607
 11
557.71997652134769
 21
501.7653744271858
  0
LINE
  8
_0-d_寸法3
  6
CONTINUOUS
 62
    7
 10
573.17478974197275
 20
505.90647914882607
 11
557.71997652134769
 21
510.04758387046644
  0
LINE
  8
_0-d_寸法3
  6
CONTINUOUS
 62
    7
 10
589.44145641998352
 20
441.90647914882607
 11
589.44145641998352
 21
513.90647914882607
  0
LINE
  8
_0-d_寸法3
  6
CONTINUOUS
 62
    7
 10
539.5178155878798
 20
505.90647914882607
 11
589.44145641998352
 21
505.90647914882607
  0
TEXT
  8
_0-d_寸法3
 62
    7
 10
539.5178155878798
 20
481.90647914882607
 40
24
 41
1
 50
0
  1
(6)
  0
LINE
  8
_0-d_寸法3
  6
CONTINUOUS
 62
    7
 10
589.44145641998352
 20
505.90647914882607
 11
604.89626964060858
 21
510.04758387046638
  0
LINE
  8
_0-d_寸法3
  6
CONTINUOUS
 62
    7
 10
589.44145641998352
 20
505.90647914882607
 11
604.89626964060858
 21
501.76537442718575
  0
LINE
  8
_0-d_寸法3
  6
CONTINUOUS
 62
    7
 10
619.84145641409827
 20
441.90647914882607
 11
619.84145641409827
 21
513.90647914882607
  0
LINE
  8
_0-d_寸法3
  6
CONTINUOUS
 62
    7
 10
619.84145641409827
 20
505.90647914882607
 11
604.38664319347322
 21
501.7653744271858
  0
LINE
  8
_0-d_寸法3
  6
CONTINUOUS
 62
    7
 10
619.84145641409827
 20
505.90647914882607
 11
604.38664319347322
 21
510.04758387046644
  0
LINE
  8
_0-d_寸法3
  6
CONTINUOUS
 62
    7
 10
589.44145641998352
 20
505.90647914882607
 11
619.84145641409827
 21
505.90647914882607
  0
TEXT
  8
_0-d_寸法3
 62
    7
 10
574.6179421348811
 20
505.90647914882607
 40
24
 41
1
 50
0
  1
11.4
  0
LINE
  8
_0-d_寸法3
  6
CONTINUOUS
 62
    7
 10
505.44145641544105
 20
561.90647647947458
 11
520.89626963606622
 21
566.04758120111489
  0
LINE
  8
_0-d_寸法3
  6
CONTINUOUS
 62
    7
 10
505.44145641544105
 20
561.90647647947458
 11
520.89626963606622
 21
557.76537175783426
  0
LINE
  8
_0-d_寸法3
  6
CONTINUOUS
 62
    7
 10
537.44145641544105
 20
433.90647914882607
 11
537.44145641544128
 21
569.90647647947458
  0
LINE
  8
_0-d_寸法3
  6
CONTINUOUS
 62
    7
 10
537.44145641544128
 20
561.90647647947458
 11
521.98664319481622
 21
557.76537175783426
  0
LINE
  8
_0-d_寸法3
  6
CONTINUOUS
 62
    7
 10
537.44145641544128
 20
561.90647647947458
 11
521.98664319481622
 21
566.04758120111501
  0
LINE
  8
_0-d_寸法3
  6
CONTINUOUS
 62
    7
 10
505.44145641544105
 20
561.90647647947458
 11
537.44145641544128
 21
561.90647647947458
  0
TEXT
  8
_0-d_寸法3
 62
    7
 10
509.19809768886125
 20
561.90647647947458
 40
24
 41
1
 50
0
  1
12
  0
LINE
  8
_0-d_寸法3
  6
CONTINUOUS
 62
    7
 10
542.77478974785754
 20
433.90647914882607
 11
542.77478974785754
 21
569.90647647947458
  0
LINE
  8
_0-d_寸法3
  6
CONTINUOUS
 62
    7
 10
537.44145641544128
 20
561.90647647947458
 11
542.77478974785754
 21
561.90647647947458
  0
TEXT
  8
_0-d_寸法3
 62
    7
 10
547.58920879997231
 20
537.90647647947458
 40
24
 41
1
 50
0
  1
2
  0
LINE
  8
_0-d_寸法3
  6
CONTINUOUS
 62
    7
 10
542.77478974785754
 20
561.90647647947458
 11
558.2296029684826
 21
566.04758120111489
  0
LINE
  8
_0-d_寸法3
  6
CONTINUOUS
 62
    7
 10
542.77478974785754
 20
561.90647647947458
 11
558.2296029684826
 21
557.76537175783426
  0
LINE
  8
_0-d_寸法3
  6
CONTINUOUS
 62
    7
 10
852.10812308164918
 20
433.90647914882607
 11
852.10812308164941
 21
569.90647647947458
  0
LINE
  8
_0-d_寸法3
  6
CONTINUOUS
 62
    7
 10
852.10812308164941
 20
561.90647647947458
 11
836.65330986102435
 21
557.76537175783426
  0
LINE
  8
_0-d_寸法3
  6
CONTINUOUS
 62
    7
 10
852.10812308164941
 20
561.90647647947458
 11
836.65330986102435
 21
566.04758120111501
  0
LINE
  8
_0-d_寸法3
  6
CONTINUOUS
 62
    7
 10
542.77478974785754
 20
561.90647647947458
 11
852.10812308164941
 21
561.90647647947458
  0
TEXT
  8
_0-d_寸法3
 62
    7
 10
679.44145641544105
 20
561.90647647947458
 40
24
 41
1
 50
0
  1
116
  0
LINE
  8
_0-d_寸法3
  6
CONTINUOUS
 62
    7
 10
857.44145641544083
 20
433.90647914882607
 11
857.44145641544128
 21
569.90647647947458
  0
LINE
  8
_0-d_寸法3
  6
CONTINUOUS
 62
    7
 10
852.10812308164941
 20
561.90647647947458
 11
857.44145641544128
 21
561.90647647947458
  0
TEXT
  8
_0-d_寸法3
 62
    7
 10
835.51809768886142
 20
537.90647647947458
 40
24
 41
1
 50
0
  1
2
  0
LINE
  8
_0-d_寸法3
  6
CONTINUOUS
 62
    7
 10
857.44145641544128
 20
561.90647647947458
 11
872.89626963606634
 21
566.04758120111489
  0
LINE
  8
_0-d_寸法3
  6
CONTINUOUS
 62
    7
 10
857.44145641544128
 20
561.90647647947458
 11
872.89626963606634
 21
557.76537175783426
  0
LINE
  8
_0-d_寸法3
  6
CONTINUOUS
 62
    7
 10
889.44145641544105
 20
561.90647647947458
 11
873.986643194816
 21
557.76537175783426
  0
LINE
  8
_0-d_寸法3
  6
CONTINUOUS
 62
    7
 10
889.44145641544105
 20
561.90647647947458
 11
873.986643194816
 21
566.04758120111501
  0
LINE
  8
_0-d_寸法3
  6
CONTINUOUS
 62
    7
 10
857.44145641544128
 20
561.90647647947458
 11
889.44145641544105
 21
561.90647647947458
  0
TEXT
  8
_0-d_寸法3
 62
    7
 10
861.60106065182458
 20
561.90647647947458
 40
24
 41
1
 50
0
  1
12
  0
LINE
  8
_0-d_寸法3
  6
CONTINUOUS
 62
    7
 10
905.44145641544105
 20
425.90647914882612
 11
977.44145641544083
 21
425.90647914882629
  0
LINE
  8
_0-d_寸法3
  6
CONTINUOUS
 62
    7
 10
969.44145641544083
 20
425.90647914882629
 11
973.58256113708126
 21
410.45166592820124
  0
LINE
  8
_0-d_寸法3
  6
CONTINUOUS
 62
    7
 10
969.44145641544083
 20
425.90647914882629
 11
965.30035169380051
 21
410.45166592820118
  0
LINE
  8
_0-d_寸法3
  6
CONTINUOUS
 62
    7
 10
905.44145641544105
 20
404.57314581549286
 11
977.44145641544083
 21
404.57314581549304
  0
LINE
  8
_0-d_寸法3
  6
CONTINUOUS
 62
    7
 10
969.44145641544083
 20
404.57314581549304
 11
965.30035169380051
 21
420.02795903611815
  0
LINE
  8
_0-d_寸法3
  6
CONTINUOUS
 62
    7
 10
969.44145641544083
 20
404.57314581549304
 11
973.58256113708114
 21
420.02795903611815
  0
LINE
  8
_0-d_寸法3
  6
CONTINUOUS
 62
    7
 10
969.44145641544083
 20
425.90647914882629
 11
969.44145641544083
 21
404.57314581549304
  0
TEXT
  8
_0-d_寸法3
 62
    7
 10
969.44145641544083
 20
409.23981248215978
 40
24
 41
1
 50
90
  1
8
  0
TEXT
  8
_0-7_枠細線
 62
    5
 10
620.5827001282687
 20
105.86582351316997
 40
39.999999999999986
 41
0.8000000000000002
 50
0
  1
断面詳細図
  0
TEXT
  8
_0-7_枠細線
 62
    5
 10
804.50105172693748
 20
109.82808766411335
 40
32
 41
0.5999999999999998
 50
0
  1
Ｓ＝１：３
  0
LINE
  8
_0-d_寸法3
  6
CONTINUOUS
 62
    7
 10
518.77478974877431
 20
159.23981248215932
 11
417.44145641544105
 21
159.23981248215978
  0
LINE
  8
_0-d_寸法3
  6
CONTINUOUS
 62
    7
 10
425.44145641544105
 20
159.23981248215978
 11
421.30035169380085
 21
174.69462570278483
  0
LINE
  8
_0-d_寸法3
  6
CONTINUOUS
 62
    7
 10
425.44145641544105
 20
159.23981248215978
 11
429.58256113708148
 21
174.69462570278483
  0
LINE
  8
_0-d_寸法3
  6
CONTINUOUS
 62
    7
 10
489.44145641544105
 20
425.90647914882612
 11
417.44145641544105
 21
425.90647914882629
  0
LINE
  8
_0-d_寸法3
  6
CONTINUOUS
 62
    7
 10
425.44145641544105
 20
425.90647914882629
 11
429.58256113708148
 21
410.45166592820118
  0
LINE
  8
_0-d_寸法3
  6
CONTINUOUS
 62
    7
 10
425.44145641544105
 20
425.90647914882629
 11
421.30035169380085
 21
410.45166592820118
  0
LINE
  8
_0-d_寸法3
  6
CONTINUOUS
 62
    7
 10
425.44145641544105
 20
159.23981248215978
 11
425.44145641544105
 21
425.90647914882629
  0
TEXT
  8
_0-d_寸法3
 62
    7
 10
425.44145641544105
 20
250.57314581549304
 40
24
 41
1
 50
89.999999999999929
  1
80～100
  0
LINE
  8
_0-b_細線3
  6
CONTINUOUS
 62
    7
 10
794.77478975119357
 20
377.37314581549276
 11
832.37478975176577
 21
377.37314581549276
  0
LINE
  8
_0-b_細線3
  6
CONTINUOUS
 62
    7
 10
794.77478975353279
 20
409.37314581549276
 11
832.374789754105
 21
409.37314581549276
  0
LINE
  8
_0-b_細線3
  6
CONTINUOUS
 62
    7
 10
748.37478975255158
 20
409.37314581549276
 11
785.70812308686595
 21
409.37314581549276
  0
LINE
  8
_0-b_細線3
  6
CONTINUOUS
 62
    7
 10
748.37478975021236
 20
377.37314581549276
 11
785.70812308452673
 21
377.37314581549276
  0
LINE
  8
_0-b_細線3
  6
CONTINUOUS
 62
    7
 10
655.57478975094364
 20
409.37314581549276
 11
692.9081230849531
 21
409.37314581549276
  0
LINE
  8
_0-b_細線3
  6
CONTINUOUS
 62
    7
 10
655.57478975094364
 20
377.37314581549276
 11
692.90812308261502
 21
377.37314581549276
  0
LINE
  8
_0-b_細線3
  6
CONTINUOUS
 62
    7
 10
609.17478975322024
 20
409.37314581549276
 11
646.50812308427749
 21
409.37314581549276
  0
LINE
  8
_0-b_細線3
  6
CONTINUOUS
 62
    7
 10
609.17478975088102
 20
377.37314581549276
 11
646.50812308427749
 21
377.37314581549276
  0
LINE
  8
_0-b_細線3
  6
CONTINUOUS
 62
    7
 10
562.50812307875503
 20
377.37314581549276
 11
600.10812308421532
 21
377.37314581549276
  0
LINE
  8
_0-b_細線3
  6
CONTINUOUS
 62
    7
 10
562.50812308109539
 20
409.37314581549276
 11
600.10812308655341
 21
409.37314581549276
  0
LINE
  8
_0-b_細線3
  6
CONTINUOUS
 62
    7
 10
701.97478975161994
 20
409.37314581549276
 11
714.37478975072781
 21
409.37314581549276
  0
LINE
  8
_0-b_細線3
  6
CONTINUOUS
 62
    7
 10
726.90812308406112
 20
409.37314581549276
 11
739.30812308588474
 21
409.37314581549276
  0
LINE
  8
_0-b_細線3
  6
CONTINUOUS
 62
    7
 10
726.90812308406112
 20
377.37314581549276
 11
739.30812308354552
 21
377.37314581549276
  0
LINE
  8
_0-a_極細3
  6
CENTER1
 62
    7
 10
857.44145641544105
 20
393.37314581549276
 11
537.44145641544105
 21
393.37314581549276
  0
LINE
  8
_0-b_細線3
  6
CONTINUOUS
 62
    7
 10
726.90812308406112
 20
422.70647914882124
 11
726.90812308406112
 21
372.03981248215382
  0
LINE
  8
_0-b_細線3
  6
CONTINUOUS
 62
    7
 10
714.3747897507269
 20
372.03981248215382
 11
714.3747897507269
 21
422.70647914882124
  0
LINE
  8
_0-b_細線3
  6
CONTINUOUS
 62
    7
 10
726.90812308406112
 20
372.03981248215382
 11
714.3747897507269
 21
372.03981248215382
  0
LINE
  8
_0-b_細線3
  6
CONTINUOUS
 62
    7
 10
714.3747897507269
 20
422.70647914882124
 11
726.90812308406112
 21
422.70647914882124
  0
LINE
  8
_0-b_細線3
  6
DASHED2
 62
    7
 10
714.3747897507269
 20
380.03981248215382
 11
726.90812308406112
 21
380.03981248215382
  0
LINE
  8
_0-b_細線3
  6
DASHED2
 62
    7
 10
714.3747897507269
 20
416.0398124821545
 11
726.90812308406112
 21
416.0398124821545
  0
ARC
  8
_0-b_細線3
  6
CONTINUOUS
 62
    7
 10
545.44145641452542
 20
417.90647914882538
 40
2.666666666666667
 50
89.999999999999915
 51
179.99999999998533
  0
ARC
  8
_0-b_細線3
  6
CONTINUOUS
 62
    7
 10
546.68932092473096
 20
423.23981248215932
 40
2.666666666666667
 50
269.99999999999977
 51
330.00000000000409
  0
ARC
  8
_0-b_細線3
  6
CONTINUOUS
 62
    7
 10
551.30812307824863
 20
420.57314581549281
 40
2.666666666666667
 50
89.999999999999915
 51
150.00000000000543
  0
LINE
  8
_0-b_細線3
  6
CONTINUOUS
 62
    7
 10
545.44145641452542
 20
420.57314581549281
 11
546.68932092473096
 21
420.57314581549281
  0
ARC
  8
_0-b_細線3
  6
CONTINUOUS
 62
    7
 10
570.50812307530623
 20
417.90647914882538
 40
2.666666666666667
 50
0
 51
89.999999999999915
  0
ARC
  8
_0-b_細線3
  6
CONTINUOUS
 62
    7
 10
569.26025856509932
 20
423.23981248215932
 40
2.666666666666667
 50
209.99999999999713
 51
269.99999999999977
  0
ARC
  8
_0-b_細線3
  6
CONTINUOUS
 62
    7
 10
564.64145641158188
 20
420.57314581549281
 40
2.666666666666667
 50
29.999999999995062
 51
89.999999999975572
  0
LINE
  8
_0-b_細線3
  6
CONTINUOUS
 62
    7
 10
570.50812307530623
 20
420.57314581549281
 11
569.26025856509932
 21
420.57314581549281
  0
ARC
  8
_0-b_細線3
  6
CONTINUOUS
 62
    7
 10
544.10812308119216
 20
414.17314581549249
 40
1.3333333333333335
 50
179.9999999999707
 51
269.99999999999977
  0
LINE
  8
_0-b_細線3
  6
CONTINUOUS
 62
    7
 10
542.77478974785754
 20
417.90647914882607
 11
542.77478974785754
 21
414.17314581549317
  0
ARC
  8
_0-b_細線3
  6
CONTINUOUS
 62
    7
 10
571.84145640863949
 20
414.17314581549249
 40
1.3333333333333335
 50
269.99999999999977
 51
359.99999999999966
  0
LINE
  8
_0-b_細線3
  6
CONTINUOUS
 62
    7
 10
573.17478974197275
 20
417.90647914882538
 11
573.17478974197275
 21
414.17314581549249
  0
ARC
  8
_0-b_細線3
  6
CONTINUOUS
 62
    7
 10
550.77478974785754
 20
410.17314581549249
 40
2.666666666666667
 50
0
 51
89.999999999999915
  0
LINE
  8
_0-b_細線3
  6
CONTINUOUS
 62
    7
 10
550.77478974785754
 20
412.83981248215923
 11
544.10812308119216
 21
412.83981248215923
  0
ARC
  8
_0-b_細線3
  6
CONTINUOUS
 62
    7
 10
565.17478974785899
 20
410.17314581549317
 40
2.666666666666667
 50
89.999999999999915
 51
179.99999999999983
  0
LINE
  8
_0-b_細線3
  6
CONTINUOUS
 62
    7
 10
565.17478974197275
 20
412.83981248215923
 11
571.84145640863949
 21
412.83981248215923
  0
LINE
  8
_0-b_細線3
  6
CONTINUOUS
 62
    7
 10
564.64145641158188
 20
423.23981248215932
 11
551.30812307824863
 21
423.23981248215932
  0
LINE
  8
_0-b_細線3
  6
CONTINUOUS
 62
    7
 10
553.44145641158229
 20
369.90647914882538
 11
553.44145641452542
 21
410.17314581549249
  0
LINE
  8
_0-b_細線3
  6
CONTINUOUS
 62
    7
 10
562.50812307824799
 20
369.90647914882584
 11
562.50812308119248
 21
410.17314581549317
  0
LINE
  8
_0-b_細線3
  6
CONTINUOUS
 62
    7
 10
562.50812307824799
 20
369.90647914882584
 11
553.44145641158229
 21
369.90647914882538
  0
LINE
  8
_0-b_細線3
  6
CONTINUOUS
 62
    7
 10
550.77478974491578
 20
393.37314581549276
 11
542.76274707825041
 21
393.37314581549276
  0
LINE
  8
_0-b_細線3
  6
CONTINUOUS
 62
    7
 10
550.77478974491578
 20
384.03981248216064
 11
542.76271507825049
 21
384.03981248216064
  0
ARC
  8
_0-b_細線3
  6
CONTINUOUS
 62
    7
 10
542.76271507825049
 20
384.57314581549349
 40
0.5333333333333335
 50
179.99999999999983
 51
269.99999999999977
  0
ARC
  8
_0-b_細線3
  6
CONTINUOUS
 62
    7
 10
562.91732841158273
 20
388.70608981549435
 40
20.687882666666667
 50
166.96197800000419
 51
193.03567000000047
  0
ARC
  8
_0-b_細線3
  6
CONTINUOUS
 62
    7
 10
542.76271507825049
 20
402.17314581549431
 40
0.5333333333333335
 50
89.999999999999915
 51
179.99999999999983
  0
ARC
  8
_0-b_細線3
  6
CONTINUOUS
 62
    7
 10
562.91732841158273
 20
398.04019648215967
 40
20.687882666666667
 50
166.96432999999917
 51
193.03802199999913
  0
LINE
  8
_0-b_細線3
  6
CONTINUOUS
 62
    7
 10
550.77478974491578
 20
402.70647914882716
 11
542.76271507825049
 21
402.70647914882716
  0
LINE
  8
_0-b_細線3
  6
CONTINUOUS
 62
    7
 10
542.22938174491651
 20
384.57314581549349
 11
542.22938174491651
 21
402.17314581549431
  0
ARC
  8
_0-b_細線3
  6
CONTINUOUS
 62
    7
 10
551.30812307825113
 20
375.23981248215978
 40
0.5333333333333335
 50
179.99999999999983
 51
269.99999999999977
  0
LINE
  8
_0-b_細線3
  6
CONTINUOUS
 62
    7
 10
553.44145641011141
 20
374.70647914882602
 11
551.30812307825113
 21
374.70647914882602
  0
ARC
  8
_0-b_細線3
  6
CONTINUOUS
 62
    7
 10
551.30812307825113
 20
411.50647914882467
 40
0.5333333333333335
 50
89.999999999999915
 51
179.99999999999983
  0
LINE
  8
_0-b_細線3
  6
CONTINUOUS
 62
    7
 10
552.67917066213545
 20
412.03981248215933
 11
551.30812307825113
 21
412.03981248215933
  0
LINE
  8
_0-b_細線3
  6
CONTINUOUS
 62
    7
 10
550.77478974491578
 20
392.03981248215996
 11
550.77478974491578
 21
375.23981248215978
  0
LINE
  8
_0-b_細線3
  6
CONTINUOUS
 62
    7
 10
550.77478974491578
 20
411.50647914882467
 11
550.77478974491578
 21
392.03981248215996
  0
LINE
  8
_0-b_細線3
  6
CONTINUOUS
 62
    7
 10
844.10812308596655
 20
393.37314581549276
 11
852.12016575263192
 21
393.37314581549276
  0
LINE
  8
_0-b_細線3
  6
CONTINUOUS
 62
    7
 10
844.10812308596655
 20
384.03981248216064
 11
852.12019775263184
 21
384.03981248216064
  0
ARC
  8
_0-b_細線3
  6
CONTINUOUS
 62
    7
 10
852.12019775263184
 20
384.57314581549349
 40
0.5333333333333335
 50
269.99999999999977
 51
359.99999999999966
  0
ARC
  8
_0-b_細線3
  6
CONTINUOUS
 62
    7
 10
831.9655844192996
 20
388.70608981549435
 40
20.687882666666667
 50
346.96432999999882
 51
13.038021999995438
  0
ARC
  8
_0-b_細線3
  6
CONTINUOUS
 62
    7
 10
852.12019775263184
 20
402.17314581549431
 40
0.5333333333333335
 50
0
 51
89.999999999999915
  0
ARC
  8
_0-b_細線3
  6
CONTINUOUS
 62
    7
 10
831.9655844192996
 20
398.04019648215967
 40
20.687882666666667
 50
346.96197800000016
 51
13.03567000000049
  0
LINE
  8
_0-b_細線3
  6
CONTINUOUS
 62
    7
 10
844.10812308596655
 20
402.70647914882716
 11
852.12019775263184
 21
402.70647914882716
  0
LINE
  8
_0-b_細線3
  6
CONTINUOUS
 62
    7
 10
852.65353108596582
 20
384.57314581549349
 11
852.65353108596582
 21
402.17314581549431
  0
ARC
  8
_0-b_細線3
  6
CONTINUOUS
 62
    7
 10
843.5747897526312
 20
375.23981248215978
 40
0.5333333333333335
 50
269.99999999999977
 51
359.99999999999966
  0
LINE
  8
_0-b_細線3
  6
CONTINUOUS
 62
    7
 10
841.44145642077069
 20
374.70647914882602
 11
843.5747897526312
 21
374.70647914882602
  0
ARC
  8
_0-b_細線3
  6
CONTINUOUS
 62
    7
 10
843.5747897526312
 20
411.50647914882467
 40
0.5333333333333335
 50
0
 51
89.999999999999915
  0
LINE
  8
_0-b_細線3
  6
CONTINUOUS
 62
    7
 10
842.20374216874688
 20
412.03981248215933
 11
843.5747897526312
 21
412.03981248215933
  0
LINE
  8
_0-b_細線3
  6
CONTINUOUS
 62
    7
 10
844.10812308596655
 20
392.03981248215996
 11
844.10812308596655
 21
375.23981248215978
  0
LINE
  8
_0-b_細線3
  6
CONTINUOUS
 62
    7
 10
844.10812308596655
 20
411.50647914882467
 11
844.10812308596655
 21
392.03981248215996
  0
LINE
  8
_0-1_計細線
  6
CONTINUOUS
 62
    3
 10
1292.4545169335299
 20
1163.7537856296715
 11
1292.4545169335299
 21
1161.7537856296715
  0
LINE
  8
_0-1_計細線
  6
CONTINUOUS
 62
    3
 10
1292.4545169335299
 20
1161.7537856296715
 11
1304.5966525572605
 21
1149.6116500059404
  0
LINE
  8
_0-1_計細線
  6
CONTINUOUS
 62
    3
 10
1318.7387881809916
 20
1143.7537856296715
 11
1332.4545169335299
 21
1143.7537856296715
  0
ARC
  8
_0-1_計細線
  6
CONTINUOUS
 62
    3
 10
1318.7387881809916
 20
1163.7537856296715
 40
20
 50
224.99999999999963
 51
269.99999999999977
  0
LINE
  8
_0-1_計細線
  6
CONTINUOUS
 62
    3
 10
1236.4545169335299
 20
1163.7537856296715
 11
1236.4545169335299
 21
1161.7537856296715
  0
LINE
  8
_0-1_計細線
  6
CONTINUOUS
 62
    3
 10
1191.2192598377226
 20
1143.7537856296715
 11
1210.1702456860678
 21
1143.7537856296715
  0
LINE
  8
_0-1_計細線
  6
CONTINUOUS
 62
    3
 10
1236.4545169335299
 20
1161.7537856296715
 11
1224.3123813097989
 21
1149.6116500059404
  0
ARC
  8
_0-1_計細線
  6
CONTINUOUS
 62
    3
 10
1210.1702456860678
 20
1163.7537856296715
 40
20
 50
269.99999999999977
 51
314.99999999999966
  0
LINE
  8
_0-1_計細線
  6
CONTINUOUS
 62
    3
 10
1236.4545169335299
 20
1043.7537856296715
 11
1236.4545169335299
 21
1045.7537856296715
  0
LINE
  8
_0-1_計細線
  6
CONTINUOUS
 62
    3
 10
1176.6897740293459
 20
1063.7537856296715
 11
1210.1702456860678
 21
1063.7537856296715
  0
LINE
  8
_0-1_計細線
  6
CONTINUOUS
 62
    3
 10
1236.4545169335299
 20
1045.7537856296715
 11
1224.3123813097989
 21
1057.8959212534023
  0
ARC
  8
_0-1_計細線
  6
CONTINUOUS
 62
    3
 10
1210.1702456860678
 20
1043.7537856296715
 40
20
 50
44.999999999999545
 51
89.999999999999915
  0
LINE
  8
_0-1_計細線
  6
CONTINUOUS
 62
    3
 10
1292.4545169335299
 20
1043.7537856296715
 11
1292.4545169335299
 21
1045.7537856296715
  0
LINE
  8
_0-1_計細線
  6
CONTINUOUS
 62
    3
 10
1292.4545169335299
 20
1045.7537856296715
 11
1304.5966525572605
 21
1057.8959212534023
  0
LINE
  8
_0-1_計細線
  6
CONTINUOUS
 62
    3
 10
1318.7387881809916
 20
1063.7537856296715
 11
1332.4545169335299
 21
1063.7537856296715
  0
ARC
  8
_0-1_計細線
  6
CONTINUOUS
 62
    3
 10
1318.7387881809916
 20
1043.7537856296715
 40
20
 50
89.999999999999915
 51
135.00000000000045
  0
LINE
  8
_0-0_計極細
  6
CENTER1
 62
    2
 10
1264.4545169335295
 20
1192.2919408428224
 11
1264.4545169335295
 21
496.78114944786233
  0
ARC
  8
_0-1_計細線
  6
CONTINUOUS
 62
    3
 10
1303.0702756687285
 20
1117.953590517677
 40
0.501740082747087
 50
330.00000000006594
 51
20.189990999972171
  0
ARC
  8
_0-1_計細線
  6
CONTINUOUS
 62
    3
 10
1303.0702756687285
 20
1089.5539807416678
 40
0.501740082747087
 50
339.81000900002709
 51
29.999999999933351
  0
LINE
  8
_0-1_計細線
  6
CONTINUOUS
 62
    3
 10
1265.7590821425276
 20
1106.0116250333915
 11
1264.4555140471118
 21
1108.2694644371106
  0
LINE
  8
_0-1_計細線
  6
CONTINUOUS
 62
    3
 10
1265.7590821425276
 20
1106.0116250333915
 11
1245.6191907867803
 21
1140.8949367546982
  0
LINE
  8
_0-1_計細線
  6
CONTINUOUS
 62
    3
 10
1265.7590821425276
 20
1106.0116250333915
 11
1268.3662123124543
 21
1106.0116250333915
  0
LINE
  8
_0-1_計細線
  6
CONTINUOUS
 62
    3
 10
1261.848389898091
 20
1103.7537856296715
 11
1241.708498542341
 21
1138.6370973509804
  0
ARC
  8
_0-1_計細線
  6
CONTINUOUS
 62
    3
 10
1232.8507416835366
 20
1077.4123259196115
 40
0.501740082747087
 50
219.81000899998574
 51
269.99999999999977
  0
LINE
  8
_0-1_計細線
  6
CONTINUOUS
 62
    3
 10
1265.7590821425276
 20
1101.4959462259524
 11
1245.6191907867803
 21
1066.6126345046453
  0
LINE
  8
_0-1_計細線
  6
CONTINUOUS
 62
    3
 10
1261.848389898091
 20
1103.7537856296715
 11
1241.708498542341
 21
1068.8704739083644
  0
ARC
  8
_0-1_計細線
  6
CONTINUOUS
 62
    3
 10
1264.4555140471118
 20
1103.7537856296715
 40
46.4111412917104
 50
89.999999999999915
 51
269.99999999999977
  0
ARC
  8
_0-1_計細線
  6
CONTINUOUS
 62
    3
 10
1264.4555140471118
 20
1103.7537856296715
 40
57.198598227560829
 50
89.999999999999915
 51
269.99999999999977
  0
CIRCLE
  8
_0-1_計細線
  6
CONTINUOUS
 62
    3
 10
1264.4555140471118
 20
1103.7537856296715
 40
58.202084413960065
  0
LINE
  8
_0-1_計細線
  6
CONTINUOUS
 62
    3
 10
1265.7590821425276
 20
1106.0116250333915
 11
1306.0388588331186
 21
1106.0116250333915
  0
LINE
  8
_0-1_計細線
  6
CONTINUOUS
 62
    3
 10
1265.7590821425276
 20
1101.4959462259524
 11
1306.0388588331186
 21
1101.4959462259524
  0
ARC
  8
_0-1_計細線
  6
CONTINUOUS
 62
    3
 10
1264.4555140471118
 20
1103.7537856296715
 40
46.4111412917104
 50
269.99999999999977
 51
89.999999999999545
  0
ARC
  8
_0-1_計細線
  6
CONTINUOUS
 62
    3
 10
1264.4555140471118
 20
1103.7537856296715
 40
57.198598227560829
 50
269.99999999999977
 51
89.999999999999545
  0
ARC
  8
_0-1_計細線
  6
CONTINUOUS
 62
    3
 10
1264.4555140471118
 20
1103.7537856296715
 40
41.644595453350369
 50
89.999999999999915
 51
116.89207624474167
  0
ARC
  8
_0-1_計細線
  6
CONTINUOUS
 62
    3
 10
1264.4555140471118
 20
1103.7537856296715
 40
41.644595453350369
 50
123.1079186869396
 51
236.89208131305881
  0
ARC
  8
_0-1_計細線
  6
CONTINUOUS
 62
    3
 10
1264.4555140471118
 20
1103.7537856296715
 40
41.644595453350369
 50
243.1079237552571
 51
269.99999999999977
  0
ARC
  8
_0-1_計細線
  6
CONTINUOUS
 62
    3
 10
1264.4555140471118
 20
1103.7537856296715
 40
41.644595453350369
 50
269.99999999999977
 51
356.89207858909316
  0
ARC
  8
_0-1_計細線
  6
CONTINUOUS
 62
    3
 10
1264.4555140471118
 20
1103.7537856296715
 40
41.644595453350369
 50
3.1079214109077626
 51
89.999999999999915
  0
ARC
  8
_0-0_計極細
  6
CONTINUOUS
 62
    2
 10
1264.4555140471118
 20
1103.7537856296715
 40
50.153133796808191
 50
269.99999999999977
 51
89.999999999999545
  0
ARC
  8
_0-0_計極細
  6
CONTINUOUS
 62
    2
 10
1264.4555140471118
 20
1103.7537856296715
 40
50.153133796808191
 50
89.999999999999915
 51
269.99999999999977
  0
ARC
  8
_0-0_計極細
  6
CONTINUOUS
 62
    2
 10
1250.8405130026047
 20
1074.6527434000802
 40
0.501740082747087
 50
149.99997568602743
 51
210.00002243784951
  0
ARC
  8
_0-0_計極細
  6
CONTINUOUS
 62
    2
 10
1264.745197853061
 20
1097.7328805530854
 40
1.0034861863992508
 50
29.999999999951111
 51
149.99999999997101
  0
ARC
  8
_0-0_計極細
  6
CONTINUOUS
 62
    2
 10
1264.745197853061
 20
1097.7328805530854
 40
1.0034861863992508
 50
29.999999999951111
 51
106.77865499997519
  0
ARC
  8
_0-0_計極細
  6
CONTINUOUS
 62
    2
 10
1259.0964208356402
 20
1100.994206143205
 40
1.0034861863992508
 50
329.99999999996464
 51
89.999999999999545
  0
ARC
  8
_0-0_計極細
  6
CONTINUOUS
 62
    2
 10
1223.9602977470747
 20
1111.0325464287646
 40
0.501740082747087
 50
89.993779916899371
 51
169.80868012339329
  0
ARC
  8
_0-0_計極細
  6
CONTINUOUS
 62
    2
 10
1223.9587320416415
 20
1096.4820230960102
 40
0.501740082747087
 50
190.17882981053808
 51
269.99383436899353
  0
ARC
  8
_0-0_計極細
  6
CONTINUOUS
 62
    2
 10
1223.9069997510353
 20
1106.5168720263057
 40
1.0034861863992508
 50
176.10042624738495
 51
269.99385985771437
  0
ARC
  8
_0-0_計極細
  6
CONTINUOUS
 62
    2
 10
1264.4555140471118
 20
1103.7537856296715
 40
37.630656728658437
 50
317.45760300000074
 51
327.3871079999999
  0
ARC
  8
_0-0_計極細
  6
CONTINUOUS
 62
    2
 10
1264.4555140471118
 20
1103.7537856296715
 40
37.630656728658437
 50
32.612892000000336
 51
42.54239699999939
  0
LINE
  8
_0-0_計極細
  6
CONTINUOUS
 62
    2
 10
1299.6297318180998
 20
1084.4748475744461
 11
1290.6716425970992
 21
1099.9907199568077
  0
LINE
  8
_0-0_計極細
  6
CONTINUOUS
 62
    2
 10
1298.2229052006207
 20
1079.8871527213853
 11
1285.8919049557155
 21
1101.2450731741258
  0
LINE
  8
_0-0_計極細
  6
CONTINUOUS
 62
    2
 10
1293.6009694603893
 20
1075.8507680625678
 11
1279.6637663473
 21
1099.9907199568077
  0
LINE
  8
_0-0_計極細
  6
CONTINUOUS
 62
    2
 10
1299.6297318180998
 20
1123.0327236848982
 11
1290.6716425970992
 21
1107.5168513025376
  0
LINE
  8
_0-0_計極細
  6
CONTINUOUS
 62
    2
 10
1298.2229052006207
 20
1127.6204185379586
 11
1285.8919049557155
 21
1106.2624980852177
  0
LINE
  8
_0-0_計極細
  6
CONTINUOUS
 62
    2
 10
1293.6009694603893
 20
1131.656797175872
 11
1279.6637663473
 21
1107.5168513025376
  0
LINE
  8
_0-0_計極細
  6
CONTINUOUS
 62
    2
 10
1262.4485476952188
 20
1076.7341492345001
 11
1262.4485476952188
 21
1084.6515611384441
  0
LINE
  8
_0-0_計極細
  6
CONTINUOUS
 62
    2
 10
1262.9502877779657
 20
1076.7015580753202
 11
1262.9502877779657
 21
1083.7825217624052
  0
ARC
  8
_0-0_計極細
  6
CONTINUOUS
 62
    2
 10
1264.4555140471118
 20
1103.7537856296715
 40
37.630656728658437
 50
213.59599499999973
 51
225.50677599999941
  0
LINE
  8
_0-0_計極細
  6
CONTINUOUS
 62
    2
 10
1291.4378509353353
 20
1072.5730174434018
 11
1274.8840287059163
 21
1101.2450731741258
  0
LINE
  8
_0-0_計極細
  6
CONTINUOUS
 62
    2
 10
1286.2499982851461
 20
1069.516830110146
 11
1268.6558900975003
 21
1099.9907199568077
  0
LINE
  8
_0-0_計極細
  6
CONTINUOUS
 62
    2
 10
1268.2409293196222
 20
1062.5770506262022
 11
1255.909929074717
 21
1083.9349710789431
  0
LINE
  8
_0-0_計極細
  6
CONTINUOUS
 62
    2
 10
1274.0475082381961
 20
1064.5615710439699
 11
1260.1103051251055
 21
1088.7015229382089
  0
LINE
  8
_0-0_計極細
  6
CONTINUOUS
 62
    2
 10
1277.9676894290358
 20
1064.7960130458439
 11
1261.4138671996182
 21
1093.4680747974742
  0
LINE
  8
_0-0_計極細
  6
CONTINUOUS
 62
    2
 10
1283.2083454167466
 20
1067.7607368100792
 11
1265.6142432500067
 21
1098.2346206358341
  0
LINE
  8
_0-0_計極細
  6
CONTINUOUS
 62
    2
 10
1232.8507416835366
 20
1076.9105858368646
 11
1246.0607760069076
 21
1076.9105858368646
  0
ARC
  8
_0-0_計極細
  6
CONTINUOUS
 62
    2
 10
1242.5846064609411
 20
1072.394907029425
 40
1.0034861863992508
 50
329.99999999997061
 51
89.999999999999545
  0
ARC
  8
_0-0_計極細
  6
CONTINUOUS
 62
    2
 10
1264.4555140471118
 20
1103.7537856296715
 40
37.630656728658437
 50
233.77152299999995
 51
236.31964599999873
  0
ARC
  8
_0-0_計極細
  6
CONTINUOUS
 62
    2
 10
1238.6036261706388
 20
1072.394907029425
 40
1.0034861863992508
 50
89.999999999999915
 51
230.49822999999429
  0
LINE
  8
_0-0_計極細
  6
CONTINUOUS
 62
    2
 10
1238.6036261706388
 20
1073.3983871949192
 11
1242.5846064609411
 21
1073.3983871949192
  0
ARC
  8
_0-0_計極細
  6
CONTINUOUS
 62
    2
 10
1264.4555140471118
 20
1103.7537856296715
 40
37.630656728658437
 50
272.6128920000001
 51
282.54239699999982
  0
ARC
  8
_0-0_計極細
  6
CONTINUOUS
 62
    2
 10
1268.6754520180937
 20
1062.8279236780279
 40
0.501740082747087
 50
210.00000000003024
 51
275.8870620000269
  0
LINE
  8
_0-0_計極細
  6
CONTINUOUS
 62
    2
 10
1263.5644562212076
 20
1063.6525468373186
 11
1254.606367000207
 21
1079.1684252405842
  0
LINE
  8
_0-0_計極細
  6
CONTINUOUS
 62
    2
 10
1257.0110081115033
 20
1062.9616479797817
 11
1250.4059909498185
 21
1074.4018733813193
  0
ARC
  8
_0-0_計極細
  6
CONTINUOUS
 62
    2
 10
1264.4555140471118
 20
1103.7537856296715
 40
37.630656728658437
 50
254.49322399999997
 51
266.40400500000044
  0
ARC
  8
_0-0_計極細
  6
CONTINUOUS
 62
    2
 10
1246.0607760069076
 20
1077.4123259196115
 40
0.501740082747087
 50
269.99999999999977
 51
329.9999999999431
  0
ARC
  8
_0-0_計極細
  6
CONTINUOUS
 62
    2
 10
1250.2238766339658
 20
1065.6859509834032
 40
1.0034861863992508
 50
249.50177000008239
 51
29.999999999950756
  0
LINE
  8
_0-0_計極細
  6
CONTINUOUS
 62
    2
 10
1251.092916010007
 20
1066.1876910661506
 11
1249.1024288753076
 21
1069.6353215220522
  0
ARC
  8
_0-0_計極細
  6
CONTINUOUS
 62
    2
 10
1253.7373216032627
 20
1078.6666791369328
 40
1.0034861863992508
 50
29.999999999977071
 51
150.00000000000995
  0
ARC
  8
_0-0_計極細
  6
CONTINUOUS
 62
    2
 10
1264.4555140471118
 20
1103.7537856296715
 40
27.094072844634088
 50
244.78019200000111
 51
249.77896100000117
  0
ARC
  8
_0-0_計極細
  6
CONTINUOUS
 62
    2
 10
1264.4555140471118
 20
1103.7537856296715
 40
37.630656728658437
 50
243.68035399999945
 51
246.22847699999903
  0
ARC
  8
_0-0_計極細
  6
CONTINUOUS
 62
    2
 10
1248.2333834783633
 20
1069.1335814393071
 40
1.0034861863992508
 50
29.999999999990056
 51
150.00000000000995
  0
ARC
  8
_0-0_計極細
  6
CONTINUOUS
 62
    2
 10
1262.6954168451691
 20
1063.1508067545731
 40
1.0034861863992508
 50
267.51783600001954
 51
29.999999999989686
  0
ARC
  8
_0-0_計極細
  6
CONTINUOUS
 62
    2
 10
1257.4455308099748
 20
1063.2125210316074
 40
0.501740082747087
 50
210.00000000005619
 51
260.18999099994863
  0
ARC
  8
_0-0_計極細
  6
CONTINUOUS
 62
    2
 10
1264.4555140471118
 20
1103.7537856296715
 40
27.094072844634088
 50
260.29098300000004
 51
275.37568200000089
  0
ARC
  8
_0-0_計極細
  6
CONTINUOUS
 62
    2
 10
1264.4555140471118
 20
1103.7537856296715
 40
37.630656728658437
 50
288.07291800000053
 51
297.32522600000027
  0
ARC
  8
_0-0_計極細
  6
CONTINUOUS
 62
    2
 10
1264.4555140471118
 20
1103.7537856296715
 40
27.094072844634088
 50
283.31934900000215
 51
296.28378000000021
  0
ARC
  8
_0-0_計極細
  6
CONTINUOUS
 62
    2
 10
1278.4022061066023
 20
1065.04688609767
 40
0.501740082747087
 50
210.00000000005619
 51
289.81487200001084
  0
ARC
  8
_0-0_計極細
  6
CONTINUOUS
 62
    2
 10
1273.1784628412518
 20
1064.0598309612235
 40
1.0034861863992508
 50
282.39403400005705
 51
29.999999999989686
  0
ARC
  8
_0-0_計極細
  6
CONTINUOUS
 62
    2
 10
1264.4555140471118
 20
1103.7537856296715
 40
37.630656728658437
 50
302.67477399999979
 51
311.9270819999997
  0
ARC
  8
_0-0_計極細
  6
CONTINUOUS
 62
    2
 10
1287.1190376611846
 20
1070.0185762137987
 40
1.0034861863992508
 50
210.00000000001219
 51
303.89344999999258
  0
ARC
  8
_0-0_計極細
  6
CONTINUOUS
 62
    2
 10
1291.0033282368624
 20
1072.3221443915761
 40
0.501740082747087
 50
310.18512800003361
 51
29.999999999933351
  0
ARC
  8
_0-0_計極細
  6
CONTINUOUS
 62
    2
 10
1282.3393060407082
 20
1067.2589907064264
 40
1.0034861863992508
 50
296.10655000000122
 51
30.000000000012179
  0
LINE
  8
_0-0_計極細
  6
CONTINUOUS
 62
    2
 10
1230.1723541020294
 20
1082.9314909134503
 11
1248.0885445858396
 21
1082.9314909134503
  0
ARC
  8
_0-0_計極細
  6
CONTINUOUS
 62
    2
 10
1242.5846064609411
 20
1135.1126642299198
 40
1.0034861863992508
 50
269.99999999999977
 51
30.000000000051159
  0
LINE
  8
_0-0_計極細
  6
CONTINUOUS
 62
    2
 10
1232.8507416835366
 20
1130.5969854224802
 11
1246.0607760069076
 21
1130.5969854224802
  0
LINE
  8
_0-0_計極細
  6
CONTINUOUS
 62
    2
 10
1230.1723541020294
 20
1124.5760803458936
 11
1248.0885445858396
 21
1124.5760803458936
  0
LINE
  8
_0-0_計極細
  6
CONTINUOUS
 62
    2
 10
1226.9027136419998
 20
1121.063887724855
 11
1251.5647141318075
 21
1121.063887724855
  0
LINE
  8
_0-0_計極細
  6
CONTINUOUS
 62
    2
 10
1225.718070463656
 20
1115.0429826482698
 11
1253.5924827107408
 21
1115.0429826482698
  0
LINE
  8
_0-0_計極細
  6
CONTINUOUS
 62
    2
 10
1223.9610138187752
 20
1111.5307900272294
 11
1257.0686522567059
 21
1111.5307900272294
  0
LINE
  8
_0-0_計極細
  6
CONTINUOUS
 62
    2
 10
1223.908204460349
 20
1105.5098849506442
 11
1259.0964208356402
 21
1105.5098849506442
  0
LINE
  8
_0-0_計極細
  6
CONTINUOUS
 62
    2
 10
1226.9027136419998
 20
1086.4436835344898
 11
1251.5647141318075
 21
1086.4436835344898
  0
LINE
  8
_0-0_計極細
  6
CONTINUOUS
 62
    2
 10
1225.718070463656
 20
1092.4645886110754
 11
1253.5924827107408
 21
1092.4645886110754
  0
LINE
  8
_0-0_計極細
  6
CONTINUOUS
 62
    2
 10
1223.9610138187752
 20
1095.9767812321154
 11
1257.0686522567059
 21
1095.9767812321154
  0
LINE
  8
_0-0_計極細
  6
CONTINUOUS
 62
    2
 10
1223.908204460349
 20
1101.9976863086993
 11
1259.0964208356402
 21
1101.9976863086993
  0
ARC
  8
_0-0_計極細
  6
CONTINUOUS
 62
    2
 10
1264.4555140471118
 20
1103.7537856296715
 40
27.094072844634088
 50
140.2909829999995
 51
155.37568199999961
  0
ARC
  8
_0-0_計極細
  6
CONTINUOUS
 62
    2
 10
1264.4555140471118
 20
1103.7537856296715
 40
37.630656728658437
 50
152.61289199999976
 51
162.54239699999948
  0
ARC
  8
_0-0_計極細
  6
CONTINUOUS
 62
    2
 10
1225.718070463656
 20
1116.0464688346703
 40
1.0034861863992508
 50
162.39403400002894
 51
269.99999999999977
  0
ARC
  8
_0-0_計極細
  6
CONTINUOUS
 62
    2
 10
1230.1723541020294
 20
1081.9280047270497
 40
1.0034861863992508
 50
89.999999999999915
 51
212.48216399999936
  0
ARC
  8
_0-0_計極細
  6
CONTINUOUS
 62
    2
 10
1264.4555140471118
 20
1103.7537856296715
 40
37.630656728658437
 50
168.07291799999925
 51
177.3252260000001
  0
ARC
  8
_0-0_計極細
  6
CONTINUOUS
 62
    2
 10
1264.4555140471118
 20
1103.7537856296715
 40
37.630656728658437
 50
182.67477399999885
 51
191.9270819999997
  0
ARC
  8
_0-0_計極細
  6
CONTINUOUS
 62
    2
 10
1264.4555140471118
 20
1103.7537856296715
 40
37.630656728658437
 50
197.45760299999952
 51
207.38710799999927
  0
ARC
  8
_0-0_計極細
  6
CONTINUOUS
 62
    2
 10
1223.908204460349
 20
1100.9942061432059
 40
1.0034861863992508
 50
89.999999999999915
 51
183.89344999999844
  0
ARC
  8
_0-0_計極細
  6
CONTINUOUS
 62
    2
 10
1225.718070463656
 20
1091.4611024246763
 40
1.0034861863992508
 50
89.999999999999915
 51
197.60596599999548
  0
ARC
  8
_0-0_計極細
  6
CONTINUOUS
 62
    2
 10
1226.9027136419998
 20
1086.9454236172357
 40
0.501740082747087
 50
204.11293800004927
 51
269.99999999999977
  0
ARC
  8
_0-0_計極細
  6
CONTINUOUS
 62
    2
 10
1264.4555140471118
 20
1103.7537856296715
 40
27.094072844634088
 50
163.31934899999922
 51
176.2837799999995
  0
ARC
  8
_0-0_計極細
  6
CONTINUOUS
 62
    2
 10
1264.4555140471118
 20
1103.7537856296715
 40
27.094072844634088
 50
183.71621999999917
 51
196.68065099999947
  0
ARC
  8
_0-0_計極細
  6
CONTINUOUS
 62
    2
 10
1264.4555140471118
 20
1103.7537856296715
 40
27.094072844634088
 50
204.62431799999914
 51
219.70901699999865
  0
ARC
  8
_0-0_計極細
  6
CONTINUOUS
 62
    2
 10
1226.9027136419998
 20
1120.562147642109
 40
0.501740082747087
 50
89.999999999999915
 51
155.88706199995036
  0
ARC
  8
_0-0_計極細
  6
CONTINUOUS
 62
    2
 10
1230.1723541020294
 20
1125.5795665322946
 40
1.0034861863992508
 50
147.51783600000024
 51
269.99999999999977
  0
ARC
  8
_0-0_計極細
  6
CONTINUOUS
 62
    2
 10
1264.4555140471118
 20
1103.7537856296715
 40
37.630656728658437
 50
123.68035400000058
 51
126.22847699999969
  0
ARC
  8
_0-0_計極細
  6
CONTINUOUS
 62
    2
 10
1264.4555140471118
 20
1103.7537856296715
 40
37.630656728658437
 50
134.49322399999971
 51
146.40400499999933
  0
ARC
  8
_0-0_計極細
  6
CONTINUOUS
 62
    2
 10
1232.8507416835366
 20
1130.0952453397338
 40
0.501740082747087
 50
89.999999999999915
 51
140.18999100005377
  0
ARC
  8
_0-0_計極細
  6
CONTINUOUS
 62
    2
 10
1238.6036261706388
 20
1135.1126642299198
 40
1.0034861863992508
 50
129.50177000000534
 51
269.99999999999977
  0
LINE
  8
_0-0_計極細
  6
CONTINUOUS
 62
    2
 10
1238.6036261706388
 20
1134.1091840644256
 11
1242.5846064609411
 21
1134.1091840644256
  0
ARC
  8
_0-0_計極細
  6
CONTINUOUS
 62
    2
 10
1264.4555140471118
 20
1103.7537856296715
 40
37.630656728658437
 50
77.457603000000148
 51
87.387107999999586
  0
ARC
  8
_0-0_計極細
  6
CONTINUOUS
 62
    2
 10
1264.4555140471118
 20
1103.7537856296715
 40
37.630656728658437
 50
77.457603000000148
 51
87.387107999999586
  0
ARC
  8
_0-0_計極細
  6
CONTINUOUS
 62
    2
 10
1269.524935494446
 20
1100.4924600395541
 40
1.0034861863992508
 50
89.999999999999915
 51
209.9999999999732
  0
ARC
  8
_0-0_計極細
  6
CONTINUOUS
 62
    2
 10
1269.524935494446
 20
1107.0151112197921
 40
1.0034861863992508
 50
150.00000000002643
 51
269.99999999999977
  0
ARC
  8
_0-0_計極細
  6
CONTINUOUS
 62
    2
 10
1268.6754520180937
 20
1144.6796475813142
 40
0.501740082747087
 50
84.112937999972772
 51
150.00000000001438
  0
LINE
  8
_0-0_計極細
  6
CONTINUOUS
 62
    2
 10
1274.0475082381961
 20
1142.9459941944676
 11
1260.1103051251055
 21
1118.8060483211359
  0
LINE
  8
_0-0_計極細
  6
CONTINUOUS
 62
    2
 10
1277.9676894290358
 20
1142.7115521925964
 11
1261.4138671996182
 21
1114.0394964618706
  0
LINE
  8
_0-0_計極細
  6
CONTINUOUS
 62
    2
 10
1283.2083454167466
 20
1139.7468344492656
 11
1265.6142432500067
 21
1109.2729506235107
  0
LINE
  8
_0-0_計極細
  6
CONTINUOUS
 62
    2
 10
1262.4485476952188
 20
1111.7456339830771
 11
1262.4485476952188
 21
1115.8316188579158
  0
LINE
  8
_0-0_計極細
  6
CONTINUOUS
 62
    2
 10
1262.9502877779657
 20
1110.8765946070382
 11
1262.9502877779657
 21
1116.7006642548588
  0
ARC
  8
_0-0_計極細
  6
CONTINUOUS
 62
    2
 10
1253.5924827107408
 20
1116.0464688346703
 40
1.0034861863992508
 50
269.99999999999977
 51
30.000000000012179
  0
LINE
  8
_0-0_計極細
  6
CONTINUOUS
 62
    2
 10
1265.9607403162593
 20
1109.8731084206404
 11
1265.9607403162593
 21
1121.9149185738099
  0
LINE
  8
_0-0_計極細
  6
CONTINUOUS
 62
    2
 10
1266.4624864199106
 20
1110.7421538175829
 11
1266.4624864199106
 21
1122.7839639707552
  0
ARC
  8
_0-0_計極細
  6
CONTINUOUS
 62
    2
 10
1253.5924827107408
 20
1091.4611024246763
 40
1.0034861863992508
 50
329.99999999996464
 51
89.999999999999545
  0
ARC
  8
_0-0_計極細
  6
CONTINUOUS
 62
    2
 10
1251.5647141318075
 20
1086.9454236172357
 40
0.501740082747087
 50
269.99999999999977
 51
329.9999999999431
  0
ARC
  8
_0-0_計極細
  6
CONTINUOUS
 62
    2
 10
1264.4555140471118
 20
1103.7537856296715
 40
27.094072844634088
 50
230.22103899999954
 51
235.21980799999949
  0
ARC
  8
_0-0_計極細
  6
CONTINUOUS
 62
    2
 10
1248.0885445858396
 20
1081.9280047270497
 40
1.0034861863992508
 50
329.9999999999871
 51
89.999999999999545
  0
ARC
  8
_0-0_計極細
  6
CONTINUOUS
 62
    2
 10
1256.3444517731898
 20
1084.1858441307702
 40
0.501740082747087
 50
149.9999999999884
 51
210.00000000005619
  0
LINE
  8
_0-0_計極細
  6
CONTINUOUS
 62
    2
 10
1262.4485476952188
 20
1091.675952401429
 11
1262.4485476952188
 21
1095.7619372762676
  0
LINE
  8
_0-0_計極細
  6
CONTINUOUS
 62
    2
 10
1262.9502877779657
 20
1090.8069070044842
 11
1262.9502877779657
 21
1096.6309766523061
  0
ARC
  8
_0-0_計極細
  6
CONTINUOUS
 62
    2
 10
1257.0686522567059
 20
1096.4785273357668
 40
0.501740082747087
 50
269.99999999999977
 51
330.00000000006594
  0
ARC
  8
_0-0_計極細
  6
CONTINUOUS
 62
    2
 10
1261.848389898091
 20
1093.7189418283945
 40
0.501740082747087
 50
150.00000000004732
 51
209.99999999990737
  0
ARC
  8
_0-0_計極細
  6
CONTINUOUS
 62
    2
 10
1259.2412597281611
 20
1088.1997828554615
 40
1.0034861863992508
 50
30.000000000012541
 51
149.99999999998747
  0
ARC
  8
_0-0_計極細
  6
CONTINUOUS
 62
    2
 10
1261.848389898091
 20
1113.7886294309494
 40
0.501740082747087
 50
150.00000000004732
 51
209.99999999990737
  0
ARC
  8
_0-0_計極細
  6
CONTINUOUS
 62
    2
 10
1264.745197853061
 20
1109.7746907062581
 40
1.0034861863992508
 50
210.00000000005113
 51
330.00000000002603
  0
ARC
  8
_0-0_計極細
  6
CONTINUOUS
 62
    2
 10
1257.0686522567059
 20
1111.0290439235766
 40
0.501740082747087
 50
29.999999999933703
 51
89.999999999999929
  0
ARC
  8
_0-0_計極細
  6
CONTINUOUS
 62
    2
 10
1259.0964208356402
 20
1106.5133651161389
 40
1.0034861863992508
 50
269.99999999999977
 51
29.999999999989686
  0
LINE
  8
_0-0_計極細
  6
CONTINUOUS
 62
    2
 10
1265.9607403162593
 20
1085.5926526855339
 11
1265.9607403162593
 21
1097.6344628387058
  0
LINE
  8
_0-0_計極細
  6
CONTINUOUS
 62
    2
 10
1266.4624864199106
 20
1084.723607288591
 11
1266.4624864199106
 21
1096.765417441761
  0
ARC
  8
_0-0_計極細
  6
CONTINUOUS
 62
    2
 10
1264.745197853061
 20
1109.7746907062581
 40
1.0034861863992508
 50
253.22134500003193
 51
330.00000000002603
  0
LINE
  8
_0-0_計極細
  6
CONTINUOUS
 62
    2
 10
1263.5644562212076
 20
1143.8550184011212
 11
1254.606367000207
 21
1128.3391460187602
  0
ARC
  8
_0-0_計極細
  6
CONTINUOUS
 62
    2
 10
1264.4555140471118
 20
1103.7537856296715
 40
37.630656728658437
 50
93.595994999999121
 51
105.50677599999949
  0
LINE
  8
_0-0_計極細
  6
CONTINUOUS
 62
    2
 10
1257.0110081115033
 20
1144.5459232795654
 11
1250.4059909498185
 21
1133.105697878025
  0
LINE
  8
_0-0_計極細
  6
CONTINUOUS
 62
    2
 10
1268.2409293196222
 20
1144.9305206331412
 11
1255.909929074717
 21
1123.5726001803998
  0
ARC
  8
_0-0_計極細
  6
CONTINUOUS
 62
    2
 10
1256.3444517731898
 20
1123.3217271285746
 40
0.501740082747087
 50
149.9999999999884
 51
210.00000000001123
  0
ARC
  8
_0-0_計極細
  6
CONTINUOUS
 62
    2
 10
1264.4555140471118
 20
1103.7537856296715
 40
27.094072844634088
 50
110.2210389999981
 51
115.21980799999808
  0
ARC
  8
_0-0_計極細
  6
CONTINUOUS
 62
    2
 10
1253.7373216032627
 20
1128.8408921224134
 40
1.0034861863992508
 50
209.99999999998968
 51
330.00000000002257
  0
ARC
  8
_0-0_計極細
  6
CONTINUOUS
 62
    2
 10
1250.84051364829
 20
1132.8548248261989
 40
0.501740082747087
 50
150.00000000002132
 51
209.99999999993332
  0
ARC
  8
_0-0_計極細
  6
CONTINUOUS
 62
    2
 10
1264.4555140471118
 20
1103.7537856296715
 40
37.630656728658437
 50
113.77152300000034
 51
116.31964599999986
  0
ARC
  8
_0-0_計極細
  6
CONTINUOUS
 62
    2
 10
1250.2238766339658
 20
1141.8216202759415
 40
1.0034861863992508
 50
330.00000000004854
 51
110.49822999991692
  0
ARC
  8
_0-0_計極細
  6
CONTINUOUS
 62
    2
 10
1248.2333834783633
 20
1138.3739898200367
 40
1.0034861863992508
 50
210.00000000001219
 51
329.9999999999871
  0
LINE
  8
_0-0_計極細
  6
CONTINUOUS
 62
    2
 10
1251.092916010007
 20
1141.3198801931942
 11
1249.1024288753076
 21
1137.8722497372921
  0
ARC
  8
_0-0_計極細
  6
CONTINUOUS
 62
    2
 10
1264.4555140471118
 20
1103.7537856296715
 40
27.094072844634088
 50
124.78019199999905
 51
129.7789609999995
  0
ARC
  8
_0-0_計極細
  6
CONTINUOUS
 62
    2
 10
1246.0607760069076
 20
1130.0952453397338
 40
0.501740082747087
 50
30.000000000011593
 51
89.999999999999915
  0
ARC
  8
_0-0_計極細
  6
CONTINUOUS
 62
    2
 10
1248.0885445858396
 20
1125.5795665322946
 40
1.0034861863992508
 50
269.99999999999977
 51
30.000000000012179
  0
ARC
  8
_0-0_計極細
  6
CONTINUOUS
 62
    2
 10
1251.5647141318075
 20
1120.562147642109
 40
0.501740082747087
 50
30.000000000011593
 51
89.999999999999915
  0
LINE
  8
_0-0_計極細
  6
CONTINUOUS
 62
    2
 10
1262.9502877779657
 20
1123.7250494969396
 11
1262.9502877779657
 21
1130.8060131840246
  0
LINE
  8
_0-0_計極細
  6
CONTINUOUS
 62
    2
 10
1262.4485476952188
 20
1122.8560101209011
 11
1262.4485476952188
 21
1130.7734220248446
  0
ARC
  8
_0-0_計極細
  6
CONTINUOUS
 62
    2
 10
1262.6954168451691
 20
1144.3567645047749
 40
1.0034861863992508
 50
329.9999999999871
 51
92.482163999979747
  0
ARC
  8
_0-0_計極細
  6
CONTINUOUS
 62
    2
 10
1264.4555140471118
 20
1103.7537856296715
 40
27.094072844634088
 50
84.624317999998866
 51
99.709016999999434
  0
ARC
  8
_0-0_計極細
  6
CONTINUOUS
 62
    2
 10
1257.4455308099748
 20
1144.2950502277401
 40
0.501740082747087
 50
99.810009000050982
 51
149.9999999999884
  0
ARC
  8
_0-0_計極細
  6
CONTINUOUS
 62
    2
 10
1259.2412597281611
 20
1119.3077884038819
 40
1.0034861863992508
 50
210.00000000001219
 51
329.9999999999871
  0
ARC
  8
_0-0_計極細
  6
CONTINUOUS
 62
    2
 10
1264.4555140471118
 20
1103.7537856296715
 40
27.094072844634088
 50
84.624317999998866
 51
89.999999999999915
  0
ARC
  8
_0-0_計極細
  6
CONTINUOUS
 62
    2
 10
1264.4555140471118
 20
1103.7537856296715
 40
27.094072844634088
 50
20.290983000001241
 51
35.375682000000126
  0
LINE
  8
_0-0_計極細
  6
CONTINUOUS
 62
    2
 10
1291.4378509353353
 20
1134.9345538159444
 11
1274.8840287059163
 21
1106.2624980852177
  0
LINE
  8
_0-0_計極細
  6
CONTINUOUS
 62
    2
 10
1286.2499982851461
 20
1137.9907411491984
 11
1268.6558900975003
 21
1107.5168513025376
  0
ARC
  8
_0-0_計極細
  6
CONTINUOUS
 62
    2
 10
1264.4555140471118
 20
1103.7537856296715
 40
27.094072844634088
 50
303.71622000000229
 51
316.6806509999999
  0
ARC
  8
_0-0_計極細
  6
CONTINUOUS
 62
    2
 10
1280.532805723338
 20
1100.4924600395541
 40
1.0034861863992508
 50
89.999999999999915
 51
210.00000000001216
  0
ARC
  8
_0-0_計極細
  6
CONTINUOUS
 62
    2
 10
1274.4495060074448
 20
1100.9942061432059
 40
0.501740082747087
 50
30.000000000056566
 51
89.999999999999915
  0
ARC
  8
_0-0_計極細
  6
CONTINUOUS
 62
    2
 10
1280.532805723338
 20
1107.0151112197921
 40
1.0034861863992508
 50
149.99999999998747
 51
269.99999999999977
  0
ARC
  8
_0-0_計極細
  6
CONTINUOUS
 62
    2
 10
1274.4495060074448
 20
1106.5133651161389
 40
0.501740082747087
 50
269.99999999999977
 51
329.9999999999431
  0
ARC
  8
_0-0_計極細
  6
CONTINUOUS
 62
    2
 10
1264.4555140471118
 20
1103.7537856296715
 40
27.094072844634088
 50
324.6243180000003
 51
339.70901700000019
  0
ARC
  8
_0-0_計極細
  6
CONTINUOUS
 62
    2
 10
1264.4555140471118
 20
1103.7537856296715
 40
27.094072844634088
 50
350.22103899999968
 51
355.21980800000068
  0
ARC
  8
_0-0_計極細
  6
CONTINUOUS
 62
    2
 10
1264.4555140471118
 20
1103.7537856296715
 40
27.094072844634088
 50
4.7801919999998796
 51
9.778961000000896
  0
ARC
  8
_0-0_計極細
  6
CONTINUOUS
 62
    2
 10
1291.5406819731377
 20
1100.4924600395541
 40
1.0034861863992508
 50
89.999999999999915
 51
210.00000000001216
  0
ARC
  8
_0-0_計極細
  6
CONTINUOUS
 62
    2
 10
1285.457382257244
 20
1100.9942061432059
 40
0.501740082747087
 50
30.0000000000306
 51
89.999999999999915
  0
ARC
  8
_0-0_計極細
  6
CONTINUOUS
 62
    2
 10
1291.5406819731377
 20
1107.0151112197921
 40
1.0034861863992508
 50
149.99999999998747
 51
269.99999999999977
  0
ARC
  8
_0-0_計極細
  6
CONTINUOUS
 62
    2
 10
1285.457382257244
 20
1106.5133651161389
 40
0.501740082747087
 50
269.99999999999977
 51
329.99999999996902
  0
ARC
  8
_0-0_計極細
  6
CONTINUOUS
 62
    2
 10
1264.4555140471118
 20
1103.7537856296715
 40
27.094072844634088
 50
43.319349000000443
 51
56.283779999998394
  0
ARC
  8
_0-0_計極細
  6
CONTINUOUS
 62
    2
 10
1264.4555140471118
 20
1103.7537856296715
 40
37.630656728658437
 50
62.674773999999701
 51
71.927081999999317
  0
ARC
  8
_0-0_計極細
  6
CONTINUOUS
 62
    2
 10
1264.4555140471118
 20
1103.7537856296715
 40
27.094072844634088
 50
63.716219999999879
 51
76.680650999997951
  0
ARC
  8
_0-0_計極細
  6
CONTINUOUS
 62
    2
 10
1278.4022061066023
 20
1142.4606851616743
 40
0.501740082747087
 50
70.185127999988836
 51
149.9999999999884
  0
ARC
  8
_0-0_計極細
  6
CONTINUOUS
 62
    2
 10
1273.1784628412518
 20
1143.4477402981213
 40
1.0034861863992508
 50
330.00000000000961
 51
77.605965999942228
  0
ARC
  8
_0-0_計極細
  6
CONTINUOUS
 62
    2
 10
1264.4555140471118
 20
1103.7537856296715
 40
37.630656728658437
 50
48.072918000000854
 51
57.3252260000002
  0
ARC
  8
_0-0_計極細
  6
CONTINUOUS
 62
    2
 10
1287.1190376611846
 20
1137.4889950455465
 40
1.0034861863992508
 50
56.106549999992559
 51
150.00000000000995
  0
ARC
  8
_0-0_計極細
  6
CONTINUOUS
 62
    2
 10
1291.0033282368624
 20
1135.1854208468646
 40
0.501740082747087
 50
330.00000000006594
 51
49.814871999965682
  0
ARC
  8
_0-0_計極細
  6
CONTINUOUS
 62
    2
 10
1282.3393060407082
 20
1140.248580552917
 40
1.0034861863992508
 50
329.9999999999871
 51
63.893449999998062
  0
ARC
  8
_0-0_計極細
  6
CONTINUOUS
 62
    2
 10
1294.4700148573322
 20
1076.3525141662205
 40
1.0034861863992508
 50
210.00000000001219
 51
317.60596600000804
  0
ARC
  8
_0-0_計極細
  6
CONTINUOUS
 62
    2
 10
1297.7883885230524
 20
1079.6362796695596
 40
0.501740082747087
 50
324.11293799996702
 51
29.99999999998526
  0
ARC
  8
_0-0_計極細
  6
CONTINUOUS
 62
    2
 10
1264.4555140471118
 20
1103.7537856296715
 40
37.630656728658437
 50
14.493223999999607
 51
26.404005000000225
  0
LINE
  8
_0-0_計極細
  6
CONTINUOUS
 62
    2
 10
1303.5047983672
 20
1117.7027234867567
 11
1296.8997812055152
 21
1106.2624980852177
  0
ARC
  8
_0-0_計極細
  6
CONTINUOUS
 62
    2
 10
1304.5390513785412
 20
1097.0448295836497
 40
1.0034861863992508
 50
209.99999999998968
 51
350.4982300000064
  0
ARC
  8
_0-0_計極細
  6
CONTINUOUS
 62
    2
 10
1304.5390513785412
 20
1110.462741675695
 40
1.0034861863992508
 50
9.5017699999932326
 51
149.99999999998747
  0
ARC
  8
_0-0_計極細
  6
CONTINUOUS
 62
    2
 10
1264.4555140471118
 20
1103.7537856296715
 40
37.630656728658437
 50
3.6803540000001314
 51
6.2284770000002974
  0
ARC
  8
_0-0_計極細
  6
CONTINUOUS
 62
    2
 10
1264.4555140471118
 20
1103.7537856296715
 40
37.630656728658437
 50
353.77152300000074
 51
356.3196460000002
  0
ARC
  8
_0-0_計極細
  6
CONTINUOUS
 62
    2
 10
1264.4555140471118
 20
1103.7537856296715
 40
37.630656728658437
 50
333.59599500000002
 51
345.50677600000074
  0
ARC
  8
_0-0_計極細
  6
CONTINUOUS
 62
    2
 10
1300.4987772150441
 20
1084.976587657193
 40
1.0034861863992508
 50
209.99999999998968
 51
332.48216400001218
  0
ARC
  8
_0-0_計極細
  6
CONTINUOUS
 62
    2
 10
1302.548558222936
 20
1100.4924600395541
 40
1.0034861863992508
 50
89.999999999999915
 51
210.00000000001216
  0
ARC
  8
_0-0_計極細
  6
CONTINUOUS
 62
    2
 10
1296.4652585070423
 20
1100.9942061432059
 40
0.501740082747087
 50
29.999999999978677
 51
89.999999999999901
  0
LINE
  8
_0-0_計極細
  6
CONTINUOUS
 62
    2
 10
1303.6700059815973
 20
1096.5430895009033
 11
1301.6795188468975
 21
1099.9907199568077
  0
LINE
  8
_0-0_計極細
  6
CONTINUOUS
 62
    2
 10
1303.5047983672
 20
1089.804847772589
 11
1296.8997812055152
 21
1101.2450731741258
  0
ARC
  8
_0-0_計極細
  6
CONTINUOUS
 62
    2
 10
1302.548558222936
 20
1107.0151112197921
 40
1.0034861863992508
 50
149.99999999998747
 51
269.99999999999977
  0
ARC
  8
_0-0_計極細
  6
CONTINUOUS
 62
    2
 10
1296.4652585070423
 20
1106.5133651161389
 40
0.501740082747087
 50
269.99999999999977
 51
330.00000000002098
  0
LINE
  8
_0-0_計極細
  6
CONTINUOUS
 62
    2
 10
1303.6700059815973
 20
1110.9644817584415
 11
1301.6795188468975
 21
1107.5168513025376
  0
ARC
  8
_0-0_計極細
  6
CONTINUOUS
 62
    2
 10
1294.4700148573322
 20
1131.1550570931242
 40
1.0034861863992508
 50
42.394033999991557
 51
149.99999999998747
  0
ARC
  8
_0-0_計極細
  6
CONTINUOUS
 62
    2
 10
1297.7883885230524
 20
1127.8712915897847
 40
0.501740082747087
 50
330.00000000001404
 51
35.887062000032259
  0
ARC
  8
_0-0_計極細
  6
CONTINUOUS
 62
    2
 10
1300.4987772150441
 20
1122.5309836021518
 40
1.0034861863992508
 50
27.517836000010465
 51
149.99999999998747
  0
LINE
  8
_0-0_計極細
  6
CONTINUOUS
 62
    2
 10
1265.9607403162593
 20
1076.7015569379535
 11
1265.9607403162593
 21
1078.5682685880472
  0
LINE
  8
_0-0_計極細
  6
CONTINUOUS
 62
    2
 10
1266.4624864199106
 20
1076.7341474898819
 11
1266.4624864199106
 21
1077.6992185564889
  0
LINE
  8
_0-0_計極細
  6
CONTINUOUS
 62
    2
 10
1265.9607403162593
 20
1128.939300143895
 11
1265.9607403162593
 21
1130.8060143213895
  0
LINE
  8
_0-0_計極細
  6
CONTINUOUS
 62
    2
 10
1266.4624864199106
 20
1129.8083499586976
 11
1266.4624864199106
 21
1130.773423769461
  0
LINE
  8
_0-1_計細線
  6
CONTINUOUS
 62
    3
 10
1332.4545169335299
 20
1163.7537856296715
 11
362.45451693352993
 21
1163.7537856296715
  0
LINE
  8
_0-1_計細線
  6
CONTINUOUS
 62
    3
 10
362.45451693352993
 20
1163.7537856296715
 11
362.45451693352993
 21
1043.7537856296715
  0
LINE
  8
_0-1_計細線
  6
CONTINUOUS
 62
    3
 10
362.45451693352993
 20
1043.7537856296715
 11
1332.4545169335299
 21
1043.7537856296715
  0
LINE
  8
_0-1_計細線
  6
CONTINUOUS
 62
    3
 10
1332.4545169335299
 20
1043.7537856296715
 11
1332.4545169335299
 21
1163.7537856296715
  0
ARC
  8
_0-1_計細線
  6
CONTINUOUS
 62
    3
 10
1547.9545169335302
 20
1162.7537856296717
 40
0.5
 50
179.99999999999983
 51
269.99999999999977
  0
LINE
  8
_0-1_計細線
  6
CONTINUOUS
 62
    3
 10
1547.9545169335302
 20
1162.2537856296717
 11
1549.9545169335302
 21
1162.2537856296717
  0
ARC
  8
_0-1_計細線
  6
CONTINUOUS
 62
    3
 10
1547.9545169335302
 20
1044.7537856296715
 40
0.5
 50
89.999999999999915
 51
179.99999999999983
  0
LINE
  8
_0-1_計細線
  6
CONTINUOUS
 62
    3
 10
1547.9545169335302
 20
1045.2537856296715
 11
1549.9545169335302
 21
1045.2537856296715
  0
ARC
  8
_0-1_計細線
  6
CONTINUOUS
 62
    3
 10
1549.9545169335302
 20
1046.7537856296715
 40
1.5
 50
269.99999999999977
 51
359.99999999999966
  0
LINE
  8
_0-1_計細線
  6
CONTINUOUS
 62
    3
 10
1551.4545169335302
 20
1046.7537856296715
 11
1551.4545169335302
 21
1160.7537856296717
  0
ARC
  8
_0-1_計細線
  6
CONTINUOUS
 62
    3
 10
1549.9545169335302
 20
1160.7537856296717
 40
1.5
 50
0
 51
89.999999999999915
  0
LINE
  8
_0-7_枠細線
  6
CONTINUOUS
 62
    5
 10
422.43819358137966
 20
1003.2608585457563
 11
410.43819358137966
 21
1027.2608585457563
  0
LINE
  8
_0-7_枠細線
  6
CONTINUOUS
 62
    5
 10
398.43819358137966
 20
1003.2608585457563
 11
422.43819358137966
 21
1003.2608585457563
  0
LINE
  8
_0-7_枠細線
  6
CONTINUOUS
 62
    5
 10
410.43819358137966
 20
1027.2608585457563
 11
398.43819358137966
 21
1003.2608585457563
  0
TEXT
  8
_0-7_枠細線
 62
    5
 10
402.2224356104166
 20
1002.7696549531478
 40
20
 41
0.8
 50
0
  1
３
  0
LINE
  8
_0-7_枠細線
  6
CONTINUOUS
 62
    5
 10
440.3805678448939
 20
1027.2608585457563
 11
428.3805678448939
 21
1003.2608585457563
  0
LINE
  8
_0-7_枠細線
  6
CONTINUOUS
 62
    5
 10
428.3805678448939
 20
1003.2608585457563
 11
452.3805678448939
 21
1003.2608585457563
  0
LINE
  8
_0-7_枠細線
  6
CONTINUOUS
 62
    5
 10
452.3805678448939
 20
1003.2608585457563
 11
440.3805678448939
 21
1027.2608585457563
  0
TEXT
  8
_0-7_枠細線
 62
    5
 10
432.16480987393084
 20
1002.3845643214661
 40
20
 41
0.8
 50
0
  1
５
  0
LINE
  8
_0-7_枠細線
  6
CONTINUOUS
 62
    5
 10
428.15116214018462
 20
645.60267193982929
 11
416.15116214018462
 21
669.60267193982929
  0
LINE
  8
_0-7_枠細線
  6
CONTINUOUS
 62
    5
 10
404.15116214018462
 20
645.60267193982929
 11
428.15116214018462
 21
645.60267193982929
  0
LINE
  8
_0-7_枠細線
  6
CONTINUOUS
 62
    5
 10
416.15116214018462
 20
669.60267193982929
 11
404.15116214018462
 21
645.60267193982929
  0
TEXT
  8
_0-7_枠細線
 62
    5
 10
407.93540416922224
 20
645.11146834722081
 40
20
 41
0.8
 50
0
  1
１
  0
LINE
  8
_0-1_計細線
  6
CONTINUOUS
 62
    3
 10
1264.4545169335295
 20
739.75378562967148
 11
1330.9545169335295
 21
739.75378562967148
  0
LINE
  8
_0-1_計細線
  6
CONTINUOUS
 62
    3
 10
1264.4545169335295
 20
755.85378562967162
 11
1330.9545169335295
 21
755.85378562967162
  0
LINE
  8
_0-1_計細線
  6
CONTINUOUS
 62
    3
 10
1330.9545169335295
 20
759.75378562967148
 11
1330.9545169335295
 21
739.75378562967148
  0
LINE
  8
_0-0_計極細
  6
CONTINUOUS
 62
    2
 10
1264.4545169335295
 20
758.65378562967157
 11
1330.9545169335295
 21
758.65378562967157
  0
LINE
  8
_0-5_寸法線
  6
CONTINUOUS
 62
    7
 10
1349.4545169335295
 20
659.75378562967148
 11
1432.4545169335295
 21
659.75378562967126
  0
LINE
  8
_0-5_寸法線
  6
CONTINUOUS
 62
    7
 10
1424.4545169335295
 20
659.75378562967126
 11
1420.3134122118893
 21
675.20859885029631
  0
LINE
  8
_0-5_寸法線
  6
CONTINUOUS
 62
    7
 10
1424.4545169335295
 20
659.75378562967126
 11
1428.5956216551699
 21
675.20859885029631
  0
LINE
  8
_0-5_寸法線
  6
CONTINUOUS
 62
    7
 10
1360.4545169335295
 20
759.75378562967137
 11
1432.4545169335295
 21
759.75378562967114
  0
LINE
  8
_0-5_寸法線
  6
CONTINUOUS
 62
    7
 10
1424.4545169335295
 20
759.75378562967114
 11
1428.5956216551699
 21
744.29897240904609
  0
LINE
  8
_0-5_寸法線
  6
CONTINUOUS
 62
    7
 10
1424.4545169335295
 20
759.75378562967114
 11
1420.3134122118893
 21
744.29897240904609
  0
LINE
  8
_0-5_寸法線
  6
CONTINUOUS
 62
    7
 10
1424.4545169335295
 20
659.75378562967126
 11
1424.4545169335295
 21
759.75378562967114
  0
TEXT
  8
_0-5_寸法線
 62
    7
 10
1424.4545169335295
 20
691.75378562967126
 40
24
 41
1
 50
90
  1
100
  0
LINE
  8
_0-5_寸法線
  6
CONTINUOUS
 62
    7
 10
1159.4842684065832
 20
609.75363322984686
 11
1159.4842684065839
 21
903.75378562967148
  0
LINE
  8
_0-5_寸法線
  6
CONTINUOUS
 62
    7
 10
1159.4842684065839
 20
895.75378562967148
 11
1174.9390816272089
 21
899.8948903513118
  0
LINE
  8
_0-5_寸法線
  6
CONTINUOUS
 62
    7
 10
1159.4842684065839
 20
895.75378562967148
 11
1174.9390816272089
 21
891.61268090803117
  0
LINE
  8
_0-5_寸法線
  6
CONTINUOUS
 62
    7
 10
1369.4821858089429
 20
609.75363322984686
 11
1369.4821858089435
 21
903.75378562967148
  0
LINE
  8
_0-5_寸法線
  6
CONTINUOUS
 62
    7
 10
1369.4821858089435
 20
895.75378562967148
 11
1354.0273725883185
 21
891.61268090803117
  0
LINE
  8
_0-5_寸法線
  6
CONTINUOUS
 62
    7
 10
1369.4821858089435
 20
895.75378562967148
 11
1354.0273725883185
 21
899.89489035131191
  0
LINE
  8
_0-5_寸法線
  6
CONTINUOUS
 62
    7
 10
1159.4842684065839
 20
895.75378562967148
 11
1369.4821858089435
 21
895.75378562967148
  0
TEXT
  8
_0-5_寸法線
 62
    7
 10
1234.4832271077637
 20
895.75378562967148
 40
24
 41
1
 50
0
  1
φ210
  0
LINE
  8
_0-5_寸法線
  6
CONTINUOUS
 62
    7
 10
1410.4923759920518
 20
503.75408458945157
 11
1538.4931288984742
 21
503.75408458945128
  0
LINE
  8
_0-5_寸法線
  6
CONTINUOUS
 62
    7
 10
1530.4931288984742
 20
503.75408458945128
 11
1526.352024176834
 21
519.20889781007634
  0
LINE
  8
_0-5_寸法線
  6
CONTINUOUS
 62
    7
 10
1530.4931288984742
 20
503.75408458945128
 11
1534.6342336201146
 21
519.20889781007634
  0
LINE
  8
_0-5_寸法線
  6
CONTINUOUS
 62
    7
 10
1410.4931288984742
 20
543.25408458945162
 11
1538.4931288984742
 21
543.25408458945117
  0
LINE
  8
_0-5_寸法線
  6
CONTINUOUS
 62
    7
 10
1530.4931288984742
 20
543.25408458945117
 11
1534.6342336201146
 21
527.79927136882611
  0
LINE
  8
_0-5_寸法線
  6
CONTINUOUS
 62
    7
 10
1530.4931288984742
 20
543.25408458945117
 11
1526.352024176834
 21
527.79927136882611
  0
LINE
  8
_0-5_寸法線
  6
CONTINUOUS
 62
    7
 10
1530.4931288984742
 20
503.75408458945128
 11
1530.4931288984742
 21
543.25408458945117
  0
TEXT
  8
_0-5_寸法線
 62
    7
 10
1530.4931288984742
 20
499.5040845894514
 40
24
 41
1
 50
90
  1
39.5
  0
LINE
  8
_0-5_寸法線
  6
CONTINUOUS
 62
    7
 10
1264.4545169335295
 20
487.75372422981695
 11
1264.454516933529
 21
415.75372422981695
  0
LINE
  8
_0-5_寸法線
  6
CONTINUOUS
 62
    7
 10
1264.454516933529
 20
423.75372422981695
 11
1279.9093301541541
 21
427.89482895145727
  0
LINE
  8
_0-5_寸法線
  6
CONTINUOUS
 62
    7
 10
1264.454516933529
 20
423.75372422981695
 11
1279.9093301541541
 21
419.61261950817664
  0
LINE
  8
_0-5_寸法線
  6
CONTINUOUS
 62
    7
 10
1394.493128898474
 20
487.75372422981695
 11
1394.4931288984735
 21
415.75372422981695
  0
LINE
  8
_0-5_寸法線
  6
CONTINUOUS
 62
    7
 10
1394.4931288984735
 20
423.75372422981695
 11
1379.0383156778485
 21
419.61261950817669
  0
LINE
  8
_0-5_寸法線
  6
CONTINUOUS
 62
    7
 10
1394.4931288984735
 20
423.75372422981695
 11
1379.0383156778485
 21
427.89482895145733
  0
LINE
  8
_0-5_寸法線
  6
CONTINUOUS
 62
    7
 10
1264.454516933529
 20
423.75372422981695
 11
1394.4931288984735
 21
423.75372422981695
  0
TEXT
  8
_0-5_寸法線
 62
    7
 10
1311.4738229160014
 20
423.75372422981695
 40
24
 41
1
 50
0
  1
130
  0
ARC
  8
_0-1_計細線
  6
CONTINUOUS
 62
    3
 10
1323.4545169335292
 20
659.25378562967148
 40
1.5
 50
89.999999999999915
 51
179.99999999999983
  0
LINE
  8
_0-1_計細線
  6
CONTINUOUS
 62
    3
 10
1321.9545169335292
 20
659.25378562967148
 11
1321.9545169335292
 21
657.2537856296716
  0
ARC
  8
_0-1_計細線
  6
CONTINUOUS
 62
    3
 10
1321.4545169335292
 20
657.2537856296716
 40
1.5
 50
269.99999999999977
 51
359.99999999999966
  0
LINE
  8
_0-1_計細線
  6
CONTINUOUS
 62
    3
 10
1322.9545169335292
 20
659.2537856296716
 11
1322.9545169335292
 21
657.2537856296716
  0
LINE
  8
_0-1_計細線
  6
CONTINUOUS
 62
    3
 10
1321.4545169335292
 20
655.7537856296716
 11
1315.4545169335292
 21
655.7537856296716
  0
ARC
  8
_0-1_計細線
  6
CONTINUOUS
 62
    3
 10
1323.4545169335292
 20
659.2537856296716
 40
0.5
 50
89.999999999999915
 51
179.99999999999983
  0
ARC
  8
_0-1_計細線
  6
CONTINUOUS
 62
    3
 10
1321.4545169335292
 20
657.2537856296716
 40
0.5
 50
269.99999999999977
 51
359.99999999999966
  0
LINE
  8
_0-1_計細線
  6
CONTINUOUS
 62
    3
 10
1321.4545169335292
 20
656.7537856296716
 11
1315.4545169335292
 21
656.7537856296716
  0
LINE
  8
_0-1_計細線
  6
CONTINUOUS
 62
    3
 10
1315.4545169335292
 20
656.7537856296716
 11
1315.4545169335292
 21
655.7537856296716
  0
LINE
  8
_0-1_計細線
  6
CONTINUOUS
 62
    3
 10
1332.4545169335295
 20
660.75378562967148
 11
1323.4545169335292
 21
660.75378562967148
  0
LINE
  8
_0-1_計細線
  6
CONTINUOUS
 62
    3
 10
1332.4545169335295
 20
758.75378562967148
 11
1332.4545169335295
 21
660.75378562967148
  0
LINE
  8
_0-1_計細線
  6
CONTINUOUS
 62
    3
 10
1332.4545169335295
 20
659.7537856296716
 11
1323.4545169335292
 21
659.7537856296716
  0
ARC
  8
_0-1_計細線
  6
CONTINUOUS
 62
    3
 10
1332.4545169335295
 20
660.75378562967148
 40
1
 50
269.99999999999977
 51
359.99999999999966
  0
ARC
  8
_0-1_計細線
  6
CONTINUOUS
 62
    3
 10
1207.4545169335297
 20
657.2537856296716
 40
1.5
 50
179.99999999999983
 51
269.99999999999977
  0
LINE
  8
_0-1_計細線
  6
CONTINUOUS
 62
    3
 10
1205.9545169335297
 20
659.2537856296716
 11
1205.9545169335297
 21
657.2537856296716
  0
ARC
  8
_0-1_計細線
  6
CONTINUOUS
 62
    3
 10
1205.4545169335297
 20
659.2537856296716
 40
0.5
 50
0
 51
89.999999999999915
  0
LINE
  8
_0-1_計細線
  6
CONTINUOUS
 62
    3
 10
1207.4545169335297
 20
655.7537856296716
 11
1207.5545584535216
 21
655.7537856296716
  0
LINE
  8
_0-5_寸法線
  6
CONTINUOUS
 62
    7
 10
1336.2706887008815
 20
508.75391172964589
 11
1366.9446146800353
 21
508.75391172964572
  0
LINE
  8
_0-5_寸法線
  6
CONTINUOUS
 62
    7
 10
1358.9446146800353
 20
508.75391172964578
 11
1363.0857194016755
 21
493.29909850902067
  0
LINE
  8
_0-5_寸法線
  6
CONTINUOUS
 62
    7
 10
1358.9446146800353
 20
508.75391172964578
 11
1354.8035099583949
 21
493.29909850902072
  0
LINE
  8
_0-5_寸法線
  6
CONTINUOUS
 62
    7
 10
1336.2706887008815
 20
518.75389842964921
 11
1366.9446146800353
 21
518.7538984296491
  0
LINE
  8
_0-5_寸法線
  6
CONTINUOUS
 62
    7
 10
1358.9446146800353
 20
518.7538984296491
 11
1354.8035099583951
 21
534.20871165027415
  0
LINE
  8
_0-5_寸法線
  6
CONTINUOUS
 62
    7
 10
1358.9446146800353
 20
518.7538984296491
 11
1363.0857194016758
 21
534.20871165027415
  0
LINE
  8
_0-5_寸法線
  6
CONTINUOUS
 62
    7
 10
1358.9446146800353
 20
468.75391172964578
 11
1358.9446146800353
 21
558.7538984296491
  0
TEXT
  8
_0-5_寸法線
 62
    7
 10
1358.9446146800353
 20
525.56121807997442
 40
24
 41
1
 50
90
  1
10
  0
LINE
  8
_0-0_計極細
  6
CONTINUOUS
 62
    2
 10
1264.4545169335295
 20
658.66085050401944
 11
1321.3544694135387
 21
658.66085050401944
  0
LINE
  8
_0-0_計極細
  6
CONTINUOUS
 62
    2
 10
1265.2507070327454
 20
551.750337629672
 11
1265.185235032747
 21
561.24350562967197
  0
ARC
  8
_0-0_計極細
  6
CONTINUOUS
 62
    2
 10
1265.7506910327472
 20
551.75378562967148
 40
0.5
 50
180.39513700000705
 51
269.99999999999977
  0
LINE
  8
_0-1_計細線
  6
CONTINUOUS
 62
    3
 10
1321.3540093543095
 20
656.03576101324529
 11
1314.4330426027689
 21
655.23576685643252
  0
ARC
  8
_0-1_計細線
  6
CONTINUOUS
 62
    3
 10
1325.2706885008818
 20
513.75389862964903
 40
4.9999998000002961
 50
179.99999999999983
 51
269.99999999999977
  0
ARC
  8
_0-1_計細線
  6
CONTINUOUS
 62
    3
 10
1315.2706889008812
 20
513.75389862964903
 40
4.9999998000002961
 50
0
 51
89.999999999999915
  0
LINE
  8
_0-1_計細線
  6
CONTINUOUS
 62
    3
 10
1264.4545169335295
 20
518.75389842964933
 11
1315.2706889008812
 21
518.75389842964933
  0
ARC
  8
_0-1_計細線
  6
CONTINUOUS
 62
    3
 10
1392.4930526985434
 20
580.29825533969552
 40
2.0000761999303904
 50
0
 51
88.89999999999425
  0
LINE
  8
_0-1_計細線
  6
CONTINUOUS
 62
    3
 10
1394.4931288984742
 20
573.55836340560177
 11
1392.9930722485285
 21
572.58694427988007
  0
ARC
  8
_0-1_計細線
  6
CONTINUOUS
 62
    3
 10
1374.674126735589
 20
587.64195073036535
 40
5.0001874998283711
 50
194.03624299999765
 51
268.89999999998986
  0
LINE
  8
_0-1_計細線
  6
CONTINUOUS
 62
    3
 10
1367.9921287493878
 20
593.75363322984822
 11
1369.8232311013969
 21
586.42922582181882
  0
LINE
  8
_0-1_計細線
  6
CONTINUOUS
 62
    3
 10
1339.4910544003731
 20
588.75344373001985
 11
1346.8330677925539
 21
588.75344373001985
  0
LINE
  8
_0-1_計細線
  6
CONTINUOUS
 62
    3
 10
1342.7514594660067
 20
583.75325623019148
 11
1347.4913552000987
 21
583.75325623019148
  0
LINE
  8
_0-1_計細線
  6
CONTINUOUS
 62
    3
 10
1341.641248465198
 20
592.92996197115122
 11
1361.719102395117
 21
592.92996197115122
  0
ARC
  8
_0-1_計細線
  6
CONTINUOUS
 62
    3
 10
1344.0709362784735
 20
590.75351992995093
 40
2.0000761999303904
 50
190.32905100000539
 51
269.99999999999977
  0
LINE
  8
_0-1_計細線
  6
CONTINUOUS
 62
    3
 10
1341.4911306003021
 20
593.75363322984686
 11
1342.1032740493745
 21
590.3949042527056
  0
LINE
  8
_0-1_計細線
  6
CONTINUOUS
 62
    3
 10
1362.4198557644384
 20
592.92990997119773
 11
1362.4919216995811
 21
593.75363322984686
  0
LINE
  8
_0-1_計細線
  6
CONTINUOUS
 62
    3
 10
1346.8330677925594
 20
588.75344373001985
 11
1362.420045764268
 21
592.92996197115326
  0
LINE
  8
_0-1_計細線
  6
CONTINUOUS
 62
    3
 10
1348.1335806220966
 20
583.92534007531663
 11
1362.420121764201
 21
587.753406630055
  0
LINE
  8
_0-1_計細線
  6
CONTINUOUS
 62
    3
 10
1362.420121764201
 20
587.753406630055
 11
1369.4921858089426
 21
587.753406630055
  0
ARC
  8
_0-1_計細線
  6
CONTINUOUS
 62
    3
 10
1371.4922615992698
 20
573.39912554891566
 40
3.0001132998966114
 50
0
 51
60.231006999999011
  0
LINE
  8
_0-1_計細線
  6
CONTINUOUS
 62
    3
 10
1372.9923042492271
 20
575.99727921057638
 11
1359.5585603396055
 21
583.75325623019285
  0
LINE
  8
_0-1_計細線
  6
CONTINUOUS
 62
    3
 10
1392.9930722485285
 20
572.58694427987871
 11
1374.4731749164446
 21
572.9425439598383
  0
LINE
  8
_0-1_計細線
  6
CONTINUOUS
 62
    3
 10
1394.4931288984742
 20
573.55836340560313
 11
1374.4923748991648
 21
573.94239705997211
  0
LINE
  8
_0-1_計細線
  6
CONTINUOUS
 62
    3
 10
1392.5314486639861
 20
582.29796153995699
 11
1374.5781348219814
 21
582.64268322970861
  0
LINE
  8
_0-1_計細線
  6
CONTINUOUS
 62
    3
 10
1314.9544725335388
 20
588.75344373001985
 11
1323.4904508009265
 21
588.75344373001985
  0
LINE
  8
_0-1_計細線
  6
CONTINUOUS
 62
    3
 10
1314.9544725335388
 20
594.75367032981171
 11
1323.4904508009265
 21
594.75367032981308
  0
LINE
  8
_0-1_計細線
  6
CONTINUOUS
 62
    3
 10
1314.9544725335388
 20
599.75385782964213
 11
1329.5984573037156
 21
599.75385782964213
  0
LINE
  8
_0-1_計細線
  6
CONTINUOUS
 62
    3
 10
1321.3466727303264
 20
583.75325623019148
 11
1314.9544725335388
 21
583.75325623019148
  0
LINE
  8
_0-1_計細線
  6
CONTINUOUS
 62
    3
 10
1319.4903004010637
 20
594.75367032981308
 11
1325.4905270008537
 21
594.75367032981308
  0
LINE
  8
_0-1_計細線
  6
CONTINUOUS
 62
    3
 10
1325.4905270008537
 20
588.75344373001985
 11
1319.4903004010637
 21
588.75344373001985
  0
LINE
  8
_0-1_計細線
  6
CONTINUOUS
 62
    3
 10
1319.4903004010637
 20
588.75344373001985
 11
1314.9544725335388
 21
588.75344373001985
  0
LINE
  8
_0-1_計細線
  6
CONTINUOUS
 62
    3
 10
1319.4903004010637
 20
594.75367032981308
 11
1314.9544725335388
 21
594.75367032981308
  0
LINE
  8
_0-1_計細線
  6
CONTINUOUS
 62
    3
 10
1319.4903004010637
 20
599.75385782964213
 11
1319.4903004010637
 21
594.75367032981308
  0
LINE
  8
_0-1_計細線
  6
CONTINUOUS
 62
    3
 10
1319.4903004010637
 20
588.75344373001985
 11
1319.4903004010637
 21
583.75325623019148
  0
ARC
  8
_0-1_計細線
  6
CONTINUOUS
 62
    3
 10
1329.5984573037156
 20
598.75382072967523
 40
1.0000370999662209
 50
6.5198019999871439
 51
89.999999999999915
  0
ARC
  8
_0-1_計細線
  6
CONTINUOUS
 62
    3
 10
1334.4246769601166
 20
591.75355702991715
 40
3.0001132998966114
 50
186.51980200000079
 51
269.99999999999977
  0
LINE
  8
_0-1_計細線
  6
CONTINUOUS
 62
    3
 10
1336.820206804138
 20
588.75344373001985
 11
1331.8200173043103
 21
583.75325623019285
  0
LINE
  8
_0-1_計細線
  6
CONTINUOUS
 62
    3
 10
1331.6378954682193
 20
590.64246602989874
 11
1324.7486836685136
 21
583.75325623019148
  0
LINE
  8
_0-1_計細線
  6
CONTINUOUS
 62
    3
 10
1325.4905270008537
 20
594.75367032981308
 11
1325.4905270008537
 21
588.75344373001985
  0
LINE
  8
_0-1_計細線
  6
CONTINUOUS
 62
    3
 10
1330.5920284095016
 20
598.86737262747897
 11
1331.4439676427562
 21
591.41290533650385
  0
ARC
  8
_0-1_計細線
  6
CONTINUOUS
 62
    3
 10
1334.9323245032326
 20
590.75351992995093
 40
2.0000761999303904
 50
269.99999999999977
 51
350.02120199999899
  0
LINE
  8
_0-1_計細線
  6
CONTINUOUS
 62
    3
 10
1337.490978200444
 20
593.75363322984686
 11
1336.9021427303985
 21
590.4069382418752
  0
LINE
  8
_0-1_計細線
  6
CONTINUOUS
 62
    3
 10
1319.4903004010637
 20
583.75325623019148
 11
1359.5585603396055
 21
583.75325623019148
  0
LINE
  8
_0-1_計細線
  6
CONTINUOUS
 62
    3
 10
1331.1764558835173
 20
593.75363322984686
 11
1367.9921287493878
 21
593.75363322984686
  0
LINE
  8
_0-1_計細線
  6
CONTINUOUS
 62
    3
 10
1334.4246769601166
 20
588.75344373001985
 11
1339.4910544003731
 21
588.75344373001985
  0
LINE
  8
_0-1_計細線
  6
CONTINUOUS
 62
    3
 10
1394.4931288984742
 20
513.94513105754504
 11
1392.9930722485249
 21
514.97415613142061
  0
ARC
  8
_0-1_計細線
  6
CONTINUOUS
 62
    3
 10
1392.4930526985434
 20
507.28204705432427
 40
2.0000761999303904
 50
268.90000000004596
 51
359.99999999999966
  0
ARC
  8
_0-1_計細線
  6
CONTINUOUS
 62
    3
 10
1350.6382943678498
 20
550.56318410127642
 40
45.001695498448498
 50
292.48304700000102
 51
299.76899299999928
  0
ARC
  8
_0-1_計細線
  6
CONTINUOUS
 62
    3
 10
1366.7001239121935
 20
511.75402502954125
 40
3.0001132998966114
 50
269.99999999999977
 51
292.48304700001546
  0
ARC
  8
_0-1_計細線
  6
CONTINUOUS
 62
    3
 10
1371.4922615992698
 20
514.10436891423046
 40
3.0001132998966114
 50
299.76899300000059
 51
359.99999999999966
  0
ARC
  8
_0-1_計細線
  6
CONTINUOUS
 62
    3
 10
1350.6382943678498
 20
550.56318410127642
 40
50.001884998274818
 50
291.71126200000015
 51
294.81817500000267
  0
ARC
  8
_0-1_計細線
  6
CONTINUOUS
 62
    3
 10
1367.2857453851345
 20
508.75391172964601
 40
5.0001874998283711
 50
269.99999999999977
 51
291.71126199999674
  0
ARC
  8
_0-1_計細線
  6
CONTINUOUS
 62
    3
 10
1373.7248655899227
 20
500.64086103139493
 40
5.0001874998283711
 50
88.899999999990214
 51
114.81817500000427
  0
LINE
  8
_0-1_計細線
  6
CONTINUOUS
 62
    3
 10
1392.9930722485285
 20
514.97415613142266
 11
1374.511572881888
 21
515.32901781204646
  0
LINE
  8
_0-1_計細線
  6
CONTINUOUS
 62
    3
 10
1394.4931288984742
 20
513.94513105754504
 11
1374.4923748991648
 21
514.3291647119147
  0
LINE
  8
_0-1_計細線
  6
CONTINUOUS
 62
    3
 10
1392.4546567330988
 20
505.28234085406007
 11
1373.8208575035285
 21
505.64012653205509
  0
LINE
  8
_0-1_計細線
  6
CONTINUOUS
 62
    3
 10
1264.4545169335295
 20
518.75389842964933
 11
1294.7767241841746
 21
518.7538984296616
  0
LINE
  8
_0-1_計細線
  6
CONTINUOUS
 62
    3
 10
1374.4923748991648
 20
573.39912554891566
 11
1374.4923748991648
 21
514.10436891423046
  0
LINE
  8
_0-1_計細線
  6
CONTINUOUS
 62
    3
 10
1392.9930722485249
 20
572.58694427987871
 11
1392.9930722485249
 21
514.97415613142266
  0
LINE
  8
_0-1_計細線
  6
CONTINUOUS
 62
    3
 10
1394.4931288984742
 20
580.29825533969552
 11
1394.4931288984742
 21
507.28204705432427
  0
ARC
  8
_0-1_計細線
  6
CONTINUOUS
 62
    3
 10
1192.0611750873475
 20
578.75306673036584
 40
5.0001874998283711
 50
3.0819879999939137
 51
89.999999999999915
  0
LINE
  8
_0-1_計細線
  6
CONTINUOUS
 62
    3
 10
1194.4949068969879
 20
573.75287923053679
 11
1192.598108604109
 21
573.75287923053679
  0
ARC
  8
_0-1_計細線
  6
CONTINUOUS
 62
    3
 10
1194.4949068969879
 20
570.75276593064154
 40
3.0001132998966114
 50
3.0819879999915378
 51
89.999999999999915
  0
LINE
  8
_0-1_計細線
  6
CONTINUOUS
 62
    3
 10
1197.4130002707013
 20
572.35677648703063
 11
1197.0541305936865
 21
579.02190248841407
  0
LINE
  8
_0-1_計細線
  6
CONTINUOUS
 62
    3
 10
1181.4850986058252
 20
583.75325623019148
 11
1166.5563320417193
 21
587.753406630055
  0
ARC
  8
_0-1_計細線
  6
CONTINUOUS
 62
    3
 10
1186.2249943399117
 20
580.75314293029555
 40
3.0001132998966114
 50
5.0000000000125944
 51
89.999999999999915
  0
LINE
  8
_0-1_計細線
  6
CONTINUOUS
 62
    3
 10
1264.4506398419423
 20
583.75325623019148
 11
1181.4850986058252
 21
583.75325623019148
  0
LINE
  8
_0-1_計細線
  6
CONTINUOUS
 62
    3
 10
1160.9843250565325
 20
593.75363322984686
 11
1159.4842684065832
 21
587.75340663005363
  0
LINE
  8
_0-1_計細線
  6
CONTINUOUS
 62
    3
 10
1264.4508881933896
 20
587.753406630055
 11
1159.4842684065832
 21
587.753406630055
  0
LINE
  8
_0-1_計細線
  6
CONTINUOUS
 62
    3
 10
1189.6094112939361
 20
576.49151476576367
 11
1189.2136916500847
 21
581.01461869496802
  0
LINE
  8
_0-1_計細線
  6
CONTINUOUS
 62
    3
 10
1264.4512607206259
 20
593.75363322984686
 11
1160.9843250565325
 21
593.75363322984686
  0
ARC
  8
_0-1_計細線
  6
CONTINUOUS
 62
    3
 10
1192.598108604109
 20
576.75299253043272
 40
3.0001132998966114
 50
185.00000000000358
 51
269.99999999999977
  0
LINE
  8
_0-1_計細線
  6
CONTINUOUS
 62
    3
 10
1192.0611750873475
 20
583.75325623019148
 11
1187.5395031568539
 21
583.75325623019148
  0
ARC
  8
_0-1_計細線
  6
CONTINUOUS
 62
    3
 10
1210.5831924175188
 20
513.75410122947233
 40
10.000376999654691
 50
183.08198800000125
 51
269.99999999999977
  0
LINE
  8
_0-1_計細線
  6
CONTINUOUS
 62
    3
 10
1200.5972814048462
 20
513.2164317133745
 11
1197.4906802007906
 21
570.9140657854698
  0
LINE
  8
_0-1_計細線
  6
CONTINUOUS
 62
    3
 10
1366.7001239121935
 20
508.75391172964601
 11
1264.4459834680445
 21
508.75391172964601
  0
LINE
  8
_0-1_計細線
  6
CONTINUOUS
 62
    3
 10
1367.285755385127
 20
503.75372422981695
 11
1210.5831924175188
 21
503.75372422981695
  0
LINE
  8
_0-1_計細線
  6
CONTINUOUS
 62
    3
 10
1264.4516332477385
 20
599.75385782964213
 11
1199.3779965022029
 21
599.75385782964213
  0
LINE
  8
_0-1_計細線
  6
CONTINUOUS
 62
    3
 10
1198.3844253964169
 20
598.86737262747897
 11
1197.6056875215461
 21
593.75363322984686
  0
ARC
  8
_0-1_計細線
  6
CONTINUOUS
 62
    3
 10
1199.3779965022029
 20
598.75382072967523
 40
1.0000370999662209
 50
89.999999999999915
 51
173.48019800001288
  0
LINE
  8
_0-1_計細線
  6
CONTINUOUS
 62
    3
 10
1264.4545169335295
 20
642.25380362966507
 11
1262.4545145335312
 21
642.25380362966507
  0
LINE
  8
_0-1_計細線
  6
CONTINUOUS
 62
    3
 10
1262.4545145335312
 20
642.25380362966507
 11
1262.4545145335312
 21
652.25379162967101
  0
LINE
  8
_0-1_計細線
  6
CONTINUOUS
 62
    3
 10
1238.9545373335229
 20
642.25380362966507
 11
1234.9545385335248
 21
642.25380362966507
  0
ARC
  8
_0-1_計細線
  6
CONTINUOUS
 62
    3
 10
1208.9545613335201
 20
629.92368149376944
 40
4.9999940000022889
 50
0
 51
60.000000000003901
  0
LINE
  8
_0-1_計細線
  6
CONTINUOUS
 62
    3
 10
1211.4545553335199
 20
642.25380362966507
 11
1207.5545584535218
 21
642.25380362966507
  0
LINE
  8
_0-1_計細線
  6
CONTINUOUS
 62
    3
 10
1211.4545553335199
 20
634.25380602966743
 11
1211.4545553335199
 21
652.25379162967101
  0
LINE
  8
_0-1_計細線
  6
CONTINUOUS
 62
    3
 10
1238.9545373335229
 20
642.25380362966507
 11
1238.9545373335229
 21
652.25379162967101
  0
LINE
  8
_0-1_計細線
  6
CONTINUOUS
 62
    3
 10
1234.9545385335248
 20
642.25380362966507
 11
1234.9545385335248
 21
652.25379162967101
  0
LINE
  8
_0-1_計細線
  6
CONTINUOUS
 62
    3
 10
1213.9545553335199
 20
599.75385782964213
 11
1213.9545553335199
 21
629.92368149376944
  0
LINE
  8
_0-1_計細線
  6
CONTINUOUS
 62
    3
 10
1264.4545169335295
 20
629.92368149376944
 11
1213.9545553335199
 21
629.92368149376944
  0
LINE
  8
_0-1_計細線
  6
CONTINUOUS
 62
    3
 10
1264.4545169335295
 20
634.25380602966743
 11
1211.4545553335199
 21
634.25380602966743
  0
LINE
  8
_0-1_計細線
  6
CONTINUOUS
 62
    3
 10
1264.4545169335295
 20
652.25379162967101
 11
1207.5545584535218
 21
652.25379162967101
  0
ARC
  8
_0-1_計細線
  6
CONTINUOUS
 62
    3
 10
1318.4902633010977
 20
594.5734664919969
 40
1.0000370999662209
 50
281.30993200002189
 51
359.99999999999966
  0
LINE
  8
_0-1_計細線
  6
CONTINUOUS
 62
    3
 10
1319.4903004010637
 20
594.5734664919969
 11
1319.4903004010637
 21
594.75367032981308
  0
ARC
  8
_0-1_計細線
  6
CONTINUOUS
 62
    3
 10
1318.4902633010977
 20
588.93364756783672
 40
1.0000370999662209
 50
0
 51
78.690067999975241
  0
LINE
  8
_0-1_計細線
  6
CONTINUOUS
 62
    3
 10
1319.4903004010637
 20
588.93364756783672
 11
1319.4903004010637
 21
588.75344373001985
  0
LINE
  8
_0-1_計細線
  6
CONTINUOUS
 62
    3
 10
1318.6863871245866
 20
589.91426468528084
 11
1314.9544725335388
 21
590.66064744117148
  0
LINE
  8
_0-1_計細線
  6
CONTINUOUS
 62
    3
 10
1318.6863871245866
 20
593.59284937455345
 11
1314.9544725335388
 21
592.8464666186635
  0
ARC
  8
_0-1_計細線
  6
CONTINUOUS
 62
    3
 10
1323.4904508009265
 20
593.75363322984686
 40
1.0000370999662209
 50
0
 51
89.999999999999915
  0
ARC
  8
_0-1_計細線
  6
CONTINUOUS
 62
    3
 10
1323.4904508009265
 20
589.75348082998676
 40
1.0000370999662209
 50
269.99999999999977
 51
359.99999999999966
  0
LINE
  8
_0-1_計細線
  6
CONTINUOUS
 62
    3
 10
1324.4904899008859
 20
593.75363322984686
 11
1324.4904899008859
 21
589.75348082998676
  0
LINE
  8
_0-0_計極細
  6
CENTER1
 62
    2
 10
1339.4910544003731
 20
600.35039929275285
 11
1339.4910544003731
 21
585.74685443595399
  0
LINE
  8
_0-0_計極細
  6
CENTER1
 62
    2
 10
1314.9544725335388
 20
591.75355702991715
 11
1329.4686274205603
 21
591.75355702991715
  0
LINE
  8
_0-0_計極細
  6
CENTER1
 62
    2
 10
1335.7251877896549
 20
591.19409353343553
 11
1322.8851593456864
 21
578.35406508946835
  0
LINE
  8
_0-0_計極細
  6
CONTINUOUS
 62
    2
 10
1314.5321808713695
 20
656.96784985842214
 11
1321.3544694135387
 21
657.9395430810664
  0
LINE
  8
_0-0_計極細
  6
CONTINUOUS
 62
    2
 10
1314.4334749503385
 20
657.66085530401733
 11
1321.3544694135387
 21
658.64660730625496
  0
ARC
  8
_0-0_計極細
  6
CONTINUOUS
 62
    2
 10
1311.6957011405582
 20
656.16085650401624
 40
1.6999966400019275
 50
269.99999999999977
 51
356.64911200002257
  0
LINE
  8
_0-0_計極細
  6
CONTINUOUS
 62
    2
 10
1308.7544794935372
 20
652.16085770401673
 11
1308.7544794935372
 21
655.16085530401824
  0
ARC
  8
_0-0_計極細
  6
CONTINUOUS
 62
    2
 10
1310.5044800935345
 20
653.41085470401867
 40
1.7500005999988844
 50
89.999999999999915
 51
179.99999999999983
  0
ARC
  8
_0-0_計極細
  6
CONTINUOUS
 62
    2
 10
1310.5044800935345
 20
653.41085470401867
 40
1.049999160000425
 50
89.999999999999915
 51
179.99999999999983
  0
LINE
  8
_0-0_計極細
  6
CONTINUOUS
 62
    2
 10
1311.6957011405582
 20
654.4608538640191
 11
1310.5044800935345
 21
654.4608538640191
  0
LINE
  8
_0-0_計極細
  6
CONTINUOUS
 62
    2
 10
1308.7544794935372
 20
655.16085530401824
 11
1310.7044779335363
 21
655.16085530401824
  0
ARC
  8
_0-0_計極細
  6
CONTINUOUS
 62
    2
 10
1311.6957011405582
 20
656.16085650401624
 40
1.0000011999986782
 50
269.99999999999977
 51
356.64911200000779
  0
LINE
  8
_0-0_計極細
  6
CONTINUOUS
 62
    2
 10
1311.6957011405582
 20
655.16085530401824
 11
1310.5044800935345
 21
655.16085530401824
  0
LINE
  8
_0-0_計極細
  6
CONTINUOUS
 62
    2
 10
1307.9544821335337
 20
650.76163482339643
 11
1307.9544821335337
 21
651.66086010401568
  0
LINE
  8
_0-0_計極細
  6
CONTINUOUS
 62
    2
 10
1307.9544821335337
 20
644.66164370339266
 11
1307.9544821335337
 21
646.16164250339307
  0
LINE
  8
_0-0_計極細
  6
CONTINUOUS
 62
    2
 10
1304.2044851335329
 20
649.06697217912733
 11
1304.2044851335329
 21
647.76697121912912
  0
LINE
  8
_0-0_計極細
  6
CONTINUOUS
 62
    2
 10
1304.2044851335329
 20
646.76697001913044
 11
1304.2044851335329
 21
646.26697241912802
  0
LINE
  8
_0-0_計極細
  6
CONTINUOUS
 62
    2
 10
1307.8044822535346
 20
649.06697217912733
 11
1307.8044822535346
 21
646.26697241912802
  0
LINE
  8
_0-0_計極細
  6
CONTINUOUS
 62
    2
 10
1303.7044815335364
 20
649.56696977912907
 11
1304.2044851335329
 21
650.0669673791308
  0
LINE
  8
_0-0_計極細
  6
CONTINUOUS
 62
    2
 10
1304.2044851335329
 20
649.06697217912733
 11
1303.7044815335364
 21
649.56696977912907
  0
LINE
  8
_0-0_計極細
  6
CONTINUOUS
 62
    2
 10
1304.2044851335329
 20
646.76697001913044
 11
1303.7044815335364
 21
647.26697361912738
  0
LINE
  8
_0-0_計極細
  6
CONTINUOUS
 62
    2
 10
1303.7044815335364
 20
647.26697361912738
 11
1304.2044851335329
 21
647.76697121912912
  0
LINE
  8
_0-0_計極細
  6
CONTINUOUS
 62
    2
 10
1304.2044851335329
 20
650.56697097912706
 11
1304.2044851335329
 21
650.0669673791308
  0
LINE
  8
_0-0_計極細
  6
CONTINUOUS
 62
    2
 10
1307.6544823735355
 20
651.66086010401568
 11
1307.6544823735355
 21
652.66085530401915
  0
LINE
  8
_0-0_計極細
  6
CONTINUOUS
 62
    2
 10
1307.8044822535346
 20
649.06697217912733
 11
1308.6044796135345
 21
650.56697097912706
  0
ARC
  8
_0-0_計極細
  6
CONTINUOUS
 62
    2
 10
1308.2544818935373
 20
652.16085770401673
 40
0.4999976000017341
 50
269.99999999999977
 51
359.99999999999966
  0
LINE
  8
_0-0_計極細
  6
CONTINUOUS
 62
    2
 10
1304.7044827335346
 20
644.16086610401499
 11
1308.7544794935372
 21
644.16086610401499
  0
ARC
  8
_0-0_計極細
  6
CONTINUOUS
 62
    2
 10
1314.4334749503385
 20
655.91085470401777
 40
1.049999160000425
 50
89.999999999999915
 51
175.84901000000818
  0
ARC
  8
_0-0_計極細
  6
CONTINUOUS
 62
    2
 10
1314.4334749503385
 20
655.91085470401777
 40
1.7500005999988844
 50
89.999999999999915
 51
175.84901000000812
  0
ARC
  8
_0-0_計極細
  6
CONTINUOUS
 62
    2
 10
1319.954472533537
 20
629.92368149376944
 40
4.9999940000022889
 50
119.99999999999609
 51
179.99999999999983
  0
LINE
  8
_0-0_計極細
  6
CONTINUOUS
 62
    2
 10
1317.4544725335388
 20
642.25380362966507
 11
1321.3544694135387
 21
642.25380362966507
  0
LINE
  8
_0-0_計極細
  6
CONTINUOUS
 62
    2
 10
1317.4544725335388
 20
634.25380602966743
 11
1317.4544725335388
 21
642.25380362966507
  0
LINE
  8
_0-0_計極細
  6
CONTINUOUS
 62
    2
 10
1321.1770375554831
 20
642.25380362966507
 11
1321.3544694135387
 21
642.43123548771928
  0
LINE
  8
_0-0_計極細
  6
CONTINUOUS
 62
    2
 10
1321.3544694135387
 20
642.25380362966507
 11
1321.3544694135387
 21
642.80904318547391
  0
LINE
  8
_0-0_計極細
  6
CONTINUOUS
 62
    2
 10
1312.4544785335336
 20
610.17539329240935
 11
1312.4544785335336
 21
636.45380626966698
  0
LINE
  8
_0-0_計極細
  6
CONTINUOUS
 62
    2
 10
1302.7044863335311
 20
631.25380842966592
 11
1291.3205514406898
 21
631.25380842966592
  0
ARC
  8
_0-0_計極細
  6
CONTINUOUS
 62
    2
 10
1302.7044863335311
 20
630.25381322966314
 40
1.0000011999986782
 50
89.999999999999915
 51
179.99999999999983
  0
ARC
  8
_0-0_計極細
  6
CONTINUOUS
 62
    2
 10
1302.7044863335311
 20
630.25381322966314
 40
1.0000011999986782
 50
0
 51
89.999999999999915
  0
ARC
  8
_0-0_計極細
  6
CONTINUOUS
 62
    2
 10
1311.4544773335372
 20
610.17539329240935
 40
1.0000011999986782
 50
277.18075599992113
 51
359.99999999999966
  0
LINE
  8
_0-0_計極細
  6
CONTINUOUS
 62
    2
 10
1303.7044815335364
 20
609.18324008613104
 11
1311.5794752335376
 21
609.18324008613104
  0
LINE
  8
_0-0_計極細
  6
CONTINUOUS
 62
    2
 10
1292.0116548878038
 20
640.16086730401548
 11
1301.9527949348856
 21
640.16086730401548
  0
LINE
  8
_0-0_計極細
  6
CONTINUOUS
 62
    2
 10
1294.240803104484
 20
638.46087066401424
 11
1299.2408031044822
 21
638.46087066401424
  0
LINE
  8
_0-0_計極細
  6
CONTINUOUS
 62
    2
 10
1291.4544953335305
 20
637.25380362966825
 11
1312.9544761335353
 21
637.25380362966825
  0
LINE
  8
_0-0_計極細
  6
CONTINUOUS
 62
    2
 10
1291.4544953335305
 20
636.15814450619609
 11
1291.4544953335305
 21
637.63589532399465
  0
LINE
  8
_0-0_計極細
  6
CONTINUOUS
 62
    2
 10
1294.240803104484
 20
638.46087066401424
 11
1294.240803104484
 21
640.16086730401548
  0
LINE
  8
_0-0_計極細
  6
CONTINUOUS
 62
    2
 10
1312.9544761335353
 20
637.25380362966825
 11
1312.9544761335353
 21
640.16086730401548
  0
ARC
  8
_0-0_計極細
  6
CONTINUOUS
 62
    2
 10
1298.9544893335321
 20
640.26164322339491
 40
2.9999976000001425
 50
0
 51
50.029503000027624
  0
LINE
  8
_0-0_計極細
  6
CONTINUOUS
 62
    2
 10
1295.7408019044858
 20
638.46087066401424
 11
1295.7408019044858
 21
640.16086730401548
  0
LINE
  8
_0-0_計極細
  6
CONTINUOUS
 62
    2
 10
1299.2408031044822
 20
638.46087066401424
 11
1299.2408031044822
 21
640.16086730401548
  0
LINE
  8
_0-0_計極細
  6
CONTINUOUS
 62
    2
 10
1306.9544809335337
 20
640.26164322339491
 11
1304.7044827335346
 21
640.26164322339491
  0
LINE
  8
_0-0_計極細
  6
CONTINUOUS
 62
    2
 10
1306.9544809335337
 20
639.26164802339144
 11
1306.9544809335337
 21
640.26164322339491
  0
ARC
  8
_0-0_計極細
  6
CONTINUOUS
 62
    2
 10
1304.9544845335338
 20
639.26164802339144
 40
1.9999964000021464
 50
269.99999999999977
 51
359.99999999999966
  0
LINE
  8
_0-0_計極細
  6
CONTINUOUS
 62
    2
 10
1304.9544845335338
 20
637.26164562339409
 11
1301.9544869335321
 21
637.26164562339409
  0
LINE
  8
_0-0_計極細
  6
CONTINUOUS
 62
    2
 10
1301.9544869335321
 20
637.26164562339409
 11
1301.9544869335321
 21
640.26164322339491
  0
LINE
  8
_0-0_計極細
  6
CONTINUOUS
 62
    2
 10
1306.6242951976844
 20
638.16087090401265
 11
1307.4544785335354
 21
638.16087090401265
  0
LINE
  8
_0-0_計極細
  6
CONTINUOUS
 62
    2
 10
1307.4544785335354
 20
640.16086730401548
 11
1312.9544761335353
 21
640.16086730401548
  0
LINE
  8
_0-0_計極細
  6
CONTINUOUS
 62
    2
 10
1307.4544785335354
 20
642.86086514401541
 11
1308.7544794935372
 21
642.86086514401541
  0
LINE
  8
_0-0_計極細
  6
CONTINUOUS
 62
    2
 10
1307.4544785335354
 20
642.16086370401763
 11
1309.4544809335355
 21
642.16086370401763
  0
LINE
  8
_0-0_計極細
  6
CONTINUOUS
 62
    2
 10
1291.3573734112313
 20
636.45380626966698
 11
1314.4334749503385
 21
636.45380626966698
  0
LINE
  8
_0-0_計極細
  6
CONTINUOUS
 62
    2
 10
1314.4334749503385
 20
641.63986612081499
 11
1312.9544761335353
 21
640.16086730401548
  0
LINE
  8
_0-0_計極細
  6
CONTINUOUS
 62
    2
 10
1314.4334749503385
 20
636.45380626966698
 11
1312.9544761335353
 21
637.25380362966825
  0
ARC
  8
_0-0_計極細
  6
CONTINUOUS
 62
    2
 10
1297.4544905335304
 20
637.63589532399465
 40
5.9999952000009671
 50
55.166293999990295
 51
179.99999999999983
  0
LINE
  8
_0-0_計極細
  6
CONTINUOUS
 62
    2
 10
1309.4544809335355
 20
642.16086370401763
 11
1309.4544809335355
 21
653.41085470401867
  0
LINE
  8
_0-0_計極細
  6
CONTINUOUS
 62
    2
 10
1308.7544794935372
 20
642.86086514401541
 11
1308.7544794935372
 21
653.41085470401867
  0
LINE
  8
_0-0_計極細
  6
CONTINUOUS
 62
    2
 10
1314.4334749503385
 20
641.63986612081499
 11
1314.4334749503385
 21
656.95379186966829
  0
LINE
  8
_0-0_計極細
  6
CONTINUOUS
 62
    2
 10
1304.7044827335346
 20
640.26164322339491
 11
1304.7044827335346
 21
644.66164370339266
  0
LINE
  8
_0-0_計極細
  6
CONTINUOUS
 62
    2
 10
1305.2044803335382
 20
640.26164322339491
 11
1305.2044803335382
 21
644.16086610401499
  0
LINE
  8
_0-0_計極細
  6
CONTINUOUS
 62
    2
 10
1307.4544785335354
 20
638.16087090401265
 11
1307.4544785335354
 21
644.16086610401499
  0
LINE
  8
_0-0_計極細
  6
CONTINUOUS
 62
    2
 10
1264.4545169335295
 20
636.45380626966698
 11
1289.4544869335393
 21
636.45380626966698
  0
LINE
  8
_0-0_計極細
  6
CONTINUOUS
 62
    2
 10
1307.9544821335337
 20
650.76163482339643
 11
1264.4545169335295
 21
650.76163482339643
  0
LINE
  8
_0-0_計極細
  6
CONTINUOUS
 62
    2
 10
1307.9544821335337
 20
646.16164250339307
 11
1264.4545169335295
 21
646.16164250339307
  0
LINE
  8
_0-0_計極細
  6
CONTINUOUS
 62
    2
 10
1307.9544821335337
 20
644.66164370339266
 11
1264.4545169335295
 21
644.66164370339266
  0
LINE
  8
_0-0_計極細
  6
CONTINUOUS
 62
    2
 10
1264.4545169335295
 20
646.26697241912802
 11
1307.8044822535346
 21
646.26697241912802
  0
LINE
  8
_0-0_計極細
  6
CONTINUOUS
 62
    2
 10
1264.4545169335295
 20
647.26697361912738
 11
1303.7044815335364
 21
647.26697361912738
  0
LINE
  8
_0-0_計極細
  6
CONTINUOUS
 62
    2
 10
1264.4545169335295
 20
649.56696977912907
 11
1303.7044815335364
 21
649.56696977912907
  0
LINE
  8
_0-0_計極細
  6
CONTINUOUS
 62
    2
 10
1264.654514773533
 20
651.66086010401568
 11
1308.2544818935373
 21
651.66086010401568
  0
LINE
  8
_0-0_計極細
  6
CONTINUOUS
 62
    2
 10
1264.654514773533
 20
652.66085530401915
 11
1307.6544823735355
 21
652.66085530401915
  0
LINE
  8
_0-0_計極細
  6
CONTINUOUS
 62
    2
 10
1264.4545169335295
 20
650.56697097912706
 11
1308.6044796135345
 21
650.56697097912706
  0
LINE
  8
_0-0_計極細
  6
CONTINUOUS
 62
    2
 10
1264.4545169335295
 20
657.66085530401733
 11
1314.4334749503385
 21
657.66085530401733
  0
LINE
  8
_0-0_計極細
  6
CONTINUOUS
 62
    2
 10
1303.7044815335364
 20
573.25385882965429
 11
1303.7044815335364
 21
600.25383722965898
  0
LINE
  8
_0-0_計極細
  6
CONTINUOUS
 62
    2
 10
1291.4460293403069
 20
581.33191636720449
 11
1291.4460413402946
 21
581.33192836719491
  0
ARC
  8
_0-0_計極細
  6
CONTINUOUS
 62
    2
 10
1290.4544941335359
 20
581.46169026338612
 40
1.0000011999986782
 50
269.99999999999977
 51
359.99999999999966
  0
ARC
  8
_0-0_計極細
  6
CONTINUOUS
 62
    2
 10
1304.4544809335355
 20
559.253866029655
 40
7.9999916000031135
 50
269.99999999999977
 51
359.99999999999966
  0
LINE
  8
_0-0_計極細
  6
CONTINUOUS
 62
    2
 10
1292.454490533534
 20
548.75387442965484
 11
1302.4544845335338
 21
548.75387442965484
  0
LINE
  8
_0-0_計極細
  6
CONTINUOUS
 62
    2
 10
1305.9544797335373
 20
548.75387442965484
 11
1306.9544809335337
 21
548.75387442965484
  0
ARC
  8
_0-0_計極細
  6
CONTINUOUS
 62
    2
 10
1306.9544809335337
 20
556.75387202965248
 40
7.9999916000031135
 50
269.99999999999977
 51
359.99999999999966
  0
ARC
  8
_0-0_計極細
  6
CONTINUOUS
 62
    2
 10
1291.7044911335331
 20
573.25385882965429
 40
9.9999939999997878
 50
269.99999999999977
 51
359.99999999999966
  0
ARC
  8
_0-0_計極細
  6
CONTINUOUS
 62
    2
 10
1291.7044911335331
 20
573.25385882965429
 40
11.999990400001934
 50
269.99999999999977
 51
359.99999999999966
  0
LINE
  8
_0-0_計極細
  6
CONTINUOUS
 62
    2
 10
1289.4544929335341
 20
551.25387442965257
 11
1289.4544929335341
 21
561.25386842965236
  0
LINE
  8
_0-0_計極細
  6
CONTINUOUS
 62
    2
 10
1289.4544929335341
 20
551.25387442965257
 11
1264.4545169335295
 21
551.25387442965257
  0
LINE
  8
_0-0_計極細
  6
CONTINUOUS
 62
    2
 10
1304.4544809335355
 20
551.25387442965257
 11
1289.4544929335341
 21
551.25387442965257
  0
LINE
  8
_0-0_計極細
  6
CONTINUOUS
 62
    2
 10
1290.4544941335359
 20
580.46169506338197
 11
1264.4545169335295
 21
580.46169506338197
  0
LINE
  8
_0-0_計極細
  6
CONTINUOUS
 62
    2
 10
1264.4545169335295
 20
563.2538648296545
 11
1291.7044911335331
 21
563.2538648296545
  0
ARC
  8
_0-0_計極細
  6
CONTINUOUS
 62
    2
 10
1290.4544821335428
 20
581.46169026338612
 40
1.0000011999986782
 50
179.99999999999983
 51
269.99999999999977
  0
LINE
  8
_0-0_計極細
  6
CONTINUOUS
 62
    2
 10
1291.7044911335331
 20
561.25386842965236
 11
1289.4544929335341
 21
561.25386842965236
  0
LINE
  8
_0-0_計極細
  6
CONTINUOUS
 62
    2
 10
1289.4544869335393
 20
581.46169026338612
 11
1289.4544869335393
 21
636.15814450619609
  0
LINE
  8
_0-0_計極細
  6
CONTINUOUS
 62
    2
 10
1291.4544953335305
 20
581.46169026338612
 11
1291.4544953335305
 21
636.15814450619609
  0
LINE
  8
_0-0_計極細
  6
CONTINUOUS
 62
    2
 10
1312.4544785335336
 20
559.253866029655
 11
1312.4544785335336
 21
610.17539329240935
  0
LINE
  8
_0-0_計極細
  6
CONTINUOUS
 62
    2
 10
1301.7044851335329
 20
573.25385882965429
 11
1301.7044851335329
 21
630.25381322966314
  0
LINE
  8
_0-0_計極細
  6
CONTINUOUS
 62
    2
 10
1303.7044815335364
 20
573.25385882965429
 11
1303.7044815335364
 21
630.25381322966314
  0
LINE
  8
_0-0_計極細
  6
CONTINUOUS
 62
    2
 10
1314.9544725335388
 20
556.75387202965248
 11
1314.9544725335388
 21
629.92368149376944
  0
LINE
  8
_0-0_計極細
  6
CONTINUOUS
 62
    2
 10
1292.0378268668671
 20
523.75389842964614
 11
1305.5544840535374
 21
523.75389842964614
  0
LINE
  8
_0-0_計極細
  6
CONTINUOUS
 62
    2
 10
1264.4545169335295
 20
518.75389842964933
 11
1289.0108952884154
 21
518.75389842964933
  0
LINE
  8
_0-0_計極細
  6
CONTINUOUS
 62
    2
 10
1289.0108952884154
 20
518.75389842964933
 11
1291.9544929335323
 21
518.75389842964933
  0
LINE
  8
_0-0_計極細
  6
CONTINUOUS
 62
    2
 10
1291.9544929335323
 20
518.75389842964933
 11
1292.454490533534
 21
548.75387442965484
  0
LINE
  8
_0-0_計極細
  6
CONTINUOUS
 62
    2
 10
1289.9544965335324
 20
518.75389842964933
 11
1289.4544929335341
 21
551.25387442965257
  0
LINE
  8
_0-0_計極細
  6
CONTINUOUS
 62
    2
 10
1302.7044863335311
 20
523.75389842964614
 11
1302.4544845335338
 21
548.75387442965484
  0
LINE
  8
_0-0_計極細
  6
CONTINUOUS
 62
    2
 10
1305.5544840535374
 20
523.75389842964614
 11
1305.9544797335373
 21
548.75387442965484
  0
LINE
  8
_0-0_計極細
  6
CONTINUOUS
 62
    2
 10
1321.3544694135387
 20
642.80904318547391
 11
1321.3544694135387
 21
658.66085050401944
  0
LINE
  8
_0-0_計極細
  6
CENTER1
 62
    2
 10
1241.051220500817
 20
543.25372422981673
 11
1414.6761093897046
 21
543.25372422981673
  0
LINE
  8
_0-0_計極細
  6
CONTINUOUS
 62
    2
 10
1264.4545169335295
 20
561.25386842965236
 11
1291.7044911335331
 21
561.25386842965236
  0
LINE
  8
_0-1_計細線
  6
CONTINUOUS
 62
    3
 10
1207.5545584535218
 20
642.25380362966507
 11
1207.5545584535218
 21
656.25379042966847
  0
LINE
  8
_0-1_計細線
  6
CONTINUOUS
 62
    3
 10
1207.5545584535218
 20
656.25379042966847
 11
1264.4545169335295
 21
656.25379042966847
  0
TEXT
  8
_0-7_枠細線
 62
    5
 10
1756.2635219031133
 20
642.79037476040639
 40
24
 41
0.7999999999999999
 50
0
  1
Ｂ
  0
TEXT
  8
_0-7_枠細線
 62
    5
 10
1756.2635219031133
 20
602.79037476040673
 40
24
 41
0.7999999999999999
 50
0
  1
Ｇ
  0
TEXT
  8
_0-7_枠細線
 62
    5
 10
1804.2635219031135
 20
602.79037476040673
 40
24
 41
0.7999999999999999
 50
0
  1
ライトグレー
  0
TEXT
  8
_0-7_枠細線
 62
    5
 10
1823.4635219031134
 20
642.79037476040639
 40
24
 41
0.7999999999999999
 50
0
  1
ベージュ
  0
TEXT
  8
_0-7_枠細線
 62
    5
 10
1756.2635219031133
 20
522.79037476040673
 40
24
 41
0.7999999999999999
 50
0
  1
Ｐ
  0
TEXT
  8
_0-7_枠細線
 62
    5
 10
1756.2635219031133
 20
482.79037476040673
 40
24
 41
0.7999999999999999
 50
0
  1
Ａ
  0
TEXT
  8
_0-7_枠細線
 62
    5
 10
1833.0635219031135
 20
482.79037476040673
 40
24
 41
0.7999999999999999
 50
0
  1
ブルー
  0
TEXT
  8
_0-7_枠細線
 62
    5
 10
1833.0635219031135
 20
522.79037476040673
 40
24
 41
0.7999999999999999
 50
0
  1
ピンク
  0
TEXT
  8
_0-7_枠細線
 62
    5
 10
1756.2635219031133
 20
562.79037476040673
 40
24
 41
0.7999999999999999
 50
0
  1
Ｓ
  0
TEXT
  8
_0-7_枠細線
 62
    5
 10
1823.4635219031134
 20
562.79037476040673
 40
24
 41
0.7999999999999999
 50
0
  1
ホワイト
  0
TEXT
  8
_0-7_枠細線
 62
    5
 10
1804.2635219031135
 20
442.79037476040673
 40
24
 41
0.7999999999999999
 50
0
  1
ダークグレー
  0
TEXT
  8
_0-7_枠細線
 62
    5
 10
1756.2635219031133
 20
402.79037476040639
 40
24
 41
0.7999999999999999
 50
0
  1
Ｍ
  0
TEXT
  8
_0-7_枠細線
 62
    5
 10
1756.2635219031133
 20
442.79037476040673
 40
24
 41
0.7999999999999999
 50
0
  1
Ｄ
  0
TEXT
  8
_0-7_枠細線
 62
    5
 10
1833.0635219031135
 20
402.79037476040639
 40
24
 41
0.7999999999999999
 50
0
  1
ウッド
  0
TEXT
  8
_0-7_枠細線
 62
    5
 10
1756.2635219031133
 20
322.79037476040594
 40
24
 41
0.7999999999999999
 50
0
  1
Ｋ
  0
TEXT
  8
_0-7_枠細線
 62
    5
 10
1823.4635219031134
 20
322.79037476040594
 40
24
 41
0.7999999999999999
 50
0
  1
ブラック
  0
TEXT
  8
_0-7_枠細線
 62
    5
 10
1756.2635219031133
 20
362.79037476040639
 40
24
 41
0.7999999999999999
 50
0
  1
Ｃ
  0
TEXT
  8
_0-7_枠細線
 62
    5
 10
1823.4635219031134
 20
362.79037476040639
 40
24
 41
0.7999999999999999
 50
0
  1
ブラウン
  0
ENDSEC
  0
EOF
