  0
SECTION
  2
HEADER
  9
$ACADVER
  1
AC1009
  9
$INSBASE
 10
0
 20
0
 30
0
  9
$EXTMIN
 10
0
 20
0
  9
$EXTMAX
 10
2376
 20
1680
  9
$LIMMIN
 10
0
 20
0
  9
$LIMMAX
 10
2376
 20
1680
  9
$LTSCALE
 40
8
  0
ENDSEC
  0
SECTION
  2
TABLES
  0
TABLE
  2
LTYPE
 70
     9
  0
LTYPE
  2
CONTINUOUS
 70
    64
  3
実線
 72
    65
 73
     0
 40
0.0
  0
LTYPE
  2
DASHED1
 70
    64
  3
--  --  --  --  --  --  --  --  
 72
    65
 73
     2
 40
2.5
 49
1.25
 49
-1.25
  0
LTYPE
  2
DASHED2
 70
    64
  3
----    ----    ----    ----    
 72
    65
 73
     2
 40
5.0
 49
2.5
 49
-2.5
  0
LTYPE
  2
DASHED3
 70
    64
  3
------  ------  ------  ------  
 72
    65
 73
     2
 40
5.0
 49
3.75
 49
-1.25
  0
LTYPE
  2
CENTER1
 70
    64
  3
----- - ----- - ----- - ----- - 
 72
    65
 73
     4
 40
10.0
 49
6.25
 49
-1.25
 49
1.25
 49
-1.25
  0
LTYPE
  2
CENTER2
 70
    64
  3
----------  --  ----------  --  
 72
    65
 73
     4
 40
20.0
 49
12.5
 49
-2.5
 49
2.5
 49
-2.5
  0
LTYPE
  2
PHANTOM1
 70
    64
  3
--- - - --- - - --- - - --- - - 
 72
    65
 73
     6
 40
10.0
 49
3.25
 49
-1.25
 49
1.25
 49
-1.25
 49
1.25
 49
-1.25
  0
LTYPE
  2
PHANTOM2
 70
    64
  3
--------  -  -  --------  -  -  
 72
    65
 73
     6
 40
20.0
 49
10.0
 49
-2.5
 49
1.25
 49
-2.5
 49
1.25
 49
-2.5
  0
LTYPE
  2
DOT
 70
    64
  3
-   -   -   -   -   -   -   -   
 72
    65
 73
     2
 40
2.5
 49
0.625
 49
-1.875
  0
LTYPE
  2
DUMMY
 70
    64
  3
ダミー
 72
    65
 73
     0
 40
0.0
  0
LTYPE
  2
RAND1
 70
    64
  3
ランダム線1
 72
    65
 73
     4
 40
10.0
 49
1.0
 49
-2.0
 49
3.0
 49
-4.0
  0
LTYPE
  2
RAND2
 70
    64
  3
ランダム線2
 72
    65
 73
     4
 40
14.0
 49
2.0
 49
-3.0
 49
4.0
 49
-5.0
  0
LTYPE
  2
RAND3
 70
    64
  3
ランダム線3
 72
    65
 73
     4
 40
18.0
 49
3.0
 49
-4.0
 49
5.0
 49
-6.0
  0
LTYPE
  2
RAND4
 70
    64
  3
ランダム線4
 72
    65
 73
     4
 40
22.0
 49
4.0
 49
-5.0
 49
6.0
 49
-7.0
  0
LTYPE
  2
RAND5
 70
    64
  3
ランダム線5
 72
    65
 73
     4
 40
26.0
 49
5.0
 49
-6.0
 49
7.0
 49
-8.0
  0
LTYPE
  2
LONG1
 70
    64
  3
----------  --  ----------  --  
 72
    65
 73
     4
 40
40.0
 49
32.5
 49
-2.5
 49
2.5
 49
-2.5
  0
LTYPE
  2
LONG2
 70
    64
  3
--------  -  -  --------  -  -  
 72
    65
 73
     6
 40
40.0
 49
30.0
 49
-2.5
 49
1.25
 49
-2.5
 49
1.25
 49
-2.5
  0
LTYPE
  2
LONG3
 70
    64
  3
+++++++++++++++..+++++++++++++++
 72
    65
 73
     2
 40
40.0
 49
37.5
 49
-2.5
  0
LTYPE
  2
LONG4
 70
    64
  3
+++++++++++++++..+++++++++++++++
 72
    65
 73
     2
 40
80.0
 49
75.0
 49
-5.0
  0
LTYPE
  2
LONG5
 70
    64
  3
----------  --  ----------  --  
 72
    65
 73
     4
 40
60.0
 49
37.5
 49
-7.5
 49
7.5
 49
-7.5
  0
LTYPE
  2
dashed
 70
   64
  3
-------   -------------   ------
 72
   65
 73
    2
 40
7.5
 49
6
 49
-1.5
  0
LTYPE
  2
dashed_spaced
 70
   64
  3
----        --------        ----
 72
   65
 73
    2
 40
12
 49
6
 49
-6
  0
LTYPE
  2
long_dashed_dotted
 70
   64
  3
------------- --- --------------
 72
   65
 73
    4
 40
15.25
 49
12
 49
-1.5
 49
0.25
 49
-1.5
  0
LTYPE
  2
long_dashed_double-dotted
 70
   64
  3
----------- --- --- ------------
 72
   65
 73
    6
 40
17
 49
12
 49
-1.5
 49
0.25
 49
-1.5
 49
0.25
 49
-1.5
  0
LTYPE
  2
long_dashed_triplicate-dotted
 70
   64
  3
--------- --- --- --- ----------
 72
   65
 73
    8
 40
18.75
 49
12
 49
-1.5
 49
0.25
 49
-1.5
 49
0.25
 49
-1.5
 49
0.25
 49
-1.5
  0
LTYPE
  2
dotted
 70
   64
  3
   -       -       -       -    
 72
   65
 73
    2
 40
1.75
 49
0.25
 49
-1.5
  0
LTYPE
  2
chain
 70
   64
  3
-------------- -- --------------
 72
   65
 73
    4
 40
18.5
 49
12
 49
-1.5
 49
3.5
 49
-1.5
  0
LTYPE
  2
chain_double_dash
 70
   64
  3
------------ -- -- -------------
 72
   65
 73
    6
 40
23.5
 49
12
 49
-1.5
 49
3.5
 49
-1.5
 49
3.5
 49
-1.5
  0
LTYPE
  2
dashed_dotted
 70
   64
  3
-----------     -     ----------
 72
   65
 73
    4
 40
9.25
 49
6
 49
-1.5
 49
0.25
 49
-1.5
  0
LTYPE
  2
double-dashed_dotted
 70
   64
  3
------   -----------   -   -----
 72
   65
 73
    6
 40
16.75
 49
6
 49
-1.5
 49
6
 49
-1.5
 49
0.25
 49
-1.5
  0
LTYPE
  2
dashed_double-dotted
 70
   64
  3
---------    -    -    ---------
 72
   65
 73
    6
 40
11
 49
6
 49
-1.5
 49
0.25
 49
-1.5
 49
0.25
 49
-1.5
  0
LTYPE
  2
double-dashed_double-dotted
 70
   64
  3
-----   ---------   -   -   ----
 72
   65
 73
    8
 40
18.5
 49
6
 49
-1.5
 49
6
 49
-1.5
 49
0.25
 49
-1.5
 49
0.25
 49
-1.5
  0
LTYPE
  2
dashed_triplicate-dotted
 70
   64
  3
-------    -    -    -    ------
 72
   65
 73
    8
 40
12.75
 49
6
 49
-1.5
 49
0.25
 49
-1.5
 49
0.25
 49
-1.5
 49
0.25
 49
-1.5
  0
LTYPE
  2
double-dashed_triplicate-dotted
 70
   64
  3
-----  ---------  -  -  -  -----
 72
   65
 73
   10
 40
20.25
 49
6
 49
-1.5
 49
6
 49
-1.5
 49
0.25
 49
-1.5
 49
0.25
 49
-1.5
 49
0.25
 49
-1.5
  0
LTYPE
  2
undefined
 70
   64
  3
--------------------------------
 72
   65
 73
    0
 40
0
  0
ENDTAB
  0
TABLE
  2
STYLE
  5
3
100
AcDbSymbolTable
 70
     1
  0
STYLE
  5
10
100
AcDbSymbolTableRecord
100
AcDbTextStyleTableRecord
  2
STANDARD
 70
     0
 40
0.0
 41
1.0
 50
0.0
 71
     0
 42
0.2
  3
txt
  4
bigfont.shx
  0
STYLE
  5
26
100
AcDbSymbolTableRecord
100
AcDbTextStyleTableRecord
  2
TATEGAKI
 70
    68
 40
0.0
 41
1.0
 50
0.0
 71
     0
 42
1.0
  3
txt
  4
bigfont.shx
  0
ENDTAB
  0
TABLE
  2
LAYER
 70
   12
  0
LAYER
  2
_0-0_計極細
 70
   64
 62
    7
  6
CONTINUOUS
  0
LAYER
  2
_0-1_計細線
 70
   64
 62
    7
  6
CONTINUOUS
  0
LAYER
  2
_0-5_寸法線
 70
   64
 62
    7
  6
CONTINUOUS
  0
LAYER
  2
_0-7_枠細線
 70
   64
 62
    7
  6
CONTINUOUS
  0
LAYER
  2
_0-8_枠中線
 70
   64
 62
    7
  6
CONTINUOUS
  0
LAYER
  2
_0-a_極細1
 70
   64
 62
    7
  6
CONTINUOUS
  0
LAYER
  2
_0-b_細線1
 70
   64
 62
    7
  6
CONTINUOUS
  0
LAYER
  2
_0-d_寸法1
 70
   64
 62
    7
  6
CONTINUOUS
  0
LAYER
  2
_1-2_極細3
 70
   64
 62
    7
  6
CONTINUOUS
  0
LAYER
  2
_1-3_細線3
 70
   64
 62
    7
  6
CONTINUOUS
  0
LAYER
  2
_1-5_寸法3
 70
   64
 62
    7
  6
CONTINUOUS
  0
LAYER
  2
ADD_LINE
 70
   64
 62
    7
  6
CONTINUOUS
  0
ENDTAB
  0
ENDSEC
  0
SECTION
  2
BLOCKS
  0
ENDSEC
  0
SECTION
  2
ENTITIES
  0
LINE
  8
_0-8_枠中線
  6
CONTINUOUS
 62
    5
 10
96
 20
96
 11
96
 21
1536
  0
LINE
  8
_0-8_枠中線
  6
CONTINUOUS
 62
    5
 10
96
 20
1536
 11
2280
 21
1536
  0
LINE
  8
_0-8_枠中線
  6
CONTINUOUS
 62
    5
 10
2280
 20
1536
 11
2280
 21
96
  0
LINE
  8
_0-8_枠中線
  6
CONTINUOUS
 62
    5
 10
2280
 20
96
 11
96
 21
96
  0
LINE
  8
_0-7_枠細線
  6
CONTINUOUS
 62
    5
 10
1896
 20
288
 11
1896
 21
160
  0
TEXT
  8
_0-7_枠細線
 62
    5
 10
1500
 20
156
 40
28
 41
1
 50
0
  1
備考
  7
TATEGAKI
  0
TEXT
  8
_0-7_枠細線
 62
    5
 10
1500
 20
220
 40
28
 41
1
 50
0
  1
品番
  7
TATEGAKI
  0
TEXT
  8
_0-7_枠細線
 62
    5
 10
1500
 20
284
 40
28
 41
1
 50
0
  1
品名
  7
TATEGAKI
  0
LINE
  8
_0-7_枠細線
  6
CONTINUOUS
 62
    5
 10
1896
 20
224
 11
1480
 21
224
  0
LINE
  8
_0-7_枠細線
  6
CONTINUOUS
 62
    5
 10
1520
 20
288
 11
1520
 21
96
  0
LINE
  8
_0-8_枠中線
  6
CONTINUOUS
 62
    5
 10
2280
 20
288
 11
1480
 21
288
  0
LINE
  8
_0-8_枠中線
  6
CONTINUOUS
 62
    5
 10
1480
 20
288
 11
1480
 21
96
  0
LINE
  8
_0-7_枠細線
  6
CONTINUOUS
 62
    5
 10
1992
 20
288
 11
1992
 21
96
  0
TEXT
  8
_0-7_枠細線
 62
    5
 10
1908
 20
256
 40
24
 41
1
 50
0
  1
縮　尺
  0
LINE
  8
_0-7_枠細線
  6
CONTINUOUS
 62
    5
 10
1896
 20
248
 11
1992
 21
248
  0
LINE
  8
_0-7_枠細線
  6
CONTINUOUS
 62
    5
 10
1992
 20
160
 11
1480
 21
160
  0
LINE
  8
_0-7_枠細線
  6
CONTINUOUS
 62
    5
 10
2280
 20
144
 11
1992
 21
144
  0
LINE
  8
_0-7_枠細線
  6
CONTINUOUS
 62
    5
 10
1992
 20
192
 11
2280
 21
192
  0
LINE
  8
_0-7_枠細線
  6
CONTINUOUS
 62
    5
 10
2280
 20
224
 11
1992
 21
224
  0
TEXT
  8
_0-7_枠細線
 62
    5
 10
2008
 20
236
 40
40
 41
0.8
 50
0
  1
株式会社シマブン
  0
TEXT
  8
_0-7_枠細線
 62
    5
 10
2004
 20
96
 40
24
 41
1
 50
0
  1
年月日
  0
TEXT
  8
_0-7_枠細線
 62
    5
 10
2004
 20
120
 40
24
 41
1
 50
0
  1
作　成
  0
TEXT
  8
_0-7_枠細線
 62
    5
 10
2010
 20
196
 40
24
 41
1
 50
0
  1
承 認
  0
LINE
  8
_0-7_枠細線
  6
CONTINUOUS
 62
    5
 10
2088
 20
224
 11
2088
 21
96
  0
TEXT
  8
_0-7_枠細線
 62
    5
 10
2106
 20
196
 40
24
 41
1
 50
0
  1
検 図
  0
LINE
  8
_0-7_枠細線
  6
CONTINUOUS
 62
    5
 10
2184
 20
224
 11
2184
 21
144
  0
TEXT
  8
_0-7_枠細線
 62
    5
 10
2202
 20
196
 40
24
 41
1
 50
0
  1
設 計
  0
LINE
  8
_0-7_枠細線
  6
CONTINUOUS
 62
    5
 10
2280
 20
1508
 11
1424
 21
1508
  0
TEXT
  8
_0-7_枠細線
 62
    5
 10
1432
 20
1511.9999999999995
 40
20
 41
1
 50
0
  1
記号
  0
TEXT
  8
_0-7_枠細線
 62
    5
 10
1595
 20
1512
 40
20
 41
1
 50
0
  1
訂　 正　 記　 事
  0
TEXT
  8
_0-7_枠細線
 62
    5
 10
1890
 20
1512
 40
20
 41
1
 50
0
  1
訂 正 年 月 日
  0
TEXT
  8
_0-7_枠細線
 62
    5
 10
2090
 20
1512
 40
20
 41
1
 50
0
  1
備　　　　　考
  0
TEXT
  8
_0-7_枠細線
 62
    5
 10
1536.8000000000002
 20
112
 40
32.000000000000007
 41
0.5999999999999997
 50
0
  1
品番については表参照のこと
  0
TEXT
  8
_0-7_枠細線
 62
    5
 10
1910.4000000000001
 20
188
 40
32
 41
0.6999999999999999
 50
0
  1
１：８
  0
LINE
  8
_0-7_枠細線
  6
CONTINUOUS
 62
    5
 10
2040
 20
1508
 11
2040
 21
1535.9999999999991
  0
LINE
  8
_0-7_枠細線
  6
CONTINUOUS
 62
    5
 10
1880
 20
1508
 11
1880
 21
1535.9999999999991
  0
LINE
  8
_0-7_枠細線
  6
CONTINUOUS
 62
    5
 10
1480
 20
1508
 11
1480
 21
1535.9999999999991
  0
LINE
  8
_0-7_枠細線
  6
CONTINUOUS
 62
    5
 10
1424
 20
1508
 11
1424
 21
1535.9999999999991
  0
TEXT
  8
_0-7_枠細線
 62
    5
 10
1720.999756471007
 20
1378.8208963018415
 40
28
 41
1
 50
0
  1
品番寸法表
  0
LINE
  8
_0-7_枠細線
  6
CONTINUOUS
 62
    5
 10
1709.8635219031125
 20
1370.8208963018415
 11
1709.8635219031125
 21
1170.8208963018415
  0
LINE
  8
_0-7_枠細線
  6
CONTINUOUS
 62
    5
 10
1709.8635219031125
 20
1052.8568755439601
 11
1709.8635219031125
 21
852.85687554396054
  0
TEXT
  8
_0-7_枠細線
 62
    5
 10
1717.794650581835
 20
1060.8568755439601
 40
28
 41
1
 50
0
  1
アンカー位置寸法表
  0
LINE
  8
_0-7_枠細線
  6
CONTINUOUS
 62
    5
 10
2165.8635219031089
 20
1370.8208963018415
 11
2165.8635219031089
 21
1170.8208963018415
  0
LINE
  8
_0-7_枠細線
  6
CONTINUOUS
 62
    5
 10
2245.863521903108
 20
1370.8208963018415
 11
2245.863521903108
 21
1170.8208963018415
  0
TEXT
  8
_0-7_枠細線
 62
    5
 10
2196.2635219031085
 20
1338.820896301841
 40
24
 41
0.7999999999999998
 50
0
  1
Ｃ
  0
TEXT
  8
_0-7_枠細線
 62
    5
 10
2193.8635219031089
 20
1298.8208963018419
 40
24
 41
1
 50
0
  1
914
  0
TEXT
  8
_0-7_枠細線
 62
    5
 10
2181.8635219031089
 20
1258.8208963018415
 40
24
 41
1
 50
0
  1
1114
  0
TEXT
  8
_0-7_枠細線
 62
    5
 10
2181.8635219031089
 20
1218.8208963018415
 40
24
 41
1
 50
0
  1
1414
  0
TEXT
  8
_0-7_枠細線
 62
    5
 10
2181.8635219031089
 20
1178.8208963018415
 40
24
 41
1
 50
0
  1
1714
  0
TEXT
  8
_0-7_枠細線
 62
    5
 10
2108.2635219031104
 20
1338.820896301841
 40
24
 41
0.7999999999999998
 50
0
  1
Ｂ
  0
TEXT
  8
_0-7_枠細線
 62
    5
 10
1940.2635219031122
 20
1338.820896301841
 40
24
 41
0.7999999999999998
 50
0
  1
Ｌ
  0
LINE
  8
_0-7_枠細線
  6
CONTINUOUS
 62
    5
 10
1709.8635219031125
 20
1370.8208963018415
 11
2245.8635219031098
 21
1370.8208963018415
  0
LINE
  8
_0-7_枠細線
  6
CONTINUOUS
 62
    5
 10
1709.8635219031125
 20
1330.820896301841
 11
2245.8635219031098
 21
1330.820896301841
  0
LINE
  8
_0-7_枠細線
  6
CONTINUOUS
 62
    5
 10
1709.8635219031125
 20
1290.8208963018415
 11
2245.8635219031098
 21
1290.8208963018415
  0
LINE
  8
_0-7_枠細線
  6
CONTINUOUS
 62
    5
 10
1709.8635219031125
 20
1250.8208963018415
 11
2245.8635219031098
 21
1250.8208963018415
  0
LINE
  8
_0-7_枠細線
  6
CONTINUOUS
 62
    5
 10
1709.8635219031125
 20
1210.8208963018415
 11
2245.8635219031098
 21
1210.8208963018415
  0
LINE
  8
_0-7_枠細線
  6
CONTINUOUS
 62
    5
 10
1709.8635219031125
 20
1170.8208963018415
 11
2245.8635219031098
 21
1170.8208963018415
  0
LINE
  8
_0-7_枠細線
  6
CONTINUOUS
 62
    5
 10
1909.8635219031125
 20
1370.8208963018415
 11
1909.8635219031125
 21
1170.8208963018415
  0
LINE
  8
_0-7_枠細線
  6
CONTINUOUS
 62
    5
 10
1989.8635219031116
 20
1370.8208963018415
 11
1989.8635219031116
 21
1170.8208963018415
  0
LINE
  8
_0-7_枠細線
  6
CONTINUOUS
 62
    5
 10
2069.8635219031107
 20
1370.8208963018415
 11
2069.8635219031107
 21
1170.8208963018415
  0
TEXT
  8
_0-7_枠細線
 62
    5
 10
2020.2635219031113
 20
1338.820896301841
 40
24
 41
0.7999999999999998
 50
0
  1
Ａ
  0
TEXT
  8
_0-7_枠細線
 62
    5
 10
1925.8635219031125
 20
1258.8208963018415
 40
24
 41
1
 50
0
  1
1194
  0
TEXT
  8
_0-7_枠細線
 62
    5
 10
1937.8635219031125
 20
1298.8208963018419
 40
24
 41
1
 50
0
  1
994
  0
TEXT
  8
_0-7_枠細線
 62
    5
 10
1925.8635219031125
 20
1218.8208963018415
 40
24
 41
1
 50
0
  1
1494
  0
TEXT
  8
_0-7_枠細線
 62
    5
 10
2017.8635219031107
 20
1298.8208963018419
 40
24
 41
1
 50
0
  1
970
  0
TEXT
  8
_0-7_枠細線
 62
    5
 10
2005.8635219031107
 20
1258.8208963018415
 40
24
 41
1
 50
0
  1
1170
  0
TEXT
  8
_0-7_枠細線
 62
    5
 10
2005.8635219031107
 20
1218.8208963018415
 40
24
 41
1
 50
0
  1
1470
  0
TEXT
  8
_0-7_枠細線
 62
    5
 10
1925.8635219031125
 20
1178.8208963018415
 40
24
 41
1
 50
0
  1
1794
  0
TEXT
  8
_0-7_枠細線
 62
    5
 10
2005.8635219031107
 20
1178.8208963018415
 40
24
 41
1
 50
0
  1
1770
  0
TEXT
  8
_0-7_枠細線
 62
    5
 10
2081.8635219031098
 20
1298.8208963018415
 40
24
 41
1
 50
0
  1
483×2
  0
TEXT
  8
_0-7_枠細線
 62
    5
 10
2081.8635219031098
 20
1258.8208963018415
 40
24
 41
1
 50
0
  1
583×2
  0
TEXT
  8
_0-7_枠細線
 62
    5
 10
2081.8635219031098
 20
1218.8208963018415
 40
24
 41
1
 50
0
  1
488×3
  0
TEXT
  8
_0-7_枠細線
 62
    5
 10
2081.8635219031098
 20
1178.8208963018415
 40
24
 41
1
 50
0
  1
588×3
  0
LINE
  8
_0-7_枠細線
  6
CONTINUOUS
 62
    5
 10
1909.8635219031125
 20
1052.8568755439601
 11
1909.8635219031125
 21
852.85687554396054
  0
LINE
  8
_0-7_枠細線
  6
CONTINUOUS
 62
    5
 10
1989.8635219031116
 20
1052.8568755439601
 11
1989.8635219031116
 21
852.85687554396054
  0
LINE
  8
_0-7_枠細線
  6
CONTINUOUS
 62
    5
 10
2069.8635219031107
 20
1052.8568755439601
 11
2069.8635219031107
 21
852.85687554396054
  0
TEXT
  8
_0-7_枠細線
 62
    5
 10
1937.8635219031125
 20
980.856875543961
 40
24
 41
1
 50
0
  1
924
  0
TEXT
  8
_0-7_枠細線
 62
    5
 10
1925.8635219031125
 20
940.85687554396054
 40
24
 41
1
 50
0
  1
1124
  0
TEXT
  8
_0-7_枠細線
 62
    5
 10
1925.8635219031125
 20
900.85687554396054
 40
24
 41
1
 50
0
  1
1424
  0
TEXT
  8
_0-7_枠細線
 62
    5
 10
1925.8635219031125
 20
860.85687554396054
 40
24
 41
1
 50
0
  1
1724
  0
LINE
  8
_0-7_枠細線
  6
CONTINUOUS
 62
    5
 10
2149.8635219031089
 20
1052.8568755439601
 11
2149.8635219031089
 21
852.85687554396054
  0
LINE
  8
_0-7_枠細線
  6
CONTINUOUS
 62
    5
 10
1709.8635219031125
 20
1052.8568755439601
 11
2149.8635219031089
 21
1052.8568755439601
  0
LINE
  8
_0-7_枠細線
  6
CONTINUOUS
 62
    5
 10
1709.8635219031125
 20
1012.8568755439601
 11
2149.8635219031089
 21
1012.8568755439601
  0
LINE
  8
_0-7_枠細線
  6
CONTINUOUS
 62
    5
 10
1709.8635219031125
 20
972.85687554396054
 11
2149.8635219031089
 21
972.85687554396054
  0
LINE
  8
_0-7_枠細線
  6
CONTINUOUS
 62
    5
 10
1709.8635219031125
 20
932.85687554396054
 11
2149.8635219031089
 21
932.85687554396054
  0
LINE
  8
_0-7_枠細線
  6
CONTINUOUS
 62
    5
 10
1709.8635219031125
 20
892.85687554396054
 11
2149.8635219031089
 21
892.85687554396054
  0
LINE
  8
_0-7_枠細線
  6
CONTINUOUS
 62
    5
 10
1709.8635219031125
 20
852.85687554396054
 11
2149.8635219031089
 21
852.85687554396054
  0
TEXT
  8
_0-7_枠細線
 62
    5
 10
2000.8667130838435
 20
900.85687554396054
 40
24
 41
1
 50
0
  1
474.7
  0
TEXT
  8
_0-7_枠細線
 62
    5
 10
2000.6060032878763
 20
980.85687554396054
 40
24
 41
1
 50
0
  1
462
  0
TEXT
  8
_0-7_枠細線
 62
    5
 10
2000.6060032878763
 20
940.85687554396054
 40
24
 41
1
 50
0
  1
562
  0
TEXT
  8
_0-7_枠細線
 62
    5
 10
2000.6060032878763
 20
860.85687554396054
 40
24
 41
1
 50
0
  1
431
  0
TEXT
  8
_0-7_枠細線
 62
    5
 10
2104.0718189730137
 20
980.856875543961
 40
24
 41
1
 50
0
  1
2
  0
TEXT
  8
_0-7_枠細線
 62
    5
 10
2104.0718189730137
 20
940.85687554396054
 40
24
 41
1
 50
0
  1
2
  0
TEXT
  8
_0-7_枠細線
 62
    5
 10
2104.0718189730137
 20
900.85687554396054
 40
24
 41
1
 50
0
  1
3
  0
TEXT
  8
_0-7_枠細線
 62
    5
 10
2104.0718189730137
 20
860.85687554396054
 40
24
 41
1
 50
0
  1
4
  0
TEXT
  8
_0-7_枠細線
 62
    5
 10
1940.2635219031131
 20
1020.8568755439601
 40
24
 41
0.7999999999999998
 50
0
  1
Ｄ
  0
TEXT
  8
_0-7_枠細線
 62
    5
 10
2021.3318905328347
 20
1020.8568755439601
 40
24
 41
0.7999999999999998
 50
0
  1
Ｅ
  0
TEXT
  8
_0-7_枠細線
 62
    5
 10
2101.100578280631
 20
1020.8568755439601
 40
24
 41
0.7999999999999998
 50
0
  1
Ｎ
  0
TEXT
  8
_0-7_枠細線
 62
    5
 10
2008
 20
152
 40
32
 41
1
 50
0
  1
大野
  0
TEXT
  8
_0-7_枠細線
 62
    5
 10
2200
 20
152
 40
32
 41
1
 50
0
  1
久野
  0
TEXT
  8
_0-7_枠細線
 62
    5
 10
2104
 20
152
 40
32
 41
1
 50
0
  1
中村
  0
TEXT
  8
_0-7_枠細線
 62
    5
 10
2096
 20
108
 40
24
 41
0.6666666666666666
 50
0
  1
２０２０年０４月０１日
  0
TEXT
  8
_0-7_枠細線
 62
    5
 10
1892.7524752035631
 20
417.84131827931037
 40
40
 41
0.8
 50
0
  1
表面形状
  0
LINE
  8
_0-1_計細線
  6
CONTINUOUS
 62
    3
 10
1481.4722878889515
 20
1262.7336586827307
 11
1481.4722878889515
 21
1118.7336586827312
  0
LINE
  8
_0-1_計細線
  6
CONTINUOUS
 62
    3
 10
1481.4722878889515
 20
1118.7336586827312
 11
1489.4722878889515
 21
1118.7336586827312
  0
LINE
  8
_0-1_計細線
  6
CONTINUOUS
 62
    3
 10
1489.4722878889515
 20
1118.7336586827312
 11
1489.4722878889515
 21
1262.7336586827307
  0
LINE
  8
_0-1_計細線
  6
CONTINUOUS
 62
    3
 10
1489.4722878889515
 20
1262.7336586827307
 11
1481.4722878889515
 21
1262.7336586827307
  0
LINE
  8
_0-1_計細線
  6
CONTINUOUS
 62
    3
 10
1569.4722878889518
 20
1129.7336586827312
 11
1604.4722878889518
 21
1129.7336586827312
  0
LINE
  8
_0-1_計細線
  6
CONTINUOUS
 62
    3
 10
1604.4722878889518
 20
1129.7336586827312
 11
1604.4722878889518
 21
1128.5336586827314
  0
LINE
  8
_0-1_計細線
  6
CONTINUOUS
 62
    3
 10
1604.4722878889518
 20
1128.5336586827314
 11
1569.4722878889518
 21
1128.5336586827314
  0
LINE
  8
_0-1_計細線
  6
CONTINUOUS
 62
    3
 10
1569.4722878889518
 20
1128.5336586827314
 11
1569.4722878889518
 21
1129.7336586827312
  0
LINE
  8
_0-1_計細線
  6
CONTINUOUS
 62
    3
 10
1571.4722878889518
 20
1128.5336586827314
 11
1571.4722878889518
 21
1129.7336586827312
  0
LINE
  8
_0-1_計細線
  6
CONTINUOUS
 62
    3
 10
1581.4722878889518
 20
1128.5336586827314
 11
1581.4722878889518
 21
1129.7336586827312
  0
LINE
  8
_0-1_計細線
  6
CONTINUOUS
 62
    3
 10
1583.4722878889518
 20
1128.5336586827314
 11
1583.4722878889518
 21
1129.7336586827312
  0
LINE
  8
_0-1_計細線
  6
CONTINUOUS
 62
    3
 10
1585.4722878889518
 20
1128.5336586827314
 11
1585.4722878889518
 21
1129.7336586827312
  0
LINE
  8
_0-1_計細線
  6
CONTINUOUS
 62
    3
 10
1587.4722878889518
 20
1128.5336586827314
 11
1587.4722878889518
 21
1129.7336586827312
  0
LINE
  8
_0-1_計細線
  6
CONTINUOUS
 62
    3
 10
1601.4722878889518
 20
1128.5336586827314
 11
1601.4722878889518
 21
1129.7336586827312
  0
LINE
  8
_0-1_計細線
  6
CONTINUOUS
 62
    3
 10
1569.4722878889518
 20
1252.933658682731
 11
1604.4722878889518
 21
1252.933658682731
  0
LINE
  8
_0-1_計細線
  6
CONTINUOUS
 62
    3
 10
1604.4722878889518
 20
1252.933658682731
 11
1604.4722878889518
 21
1251.7336586827312
  0
LINE
  8
_0-1_計細線
  6
CONTINUOUS
 62
    3
 10
1604.4722878889518
 20
1251.7336586827312
 11
1569.4722878889518
 21
1251.7336586827312
  0
LINE
  8
_0-1_計細線
  6
CONTINUOUS
 62
    3
 10
1569.4722878889518
 20
1251.7336586827312
 11
1569.4722878889518
 21
1252.933658682731
  0
LINE
  8
_0-1_計細線
  6
CONTINUOUS
 62
    3
 10
1571.4722878889518
 20
1251.7336586827312
 11
1571.4722878889518
 21
1252.933658682731
  0
LINE
  8
_0-1_計細線
  6
CONTINUOUS
 62
    3
 10
1581.4722878889518
 20
1251.7336586827312
 11
1581.4722878889518
 21
1252.933658682731
  0
LINE
  8
_0-1_計細線
  6
CONTINUOUS
 62
    3
 10
1583.4722878889518
 20
1251.7336586827312
 11
1583.4722878889518
 21
1252.933658682731
  0
LINE
  8
_0-1_計細線
  6
CONTINUOUS
 62
    3
 10
1585.4722878889518
 20
1251.7336586827312
 11
1585.4722878889518
 21
1252.933658682731
  0
LINE
  8
_0-1_計細線
  6
CONTINUOUS
 62
    3
 10
1587.4722878889518
 20
1251.7336586827312
 11
1587.4722878889518
 21
1252.933658682731
  0
LINE
  8
_0-1_計細線
  6
CONTINUOUS
 62
    3
 10
1601.4722878889518
 20
1251.7336586827312
 11
1601.4722878889518
 21
1252.933658682731
  0
LINE
  8
_0-1_計細線
  6
CONTINUOUS
 62
    3
 10
1581.4722878889518
 20
1251.7336586827312
 11
1581.4722878889518
 21
1129.7336586827312
  0
LINE
  8
_0-1_計細線
  6
CONTINUOUS
 62
    3
 10
1489.4722878889518
 20
1251.7336586827312
 11
1581.4722878889518
 21
1251.7336586827312
  0
LINE
  8
_0-1_計細線
  6
CONTINUOUS
 62
    3
 10
1581.4722878889518
 20
1129.7336586827312
 11
1489.4722878889513
 21
1129.7336586827312
  0
LINE
  8
_0-1_計細線
  6
CONTINUOUS
 62
    3
 10
1585.4722878889518
 20
1241.7336586827312
 11
1585.4722878889518
 21
1190.7336586827312
  0
ARC
  8
_0-1_計細線
  6
CONTINUOUS
 62
    3
 10
1581.9722878889518
 20
1249.7336586827312
 40
0.5
 50
179.99999999999983
 51
269.99999999999977
  0
LINE
  8
_0-1_計細線
  6
CONTINUOUS
 62
    3
 10
1585.4722878889518
 20
1247.7336586827312
 11
1585.4722878889518
 21
1241.7336586827312
  0
LINE
  8
_0-1_計細線
  6
CONTINUOUS
 62
    3
 10
1581.9722878889518
 20
1249.2336586827312
 11
1583.9722878889518
 21
1249.2336586827312
  0
ARC
  8
_0-1_計細線
  6
CONTINUOUS
 62
    3
 10
1583.9722878889518
 20
1247.7336586827312
 40
1.5
 50
0
 51
89.999999999999915
  0
LINE
  8
_0-1_計細線
  6
CONTINUOUS
 62
    3
 10
1585.4722878889518
 20
1139.7336586827312
 11
1585.4722878889518
 21
1190.7336586827312
  0
ARC
  8
_0-1_計細線
  6
CONTINUOUS
 62
    3
 10
1581.9722878889518
 20
1131.7336586827312
 40
0.5
 50
89.999999999999915
 51
179.99999999999983
  0
LINE
  8
_0-1_計細線
  6
CONTINUOUS
 62
    3
 10
1585.4722878889518
 20
1133.7336586827312
 11
1585.4722878889518
 21
1139.7336586827312
  0
LINE
  8
_0-1_計細線
  6
CONTINUOUS
 62
    3
 10
1581.9722878889518
 20
1132.2336586827312
 11
1583.9722878889518
 21
1132.2336586827312
  0
ARC
  8
_0-1_計細線
  6
CONTINUOUS
 62
    3
 10
1583.9722878889518
 20
1133.7336586827312
 40
1.5
 50
269.99999999999977
 51
359.99999999999966
  0
TEXT
  8
_0-7_枠細線
 62
    5
 10
1536.7999999999993
 20
239.24855752183862
 40
32
 41
0.4749999999999999
 50
0
  1
排水ユニット ＳＵＳグレーチング 深型＋防水マス
  0
TEXT
  8
_0-7_枠細線
 62
    5
 10
1725.8635219031125
 20
1298.8208963018415
 40
24
 41
1
 50
0
  1
HSFB-15L1000-J
  0
TEXT
  8
_0-7_枠細線
 62
    5
 10
1725.8635219031125
 20
980.85687554396054
 40
24
 41
1
 50
0
  1
HSFB-15L1000-J
  0
TEXT
  8
_0-7_枠細線
 62
    5
 10
1725.8635219031125
 20
1258.820896301841
 40
24
 41
1
 50
0
  1
HSFB-15L1200-J
  0
TEXT
  8
_0-7_枠細線
 62
    5
 10
1725.8635219031125
 20
1218.820896301841
 40
24
 41
1
 50
0
  1
HSFB-15L1500-J
  0
TEXT
  8
_0-7_枠細線
 62
    5
 10
1725.8635219031125
 20
1178.820896301841
 40
24
 41
1
 50
0
  1
HSFB-15L1800-J
  0
TEXT
  8
_0-7_枠細線
 62
    5
 10
1725.8635219031125
 20
940.85687554396009
 40
24
 41
1
 50
0
  1
HSFB-15L1200-J
  0
TEXT
  8
_0-7_枠細線
 62
    5
 10
1725.8635219031125
 20
900.85687554396009
 40
24
 41
1
 50
0
  1
HSFB-15L1500-J
  0
TEXT
  8
_0-7_枠細線
 62
    5
 10
1725.8635219031125
 20
860.85687554396009
 40
24
 41
1
 50
0
  1
HSFB-15L1800-J
  0
TEXT
  8
_0-7_枠細線
 62
    5
 10
1536.8000000000002
 20
176
 40
32.000000000000014
 41
0.5499999999999998
 50
0
  1
ＨＳＦＢ－１５Ｌ１０００～１８００－Ｊ
  0
LINE
  8
_0-5_寸法線
  6
CONTINUOUS
 62
    7
 10
1481.4722878889534
 20
1278.7336586827307
 11
1481.4722878889534
 21
1350.7336586827298
  0
LINE
  8
_0-5_寸法線
  6
CONTINUOUS
 62
    7
 10
1481.4722878889534
 20
1342.7336586827298
 11
1496.9271011095784
 21
1346.8747634043702
  0
LINE
  8
_0-5_寸法線
  6
CONTINUOUS
 62
    7
 10
1481.4722878889534
 20
1342.7336586827298
 11
1496.9271011095784
 21
1338.5925539610894
  0
LINE
  8
_0-5_寸法線
  6
CONTINUOUS
 62
    7
 10
1581.4722878889534
 20
1268.9336586827305
 11
1581.4722878889534
 21
1350.7336586827298
  0
LINE
  8
_0-5_寸法線
  6
CONTINUOUS
 62
    7
 10
1581.4722878889534
 20
1342.7336586827298
 11
1566.0174746683283
 21
1338.5925539610896
  0
LINE
  8
_0-5_寸法線
  6
CONTINUOUS
 62
    7
 10
1581.4722878889534
 20
1342.7336586827298
 11
1566.0174746683283
 21
1346.8747634043702
  0
LINE
  8
_0-5_寸法線
  6
CONTINUOUS
 62
    7
 10
1481.4722878889534
 20
1342.7336586827298
 11
1581.4722878889534
 21
1342.7336586827298
  0
TEXT
  8
_0-5_寸法線
 62
    7
 10
1513.4722878889534
 20
1342.7336586827294
 40
24
 41
1
 50
0
  1
100
  0
LINE
  8
_0-5_寸法線
  6
CONTINUOUS
 62
    7
 10
1604.4722878889534
 20
1268.9336586827305
 11
1604.4722878889534
 21
1350.7336586827298
  0
LINE
  8
_0-5_寸法線
  6
CONTINUOUS
 62
    7
 10
1604.4722878889534
 20
1342.7336586827298
 11
1619.9271011095784
 21
1346.87476340437
  0
LINE
  8
_0-5_寸法線
  6
CONTINUOUS
 62
    7
 10
1604.4722878889534
 20
1342.7336586827298
 11
1619.9271011095784
 21
1338.5925539610894
  0
LINE
  8
_0-5_寸法線
  6
CONTINUOUS
 62
    7
 10
1581.4722878889534
 20
1342.7336586827298
 11
1644.4722878889534
 21
1342.7336586827298
  0
TEXT
  8
_0-5_寸法線
 62
    7
 10
1622.838593186194
 20
1342.7336586827294
 40
24
 41
1
 50
0
  1
23
  0
LINE
  8
_0-5_寸法線
  6
CONTINUOUS
 62
    7
 10
1481.4722878889515
 20
1278.7336586827307
 11
1481.4722878889525
 21
1406.7336586827316
  0
LINE
  8
_0-5_寸法線
  6
CONTINUOUS
 62
    7
 10
1481.4722878889525
 20
1398.7336586827316
 11
1496.9271011095775
 21
1402.8747634043721
  0
LINE
  8
_0-5_寸法線
  6
CONTINUOUS
 62
    7
 10
1481.4722878889525
 20
1398.7336586827316
 11
1496.9271011095775
 21
1394.5925539610912
  0
LINE
  8
_0-5_寸法線
  6
CONTINUOUS
 62
    7
 10
1604.4722878889534
 20
1268.9336586827305
 11
1604.4722878889543
 21
1406.7336586827316
  0
LINE
  8
_0-5_寸法線
  6
CONTINUOUS
 62
    7
 10
1604.4722878889543
 20
1398.7336586827316
 11
1589.0174746683292
 21
1394.5925539610914
  0
LINE
  8
_0-5_寸法線
  6
CONTINUOUS
 62
    7
 10
1604.4722878889543
 20
1398.7336586827316
 11
1589.0174746683292
 21
1402.8747634043721
  0
LINE
  8
_0-5_寸法線
  6
CONTINUOUS
 62
    7
 10
1481.4722878889525
 20
1398.7336586827316
 11
1604.4722878889543
 21
1398.7336586827316
  0
TEXT
  8
_0-5_寸法線
 62
    7
 10
1524.9722878889534
 20
1398.7336586827312
 40
24
 41
1
 50
0
  1
123
  0
LINE
  8
_0-0_計極細
  6
CENTER1
 62
    2
 10
1471.9811320754723
 20
1190.7336586827312
 11
1609.0249852047793
 21
1190.7336586827312
  0
TEXT
  8
_0-7_枠細線
 62
    5
 10
1771.463521903114
 20
1338.820896301841
 40
24
 41
0.7999999999999998
 50
0
  1
品　　番
  0
TEXT
  8
_0-7_枠細線
 62
    5
 10
1771.463521903114
 20
1020.8568755439596
 40
24
 41
0.7999999999999998
 50
0
  1
品　　番
  0
LINE
  8
_0-1_計細線
  6
CONTINUOUS
 62
    3
 10
357.46047467434255
 20
1118.7684745077609
 11
357.46047467434255
 21
1262.7684745077609
  0
LINE
  8
_0-1_計細線
  6
CONTINUOUS
 62
    3
 10
357.46047467434255
 20
1262.7684745077609
 11
1351.4604746743425
 21
1262.7684745077609
  0
LINE
  8
_0-1_計細線
  6
CONTINUOUS
 62
    3
 10
1351.4604746743425
 20
1262.7684745077609
 11
1351.4604746743425
 21
1118.7684745077609
  0
LINE
  8
_0-1_計細線
  6
CONTINUOUS
 62
    3
 10
1351.4604746743425
 20
1118.7684745077609
 11
357.46047467434255
 21
1118.7684745077609
  0
LINE
  8
_0-1_計細線
  6
CONTINUOUS
 62
    3
 10
1339.4604746743425
 20
1250.7684745077609
 11
369.46047467434255
 21
1250.7684745077609
  0
LINE
  8
_0-1_計細線
  6
CONTINUOUS
 62
    3
 10
369.46047467434255
 20
1250.7684745077609
 11
369.46047467434255
 21
1130.7684745077609
  0
LINE
  8
_0-1_計細線
  6
CONTINUOUS
 62
    3
 10
369.46047467434255
 20
1130.7684745077609
 11
1339.4604746743425
 21
1130.7684745077609
  0
LINE
  8
_0-1_計細線
  6
CONTINUOUS
 62
    3
 10
1339.4604746743425
 20
1130.7684745077609
 11
1339.4604746743425
 21
1250.7684745077609
  0
LINE
  8
_0-0_計極細
  6
CENTER1
 62
    2
 10
345.16047467434328
 20
1190.7684745077609
 11
1373.4104746743433
 21
1190.7684745077609
  0
LINE
  8
_0-1_計細線
  6
CONTINUOUS
 62
    3
 10
1299.4604746743425
 20
1130.7684745077609
 11
1299.4604746743425
 21
1132.7684745077609
  0
LINE
  8
_0-1_計細線
  6
CONTINUOUS
 62
    3
 10
1243.4604746743425
 20
1130.7684745077609
 11
1243.4604746743425
 21
1132.7684745077609
  0
LINE
  8
_0-1_計細線
  6
CONTINUOUS
 62
    3
 10
1299.4604746743425
 20
1250.7684745077609
 11
1299.4604746743425
 21
1248.7684745077609
  0
LINE
  8
_0-1_計細線
  6
CONTINUOUS
 62
    3
 10
1243.4604746743425
 20
1250.7684745077609
 11
1243.4604746743425
 21
1248.7684745077609
  0
ARC
  8
_0-1_計細線
  6
CONTINUOUS
 62
    3
 10
1310.0762334095407
 20
1204.9682793957663
 40
0.501740082747087
 50
330.00000000009186
 51
20.189990999954205
  0
ARC
  8
_0-1_計細線
  6
CONTINUOUS
 62
    3
 10
1310.0762334095407
 20
1176.5686696197572
 40
0.501740082747087
 50
339.81000900004506
 51
29.999999999907399
  0
LINE
  8
_0-1_計細線
  6
CONTINUOUS
 62
    3
 10
1272.7650398833403
 20
1193.0263139114809
 11
1271.461471787924
 21
1195.2841533152
  0
LINE
  8
_0-1_計細線
  6
CONTINUOUS
 62
    3
 10
1272.7650398833403
 20
1193.0263139114809
 11
1252.6251485275925
 21
1227.9096256327875
  0
LINE
  8
_0-1_計細線
  6
CONTINUOUS
 62
    3
 10
1272.7650398833403
 20
1193.0263139114809
 11
1275.3721700532669
 21
1193.0263139114809
  0
LINE
  8
_0-1_計細線
  6
CONTINUOUS
 62
    3
 10
1268.8543476389032
 20
1190.7684745077609
 11
1248.7144562831536
 21
1225.6517862290698
  0
ARC
  8
_0-1_計細線
  6
CONTINUOUS
 62
    3
 10
1239.8566994243492
 20
1164.4270147977008
 40
0.501740082747087
 50
219.81000899998574
 51
269.99999999999977
  0
LINE
  8
_0-1_計細線
  6
CONTINUOUS
 62
    3
 10
1272.7650398833403
 20
1188.5106351040417
 11
1252.6251485275925
 21
1153.6273233827346
  0
LINE
  8
_0-1_計細線
  6
CONTINUOUS
 62
    3
 10
1268.8543476389032
 20
1190.7684745077609
 11
1248.7144562831536
 21
1155.8851627864537
  0
ARC
  8
_0-1_計細線
  6
CONTINUOUS
 62
    3
 10
1271.461471787924
 20
1190.7684745077609
 40
46.4111412917104
 50
89.999999999999915
 51
269.99999999999977
  0
ARC
  8
_0-1_計細線
  6
CONTINUOUS
 62
    3
 10
1271.461471787924
 20
1190.7684745077609
 40
57.198598227560829
 50
89.999999999999915
 51
269.99999999999977
  0
CIRCLE
  8
_0-1_計細線
  6
CONTINUOUS
 62
    3
 10
1271.461471787924
 20
1190.7684745077609
 40
58.202084413960065
  0
LINE
  8
_0-1_計細線
  6
CONTINUOUS
 62
    3
 10
1272.7650398833403
 20
1193.0263139114809
 11
1313.0448165739317
 21
1193.0263139114809
  0
LINE
  8
_0-1_計細線
  6
CONTINUOUS
 62
    3
 10
1272.7650398833403
 20
1188.5106351040417
 11
1313.0448165739317
 21
1188.5106351040417
  0
ARC
  8
_0-1_計細線
  6
CONTINUOUS
 62
    3
 10
1271.461471787924
 20
1190.7684745077609
 40
46.4111412917104
 50
269.99999999999977
 51
89.999999999999545
  0
ARC
  8
_0-1_計細線
  6
CONTINUOUS
 62
    3
 10
1271.461471787924
 20
1190.7684745077609
 40
57.198598227560829
 50
269.99999999999977
 51
89.999999999999545
  0
ARC
  8
_0-1_計細線
  6
CONTINUOUS
 62
    3
 10
1271.461471787924
 20
1190.7684745077609
 40
41.644595453350369
 50
89.999999999999915
 51
116.89207624474167
  0
ARC
  8
_0-1_計細線
  6
CONTINUOUS
 62
    3
 10
1271.461471787924
 20
1190.7684745077609
 40
41.644595453350369
 50
123.10791868693909
 51
236.89208131305983
  0
ARC
  8
_0-1_計細線
  6
CONTINUOUS
 62
    3
 10
1271.461471787924
 20
1190.7684745077609
 40
41.644595453350369
 50
243.10792375525773
 51
269.99999999999977
  0
ARC
  8
_0-1_計細線
  6
CONTINUOUS
 62
    3
 10
1271.461471787924
 20
1190.7684745077609
 40
41.644595453350369
 50
269.99999999999977
 51
356.89207858909316
  0
ARC
  8
_0-1_計細線
  6
CONTINUOUS
 62
    3
 10
1271.461471787924
 20
1190.7684745077609
 40
41.644595453350369
 50
3.1079214109077289
 51
89.999999999999915
  0
ARC
  8
_0-0_計極細
  6
CONTINUOUS
 62
    2
 10
1271.461471787924
 20
1190.7684745077609
 40
50.153133796808191
 50
269.99999999999977
 51
89.999999999999545
  0
ARC
  8
_0-0_計極細
  6
CONTINUOUS
 62
    2
 10
1271.461471787924
 20
1190.7684745077609
 40
50.153133796808191
 50
89.999999999999915
 51
269.99999999999977
  0
ARC
  8
_0-0_計極細
  6
CONTINUOUS
 62
    2
 10
1257.8464707434168
 20
1161.6674322781696
 40
0.501740082747087
 50
149.9999756859755
 51
210.00002243784951
  0
ARC
  8
_0-0_計極細
  6
CONTINUOUS
 62
    2
 10
1271.7511555938736
 20
1184.7475694311747
 40
1.0034861863992508
 50
29.999999999951111
 51
149.99999999997101
  0
ARC
  8
_0-0_計極細
  6
CONTINUOUS
 62
    2
 10
1271.7511555938736
 20
1184.7475694311747
 40
1.0034861863992508
 50
29.999999999951111
 51
106.77865499997519
  0
ARC
  8
_0-0_計極細
  6
CONTINUOUS
 62
    2
 10
1266.1023785764528
 20
1188.0088950212944
 40
1.0034861863992508
 50
329.9999999999776
 51
89.999999999999545
  0
ARC
  8
_0-0_計極細
  6
CONTINUOUS
 62
    2
 10
1230.9662554878878
 20
1198.047235306854
 40
0.501740082747087
 50
89.993779917003238
 51
169.80868012341165
  0
ARC
  8
_0-0_計極細
  6
CONTINUOUS
 62
    2
 10
1230.9646897824541
 20
1183.4967119740995
 40
0.501740082747087
 50
190.17882981053808
 51
269.99383436894158
  0
ARC
  8
_0-0_計極細
  6
CONTINUOUS
 62
    2
 10
1230.9129574918479
 20
1193.5315609043951
 40
1.0034861863992508
 50
176.10042624738671
 51
269.99385985768839
  0
ARC
  8
_0-0_計極細
  6
CONTINUOUS
 62
    2
 10
1271.461471787924
 20
1190.7684745077609
 40
37.630656728658437
 50
317.45760300000074
 51
327.38710800000064
  0
ARC
  8
_0-0_計極細
  6
CONTINUOUS
 62
    2
 10
1271.461471787924
 20
1190.7684745077609
 40
37.630656728658437
 50
32.612891999999583
 51
42.54239699999939
  0
LINE
  8
_0-0_計極細
  6
CONTINUOUS
 62
    2
 10
1306.6356895589124
 20
1171.4895364525355
 11
1297.6776003379118
 21
1187.005408834897
  0
LINE
  8
_0-0_計極細
  6
CONTINUOUS
 62
    2
 10
1305.2288629414334
 20
1166.9018415994747
 11
1292.8978626965281
 21
1188.2597620522151
  0
LINE
  8
_0-0_計極細
  6
CONTINUOUS
 62
    2
 10
1300.6069272012019
 20
1162.8654569406572
 11
1286.6697240881122
 21
1187.005408834897
  0
LINE
  8
_0-0_計極細
  6
CONTINUOUS
 62
    2
 10
1306.6356895589124
 20
1210.0474125629876
 11
1297.6776003379118
 21
1194.531540180627
  0
LINE
  8
_0-0_計極細
  6
CONTINUOUS
 62
    2
 10
1305.2288629414334
 20
1214.635107416048
 11
1292.8978626965281
 21
1193.277186963307
  0
LINE
  8
_0-0_計極細
  6
CONTINUOUS
 62
    2
 10
1300.6069272012019
 20
1218.6714860539614
 11
1286.6697240881122
 21
1194.531540180627
  0
LINE
  8
_0-0_計極細
  6
CONTINUOUS
 62
    2
 10
1269.4545054360315
 20
1163.7488381125895
 11
1269.4545054360315
 21
1171.6662500165335
  0
LINE
  8
_0-0_計極細
  6
CONTINUOUS
 62
    2
 10
1269.9562455187779
 20
1163.7162469534096
 11
1269.9562455187779
 21
1170.7972106404945
  0
ARC
  8
_0-0_計極細
  6
CONTINUOUS
 62
    2
 10
1271.461471787924
 20
1190.7684745077609
 40
37.630656728658437
 50
213.59599499999973
 51
225.50677599999941
  0
LINE
  8
_0-0_計極細
  6
CONTINUOUS
 62
    2
 10
1298.4438086761484
 20
1159.5877063214912
 11
1281.8899864467285
 21
1188.2597620522151
  0
LINE
  8
_0-0_計極細
  6
CONTINUOUS
 62
    2
 10
1293.2559560259588
 20
1156.5315189882353
 11
1275.6618478383125
 21
1187.005408834897
  0
LINE
  8
_0-0_計極細
  6
CONTINUOUS
 62
    2
 10
1275.2468870604343
 20
1149.5917395042916
 11
1262.9158868155291
 21
1170.9496599570325
  0
LINE
  8
_0-0_計極細
  6
CONTINUOUS
 62
    2
 10
1281.0534659790092
 20
1151.5762599220593
 11
1267.1162628659176
 21
1175.7162118162983
  0
LINE
  8
_0-0_計極細
  6
CONTINUOUS
 62
    2
 10
1284.9736471698479
 20
1151.8107019239333
 11
1268.4198249404308
 21
1180.4827636755635
  0
LINE
  8
_0-0_計極細
  6
CONTINUOUS
 62
    2
 10
1290.2143031575588
 20
1154.7754256881685
 11
1272.6202009908193
 21
1185.2493095139234
  0
LINE
  8
_0-0_計極細
  6
CONTINUOUS
 62
    2
 10
1239.8566994243492
 20
1163.925274714954
 11
1253.0667337477198
 21
1163.925274714954
  0
ARC
  8
_0-0_計極細
  6
CONTINUOUS
 62
    2
 10
1249.5905642017542
 20
1159.4095959075144
 40
1.0034861863992508
 50
329.99999999997061
 51
89.999999999999545
  0
ARC
  8
_0-0_計極細
  6
CONTINUOUS
 62
    2
 10
1271.461471787924
 20
1190.7684745077609
 40
37.630656728658437
 50
233.77152300000051
 51
236.31964599999873
  0
ARC
  8
_0-0_計極細
  6
CONTINUOUS
 62
    2
 10
1245.6095839114514
 20
1159.4095959075144
 40
1.0034861863992508
 50
89.999999999999915
 51
230.49823000001433
  0
LINE
  8
_0-0_計極細
  6
CONTINUOUS
 62
    2
 10
1245.6095839114514
 20
1160.4130760730086
 11
1249.5905642017542
 21
1160.4130760730086
  0
ARC
  8
_0-0_計極細
  6
CONTINUOUS
 62
    2
 10
1271.461471787924
 20
1190.7684745077609
 40
37.630656728658437
 50
272.61289200000084
 51
282.54239699999982
  0
ARC
  8
_0-0_計極細
  6
CONTINUOUS
 62
    2
 10
1275.6814097589058
 20
1149.8426125561173
 40
0.501740082747087
 50
210.00000000005619
 51
275.88706200007852
  0
LINE
  8
_0-0_計極細
  6
CONTINUOUS
 62
    2
 10
1270.5704139620202
 20
1150.667235715408
 11
1261.6123247410196
 21
1166.1831141186735
  0
LINE
  8
_0-0_計極細
  6
CONTINUOUS
 62
    2
 10
1264.0169658523164
 20
1149.976336857871
 11
1257.4119486906311
 21
1161.4165622594087
  0
ARC
  8
_0-0_計極細
  6
CONTINUOUS
 62
    2
 10
1271.461471787924
 20
1190.7684745077609
 40
37.630656728658437
 50
254.49322400000062
 51
266.40400500000192
  0
ARC
  8
_0-0_計極細
  6
CONTINUOUS
 62
    2
 10
1253.0667337477198
 20
1164.4270147977008
 40
0.501740082747087
 50
269.99999999999977
 51
329.999999999995
  0
ARC
  8
_0-0_計極細
  6
CONTINUOUS
 62
    2
 10
1257.229834374778
 20
1152.7006398614926
 40
1.0034861863992508
 50
249.50177000010669
 51
29.999999999924803
  0
LINE
  8
_0-0_計極細
  6
CONTINUOUS
 62
    2
 10
1258.0988737508196
 20
1153.20237994424
 11
1256.1083866161198
 21
1156.6500104001416
  0
ARC
  8
_0-0_計極細
  6
CONTINUOUS
 62
    2
 10
1260.7432793440757
 20
1165.6813680150221
 40
1.0034861863992508
 50
29.999999999977071
 51
150.00000000002294
  0
ARC
  8
_0-0_計極細
  6
CONTINUOUS
 62
    2
 10
1271.461471787924
 20
1190.7684745077609
 40
27.094072844634088
 50
244.78019200000111
 51
249.77896100000117
  0
ARC
  8
_0-0_計極細
  6
CONTINUOUS
 62
    2
 10
1271.461471787924
 20
1190.7684745077609
 40
37.630656728658437
 50
243.68035399999945
 51
246.22847699999966
  0
ARC
  8
_0-0_計極細
  6
CONTINUOUS
 62
    2
 10
1255.2393412191759
 20
1156.1482703173965
 40
1.0034861863992508
 50
30.000000000003038
 51
149.99999999999699
  0
ARC
  8
_0-0_計極細
  6
CONTINUOUS
 62
    2
 10
1269.7013745859813
 20
1150.1654956326624
 40
1.0034861863992508
 50
267.51783600007144
 51
29.999999999976708
  0
ARC
  8
_0-0_計極細
  6
CONTINUOUS
 62
    2
 10
1264.4514885507879
 20
1150.2272099096967
 40
0.501740082747087
 50
210.00000000000426
 51
260.18999099984632
  0
ARC
  8
_0-0_計極細
  6
CONTINUOUS
 62
    2
 10
1271.461471787924
 20
1190.7684745077609
 40
27.094072844634088
 50
260.29098300000101
 51
275.3756820000018
  0
ARC
  8
_0-0_計極細
  6
CONTINUOUS
 62
    2
 10
1271.461471787924
 20
1190.7684745077609
 40
37.630656728658437
 50
288.07291800000053
 51
297.3252260000009
  0
ARC
  8
_0-0_計極細
  6
CONTINUOUS
 62
    2
 10
1271.461471787924
 20
1190.7684745077609
 40
27.094072844634088
 50
283.31934900000306
 51
296.28378000000106
  0
ARC
  8
_0-0_計極細
  6
CONTINUOUS
 62
    2
 10
1285.4081638474154
 20
1152.0615749757594
 40
0.501740082747087
 50
210.00000000000426
 51
289.81487199991307
  0
ARC
  8
_0-0_計極細
  6
CONTINUOUS
 62
    2
 10
1280.1844205820644
 20
1151.0745198393129
 40
1.0034861863992508
 50
282.39403400005705
 51
29.999999999976708
  0
ARC
  8
_0-0_計極細
  6
CONTINUOUS
 62
    2
 10
1271.461471787924
 20
1190.7684745077609
 40
37.630656728658437
 50
302.67477400000098
 51
311.92708200000021
  0
ARC
  8
_0-0_計極細
  6
CONTINUOUS
 62
    2
 10
1294.1249954019977
 20
1157.0332650918881
 40
1.0034861863992508
 50
209.9999999999992
 51
303.89344999997104
  0
ARC
  8
_0-0_計極細
  6
CONTINUOUS
 62
    2
 10
1298.0092859776751
 20
1159.3368332696655
 40
0.501740082747087
 50
310.18512800003361
 51
29.999999999959307
  0
ARC
  8
_0-0_計極細
  6
CONTINUOUS
 62
    2
 10
1289.3452637815208
 20
1154.2736795845158
 40
1.0034861863992508
 50
296.10654999997791
 51
30.000000000025157
  0
LINE
  8
_0-0_計極細
  6
CONTINUOUS
 62
    2
 10
1237.178311842842
 20
1169.9461797915396
 11
1255.0945023266522
 21
1169.9461797915396
  0
ARC
  8
_0-0_計極細
  6
CONTINUOUS
 62
    2
 10
1249.5905642017542
 20
1222.1273531080092
 40
1.0034861863992508
 50
269.99999999999977
 51
30.000000000051159
  0
LINE
  8
_0-0_計極細
  6
CONTINUOUS
 62
    2
 10
1239.8566994243492
 20
1217.6116743005696
 11
1253.0667337477198
 21
1217.6116743005696
  0
LINE
  8
_0-0_計極細
  6
CONTINUOUS
 62
    2
 10
1237.178311842842
 20
1211.590769223983
 11
1255.0945023266522
 21
1211.590769223983
  0
LINE
  8
_0-0_計極細
  6
CONTINUOUS
 62
    2
 10
1233.9086713828119
 20
1208.0785766029444
 11
1258.5706718726206
 21
1208.0785766029444
  0
LINE
  8
_0-0_計極細
  6
CONTINUOUS
 62
    2
 10
1232.7240282044686
 20
1202.0576715263592
 11
1260.5984404515539
 21
1202.0576715263592
  0
LINE
  8
_0-0_計極細
  6
CONTINUOUS
 62
    2
 10
1230.9669715595874
 20
1198.5454789053188
 11
1264.0746099975186
 21
1198.5454789053188
  0
LINE
  8
_0-0_計極細
  6
CONTINUOUS
 62
    2
 10
1230.9141622011621
 20
1192.5245738287335
 11
1266.1023785764528
 21
1192.5245738287335
  0
LINE
  8
_0-0_計極細
  6
CONTINUOUS
 62
    2
 10
1233.9086713828119
 20
1173.4583724125791
 11
1258.5706718726206
 21
1173.4583724125791
  0
LINE
  8
_0-0_計極細
  6
CONTINUOUS
 62
    2
 10
1232.7240282044686
 20
1179.4792774891648
 11
1260.5984404515539
 21
1179.4792774891648
  0
LINE
  8
_0-0_計極細
  6
CONTINUOUS
 62
    2
 10
1230.9669715595874
 20
1182.9914701102048
 11
1264.0746099975186
 21
1182.9914701102048
  0
LINE
  8
_0-0_計極細
  6
CONTINUOUS
 62
    2
 10
1230.9141622011621
 20
1189.0123751867886
 11
1266.1023785764528
 21
1189.0123751867886
  0
ARC
  8
_0-0_計極細
  6
CONTINUOUS
 62
    2
 10
1271.461471787924
 20
1190.7684745077609
 40
27.094072844634088
 50
140.2909829999995
 51
155.37568199999922
  0
ARC
  8
_0-0_計極細
  6
CONTINUOUS
 62
    2
 10
1271.461471787924
 20
1190.7684745077609
 40
37.630656728658437
 50
152.61289199999945
 51
162.54239699999926
  0
ARC
  8
_0-0_計極細
  6
CONTINUOUS
 62
    2
 10
1232.7240282044686
 20
1203.0611577127597
 40
1.0034861863992508
 50
162.39403400003678
 51
269.99999999999977
  0
ARC
  8
_0-0_計極細
  6
CONTINUOUS
 62
    2
 10
1237.178311842842
 20
1168.9426936051391
 40
1.0034861863992508
 50
89.999999999999915
 51
212.48216400001331
  0
ARC
  8
_0-0_計極細
  6
CONTINUOUS
 62
    2
 10
1271.461471787924
 20
1190.7684745077609
 40
37.630656728658437
 50
168.07291799999925
 51
177.32522600000007
  0
ARC
  8
_0-0_計極細
  6
CONTINUOUS
 62
    2
 10
1271.461471787924
 20
1190.7684745077609
 40
37.630656728658437
 50
182.67477399999888
 51
191.9270819999997
  0
ARC
  8
_0-0_計極細
  6
CONTINUOUS
 62
    2
 10
1271.461471787924
 20
1190.7684745077609
 40
37.630656728658437
 50
197.45760299999972
 51
207.38710799999959
  0
ARC
  8
_0-0_計極細
  6
CONTINUOUS
 62
    2
 10
1230.9141622011621
 20
1188.0088950212953
 40
1.0034861863992508
 50
89.999999999999915
 51
183.89344999999844
  0
ARC
  8
_0-0_計極細
  6
CONTINUOUS
 62
    2
 10
1232.7240282044686
 20
1178.4757913027656
 40
1.0034861863992508
 50
89.999999999999915
 51
197.6059659999876
  0
ARC
  8
_0-0_計極細
  6
CONTINUOUS
 62
    2
 10
1233.9086713828119
 20
1173.9601124953251
 40
0.501740082747087
 50
204.1129380000705
 51
269.99999999999977
  0
ARC
  8
_0-0_計極細
  6
CONTINUOUS
 62
    2
 10
1271.461471787924
 20
1190.7684745077609
 40
27.094072844634088
 50
163.31934899999897
 51
176.28377999999944
  0
ARC
  8
_0-0_計極細
  6
CONTINUOUS
 62
    2
 10
1271.461471787924
 20
1190.7684745077609
 40
27.094072844634088
 50
183.71621999999925
 51
196.68065099999976
  0
ARC
  8
_0-0_計極細
  6
CONTINUOUS
 62
    2
 10
1271.461471787924
 20
1190.7684745077609
 40
27.094072844634088
 50
204.62431799999953
 51
219.70901699999865
  0
ARC
  8
_0-0_計極細
  6
CONTINUOUS
 62
    2
 10
1233.9086713828119
 20
1207.5768365201984
 40
0.501740082747087
 50
89.999999999999915
 51
155.88706199992916
  0
ARC
  8
_0-0_計極細
  6
CONTINUOUS
 62
    2
 10
1237.178311842842
 20
1212.594255410384
 40
1.0034861863992508
 50
147.51783599998632
 51
269.99999999999977
  0
ARC
  8
_0-0_計極細
  6
CONTINUOUS
 62
    2
 10
1271.461471787924
 20
1190.7684745077609
 40
37.630656728658437
 50
123.68035400000058
 51
126.22847699999913
  0
ARC
  8
_0-0_計極細
  6
CONTINUOUS
 62
    2
 10
1271.461471787924
 20
1190.7684745077609
 40
37.630656728658437
 50
134.49322399999971
 51
146.40400499999933
  0
ARC
  8
_0-0_計極細
  6
CONTINUOUS
 62
    2
 10
1239.8566994243492
 20
1217.1099342178231
 40
0.501740082747087
 50
89.999999999999915
 51
140.18999100005377
  0
ARC
  8
_0-0_計極細
  6
CONTINUOUS
 62
    2
 10
1245.6095839114514
 20
1222.1273531080092
 40
1.0034861863992508
 50
129.50176999998527
 51
269.99999999999977
  0
LINE
  8
_0-0_計極細
  6
CONTINUOUS
 62
    2
 10
1245.6095839114514
 20
1221.1238729425149
 11
1249.5905642017542
 21
1221.1238729425149
  0
ARC
  8
_0-0_計極細
  6
CONTINUOUS
 62
    2
 10
1271.461471787924
 20
1190.7684745077609
 40
37.630656728658437
 50
77.457603000000148
 51
87.387107999998889
  0
ARC
  8
_0-0_計極細
  6
CONTINUOUS
 62
    2
 10
1271.461471787924
 20
1190.7684745077609
 40
37.630656728658437
 50
77.457603000000148
 51
87.387107999998889
  0
ARC
  8
_0-0_計極細
  6
CONTINUOUS
 62
    2
 10
1276.5308932352591
 20
1187.5071489176435
 40
1.0034861863992508
 50
89.999999999999915
 51
209.99999999994725
  0
ARC
  8
_0-0_計極細
  6
CONTINUOUS
 62
    2
 10
1276.5308932352591
 20
1194.0298000978814
 40
1.0034861863992508
 50
150.00000000005238
 51
269.99999999999977
  0
ARC
  8
_0-0_計極細
  6
CONTINUOUS
 62
    2
 10
1275.6814097589058
 20
1231.6943364594035
 40
0.501740082747087
 50
84.112937999921115
 51
149.9999999999884
  0
LINE
  8
_0-0_計極細
  6
CONTINUOUS
 62
    2
 10
1281.0534659790092
 20
1229.960683072557
 11
1267.1162628659176
 21
1205.8207371992253
  0
LINE
  8
_0-0_計極細
  6
CONTINUOUS
 62
    2
 10
1284.9736471698479
 20
1229.7262410706858
 11
1268.4198249404308
 21
1201.05418533996
  0
LINE
  8
_0-0_計極細
  6
CONTINUOUS
 62
    2
 10
1290.2143031575588
 20
1226.761523327355
 11
1272.6202009908193
 21
1196.2876395016001
  0
LINE
  8
_0-0_計極細
  6
CONTINUOUS
 62
    2
 10
1269.4545054360315
 20
1198.7603228611665
 11
1269.4545054360315
 21
1202.8463077360052
  0
LINE
  8
_0-0_計極細
  6
CONTINUOUS
 62
    2
 10
1269.9562455187779
 20
1197.8912834851276
 11
1269.9562455187779
 21
1203.7153531329482
  0
ARC
  8
_0-0_計極細
  6
CONTINUOUS
 62
    2
 10
1260.5984404515539
 20
1203.0611577127597
 40
1.0034861863992508
 50
269.99999999999977
 51
30.000000000025157
  0
LINE
  8
_0-0_計極細
  6
CONTINUOUS
 62
    2
 10
1272.9666980570719
 20
1196.8877972987298
 11
1272.9666980570719
 21
1208.9296074518993
  0
LINE
  8
_0-0_計極細
  6
CONTINUOUS
 62
    2
 10
1273.4684441607233
 20
1197.7568426956723
 11
1273.4684441607233
 21
1209.7986528488445
  0
ARC
  8
_0-0_計極細
  6
CONTINUOUS
 62
    2
 10
1260.5984404515539
 20
1178.4757913027656
 40
1.0034861863992508
 50
329.99999999995163
 51
89.999999999999545
  0
ARC
  8
_0-0_計極細
  6
CONTINUOUS
 62
    2
 10
1258.5706718726206
 20
1173.9601124953251
 40
0.501740082747087
 50
269.99999999999977
 51
329.99999999989114
  0
ARC
  8
_0-0_計極細
  6
CONTINUOUS
 62
    2
 10
1271.461471787924
 20
1190.7684745077609
 40
27.094072844634088
 50
230.2210390000003
 51
235.21980800000028
  0
ARC
  8
_0-0_計極細
  6
CONTINUOUS
 62
    2
 10
1255.0945023266522
 20
1168.9426936051391
 40
1.0034861863992508
 50
329.99999999997414
 51
89.999999999999545
  0
ARC
  8
_0-0_計極細
  6
CONTINUOUS
 62
    2
 10
1263.3504095140024
 20
1171.2005330088596
 40
0.501740082747087
 50
149.9999999999884
 51
210.00000000005619
  0
LINE
  8
_0-0_計極細
  6
CONTINUOUS
 62
    2
 10
1269.4545054360315
 20
1178.6906412795183
 11
1269.4545054360315
 21
1182.776626154357
  0
LINE
  8
_0-0_計極細
  6
CONTINUOUS
 62
    2
 10
1269.9562455187779
 20
1177.8215958825735
 11
1269.9562455187779
 21
1183.6456655303955
  0
ARC
  8
_0-0_計極細
  6
CONTINUOUS
 62
    2
 10
1264.0746099975186
 20
1183.4932162138562
 40
0.501740082747087
 50
269.99999999999977
 51
330.00000000009186
  0
ARC
  8
_0-0_計極細
  6
CONTINUOUS
 62
    2
 10
1268.8543476389032
 20
1180.7336307064838
 40
0.501740082747087
 50
149.99999999999537
 51
209.9999999999593
  0
ARC
  8
_0-0_計極細
  6
CONTINUOUS
 62
    2
 10
1266.2472174689738
 20
1175.2144717335509
 40
1.0034861863992508
 50
30.000000000025526
 51
149.99999999997448
  0
ARC
  8
_0-0_計極細
  6
CONTINUOUS
 62
    2
 10
1268.8543476389032
 20
1200.8033183090388
 40
0.501740082747087
 50
149.99999999999537
 51
209.9999999999593
  0
ARC
  8
_0-0_計極細
  6
CONTINUOUS
 62
    2
 10
1271.7511555938736
 20
1196.7893795843474
 40
1.0034861863992508
 50
210.00000000005113
 51
330.00000000002603
  0
ARC
  8
_0-0_計極細
  6
CONTINUOUS
 62
    2
 10
1264.0746099975186
 20
1198.043732801666
 40
0.501740082747087
 50
29.999999999907736
 51
89.999999999999901
  0
ARC
  8
_0-0_計極細
  6
CONTINUOUS
 62
    2
 10
1266.1023785764528
 20
1193.5280539942282
 40
1.0034861863992508
 50
269.99999999999977
 51
29.999999999976708
  0
LINE
  8
_0-0_計極細
  6
CONTINUOUS
 62
    2
 10
1272.9666980570719
 20
1172.6073415636233
 11
1272.9666980570719
 21
1184.6491517167951
  0
LINE
  8
_0-0_計極細
  6
CONTINUOUS
 62
    2
 10
1273.4684441607233
 20
1171.7382961666804
 11
1273.4684441607233
 21
1183.7801063198503
  0
ARC
  8
_0-0_計極細
  6
CONTINUOUS
 62
    2
 10
1271.7511555938736
 20
1196.7893795843474
 40
1.0034861863992508
 50
253.22134500003193
 51
330.00000000002603
  0
LINE
  8
_0-0_計極細
  6
CONTINUOUS
 62
    2
 10
1270.5704139620202
 20
1230.8697072792106
 11
1261.6123247410196
 21
1215.3538348968495
  0
ARC
  8
_0-0_計極細
  6
CONTINUOUS
 62
    2
 10
1271.461471787924
 20
1190.7684745077609
 40
37.630656728658437
 50
93.595994999997728
 51
105.50677599999884
  0
LINE
  8
_0-0_計極細
  6
CONTINUOUS
 62
    2
 10
1264.0169658523164
 20
1231.5606121576548
 11
1257.4119486906311
 21
1220.1203867561144
  0
LINE
  8
_0-0_計極細
  6
CONTINUOUS
 62
    2
 10
1275.2468870604343
 20
1231.9452095112306
 11
1262.9158868155291
 21
1210.5872890584892
  0
ARC
  8
_0-0_計極細
  6
CONTINUOUS
 62
    2
 10
1263.3504095140024
 20
1210.336416006664
 40
0.501740082747087
 50
149.9999999999884
 51
210.00000000001123
  0
ARC
  8
_0-0_計極細
  6
CONTINUOUS
 62
    2
 10
1271.461471787924
 20
1190.7684745077609
 40
27.094072844634088
 50
110.2210389999981
 51
115.21980799999808
  0
ARC
  8
_0-0_計極細
  6
CONTINUOUS
 62
    2
 10
1260.7432793440757
 20
1215.8555810005028
 40
1.0034861863992508
 50
209.99999999997672
 51
330.00000000002257
  0
ARC
  8
_0-0_計極細
  6
CONTINUOUS
 62
    2
 10
1257.8464713891026
 20
1219.8695137042882
 40
0.501740082747087
 50
150.00000000004732
 51
209.99999999990737
  0
ARC
  8
_0-0_計極細
  6
CONTINUOUS
 62
    2
 10
1271.461471787924
 20
1190.7684745077609
 40
37.630656728658437
 50
113.7715229999997
 51
116.31964599999986
  0
ARC
  8
_0-0_計極細
  6
CONTINUOUS
 62
    2
 10
1257.229834374778
 20
1228.8363091540309
 40
1.0034861863992508
 50
330.00000000007446
 51
110.4982299998926
  0
ARC
  8
_0-0_計極細
  6
CONTINUOUS
 62
    2
 10
1255.2393412191759
 20
1225.3886786981261
 40
1.0034861863992508
 50
210.00000000002515
 51
329.99999999997414
  0
LINE
  8
_0-0_計極細
  6
CONTINUOUS
 62
    2
 10
1258.0988737508196
 20
1228.3345690712836
 11
1256.1083866161198
 21
1224.8869386153815
  0
ARC
  8
_0-0_計極細
  6
CONTINUOUS
 62
    2
 10
1271.461471787924
 20
1190.7684745077609
 40
27.094072844634088
 50
124.78019199999827
 51
129.77896099999876
  0
ARC
  8
_0-0_計極細
  6
CONTINUOUS
 62
    2
 10
1253.0667337477198
 20
1217.1099342178231
 40
0.501740082747087
 50
29.99999999995967
 51
89.999999999999901
  0
ARC
  8
_0-0_計極細
  6
CONTINUOUS
 62
    2
 10
1255.0945023266522
 20
1212.594255410384
 40
1.0034861863992508
 50
269.99999999999977
 51
30.000000000025157
  0
ARC
  8
_0-0_計極細
  6
CONTINUOUS
 62
    2
 10
1258.5706718726206
 20
1207.5768365201984
 40
0.501740082747087
 50
30.000000000063526
 51
89.999999999999915
  0
LINE
  8
_0-0_計極細
  6
CONTINUOUS
 62
    2
 10
1269.9562455187779
 20
1210.739738375029
 11
1269.9562455187779
 21
1217.8207020621139
  0
LINE
  8
_0-0_計極細
  6
CONTINUOUS
 62
    2
 10
1269.4545054360315
 20
1209.8706989989905
 11
1269.4545054360315
 21
1217.788110902934
  0
ARC
  8
_0-0_計極細
  6
CONTINUOUS
 62
    2
 10
1269.7013745859813
 20
1231.3714533828643
 40
1.0034861863992508
 50
330.00000000000011
 51
92.482163999927849
  0
ARC
  8
_0-0_計極細
  6
CONTINUOUS
 62
    2
 10
1271.461471787924
 20
1190.7684745077609
 40
27.094072844634088
 50
84.624317999997899
 51
99.709016999998497
  0
ARC
  8
_0-0_計極細
  6
CONTINUOUS
 62
    2
 10
1264.4514885507879
 20
1231.3097391058295
 40
0.501740082747087
 50
99.810009000153329
 51
150.00000000004033
  0
ARC
  8
_0-0_計極細
  6
CONTINUOUS
 62
    2
 10
1266.2472174689738
 20
1206.3224772819713
 40
1.0034861863992508
 50
210.00000000002515
 51
329.99999999997414
  0
ARC
  8
_0-0_計極細
  6
CONTINUOUS
 62
    2
 10
1271.461471787924
 20
1190.7684745077609
 40
27.094072844634088
 50
84.624317999997899
 51
89.999999999999915
  0
ARC
  8
_0-0_計極細
  6
CONTINUOUS
 62
    2
 10
1271.461471787924
 20
1190.7684745077609
 40
27.094072844634088
 50
20.290983000000907
 51
35.375681999999564
  0
LINE
  8
_0-0_計極細
  6
CONTINUOUS
 62
    2
 10
1298.4438086761484
 20
1221.9492426940337
 11
1281.8899864467285
 21
1193.277186963307
  0
LINE
  8
_0-0_計極細
  6
CONTINUOUS
 62
    2
 10
1293.2559560259588
 20
1225.0054300272877
 11
1275.6618478383125
 21
1194.531540180627
  0
ARC
  8
_0-0_計極細
  6
CONTINUOUS
 62
    2
 10
1271.461471787924
 20
1190.7684745077609
 40
27.094072844634088
 50
303.71622000000309
 51
316.68065100000058
  0
ARC
  8
_0-0_計極細
  6
CONTINUOUS
 62
    2
 10
1287.5387634641511
 20
1187.5071489176435
 40
1.0034861863992508
 50
89.999999999999915
 51
209.9999999999992
  0
ARC
  8
_0-0_計極細
  6
CONTINUOUS
 62
    2
 10
1281.455463748257
 20
1188.0088950212953
 40
0.501740082747087
 50
30.000000000004636
 51
89.999999999999915
  0
ARC
  8
_0-0_計極細
  6
CONTINUOUS
 62
    2
 10
1287.5387634641511
 20
1194.0298000978814
 40
1.0034861863992508
 50
150.00000000000043
 51
269.99999999999977
  0
ARC
  8
_0-0_計極細
  6
CONTINUOUS
 62
    2
 10
1281.455463748257
 20
1193.5280539942282
 40
0.501740082747087
 50
269.99999999999977
 51
329.999999999995
  0
ARC
  8
_0-0_計極細
  6
CONTINUOUS
 62
    2
 10
1271.461471787924
 20
1190.7684745077609
 40
27.094072844634088
 50
324.62431800000087
 51
339.70901700000059
  0
ARC
  8
_0-0_計極細
  6
CONTINUOUS
 62
    2
 10
1271.461471787924
 20
1190.7684745077609
 40
27.094072844634088
 50
350.22103900000002
 51
355.21980800000068
  0
ARC
  8
_0-0_計極細
  6
CONTINUOUS
 62
    2
 10
1271.461471787924
 20
1190.7684745077609
 40
27.094072844634088
 50
4.7801919999998796
 51
9.7789610000005673
  0
ARC
  8
_0-0_計極細
  6
CONTINUOUS
 62
    2
 10
1298.5466397139508
 20
1187.5071489176435
 40
1.0034861863992508
 50
89.999999999999915
 51
209.9999999999992
  0
ARC
  8
_0-0_計極細
  6
CONTINUOUS
 62
    2
 10
1292.4633399980567
 20
1188.0088950212953
 40
0.501740082747087
 50
30.000000000004636
 51
89.999999999999915
  0
ARC
  8
_0-0_計極細
  6
CONTINUOUS
 62
    2
 10
1298.5466397139508
 20
1194.0298000978814
 40
1.0034861863992508
 50
150.00000000000043
 51
269.99999999999977
  0
ARC
  8
_0-0_計極細
  6
CONTINUOUS
 62
    2
 10
1292.4633399980567
 20
1193.5280539942282
 40
0.501740082747087
 50
269.99999999999977
 51
329.999999999995
  0
ARC
  8
_0-0_計極細
  6
CONTINUOUS
 62
    2
 10
1271.461471787924
 20
1190.7684745077609
 40
27.094072844634088
 50
43.319348999999789
 51
56.283779999997591
  0
ARC
  8
_0-0_計極細
  6
CONTINUOUS
 62
    2
 10
1271.461471787924
 20
1190.7684745077609
 40
37.630656728658437
 50
62.67477399999909
 51
71.927081999999317
  0
ARC
  8
_0-0_計極細
  6
CONTINUOUS
 62
    2
 10
1271.461471787924
 20
1190.7684745077609
 40
27.094072844634088
 50
63.716219999999019
 51
76.680650999997013
  0
ARC
  8
_0-0_計極細
  6
CONTINUOUS
 62
    2
 10
1285.4081638474154
 20
1229.4753740397637
 40
0.501740082747087
 50
70.18512800008655
 51
150.00000000004033
  0
ARC
  8
_0-0_計極細
  6
CONTINUOUS
 62
    2
 10
1280.1844205820644
 20
1230.4624291762107
 40
1.0034861863992508
 50
330.00000000002257
 51
77.605965999942228
  0
ARC
  8
_0-0_計極細
  6
CONTINUOUS
 62
    2
 10
1271.461471787924
 20
1190.7684745077609
 40
37.630656728658437
 50
48.072918000000342
 51
57.325225999999049
  0
ARC
  8
_0-0_計極細
  6
CONTINUOUS
 62
    2
 10
1294.1249954019977
 20
1224.5036839236359
 40
1.0034861863992508
 50
56.106550000014117
 51
150.00000000002294
  0
ARC
  8
_0-0_計極細
  6
CONTINUOUS
 62
    2
 10
1298.0092859776751
 20
1222.200109724954
 40
0.501740082747087
 50
330.00000000003996
 51
49.814871999965682
  0
ARC
  8
_0-0_計極細
  6
CONTINUOUS
 62
    2
 10
1289.3452637815208
 20
1227.2632694310064
 40
1.0034861863992508
 50
329.99999999997414
 51
63.893450000021375
  0
ARC
  8
_0-0_計極細
  6
CONTINUOUS
 62
    2
 10
1301.4759725981448
 20
1163.3672030443099
 40
1.0034861863992508
 50
209.9999999999992
 51
317.60596599999053
  0
ARC
  8
_0-0_計極細
  6
CONTINUOUS
 62
    2
 10
1304.794346263865
 20
1166.650968547649
 40
0.501740082747087
 50
324.11293799996702
 51
30.000000000011212
  0
ARC
  8
_0-0_計極細
  6
CONTINUOUS
 62
    2
 10
1271.461471787924
 20
1190.7684745077609
 40
37.630656728658437
 50
14.493223999999607
 51
26.404004999999916
  0
LINE
  8
_0-0_計極細
  6
CONTINUOUS
 62
    2
 10
1310.5107561080122
 20
1204.717412364846
 11
1303.9057389463278
 21
1193.277186963307
  0
ARC
  8
_0-0_計極細
  6
CONTINUOUS
 62
    2
 10
1311.5450091193534
 20
1184.0595184617391
 40
1.0034861863992508
 50
210.00000000000267
 51
350.4982300000064
  0
ARC
  8
_0-0_計極細
  6
CONTINUOUS
 62
    2
 10
1311.5450091193534
 20
1197.4774305537844
 40
1.0034861863992508
 50
9.5017699999932326
 51
149.99999999997448
  0
ARC
  8
_0-0_計極細
  6
CONTINUOUS
 62
    2
 10
1271.461471787924
 20
1190.7684745077609
 40
37.630656728658437
 50
3.6803540000000869
 51
6.2284770000002219
  0
ARC
  8
_0-0_計極細
  6
CONTINUOUS
 62
    2
 10
1271.461471787924
 20
1190.7684745077609
 40
37.630656728658437
 50
353.7715230000008
 51
356.31964600000026
  0
ARC
  8
_0-0_計極細
  6
CONTINUOUS
 62
    2
 10
1271.461471787924
 20
1190.7684745077609
 40
37.630656728658437
 50
333.59599500000036
 51
345.50677600000074
  0
ARC
  8
_0-0_計極細
  6
CONTINUOUS
 62
    2
 10
1307.5047349558563
 20
1171.9912765352824
 40
1.0034861863992508
 50
210.00000000000267
 51
332.48216400001218
  0
ARC
  8
_0-0_計極細
  6
CONTINUOUS
 62
    2
 10
1309.5545159637486
 20
1187.5071489176435
 40
1.0034861863992508
 50
89.999999999999915
 51
209.9999999999992
  0
ARC
  8
_0-0_計極細
  6
CONTINUOUS
 62
    2
 10
1303.4712162478545
 20
1188.0088950212953
 40
0.501740082747087
 50
29.99999999995271
 51
89.999999999999929
  0
LINE
  8
_0-0_計極細
  6
CONTINUOUS
 62
    2
 10
1310.6759637224104
 20
1183.5577783789927
 11
1308.6854765877097
 21
1187.005408834897
  0
LINE
  8
_0-0_計極細
  6
CONTINUOUS
 62
    2
 10
1310.5107561080122
 20
1176.8195366506784
 11
1303.9057389463278
 21
1188.2597620522151
  0
ARC
  8
_0-0_計極細
  6
CONTINUOUS
 62
    2
 10
1309.5545159637486
 20
1194.0298000978814
 40
1.0034861863992508
 50
150.00000000000043
 51
269.99999999999977
  0
ARC
  8
_0-0_計極細
  6
CONTINUOUS
 62
    2
 10
1303.4712162478545
 20
1193.5280539942282
 40
0.501740082747087
 50
269.99999999999977
 51
330.00000000004695
  0
LINE
  8
_0-0_計極細
  6
CONTINUOUS
 62
    2
 10
1310.6759637224104
 20
1197.9791706365309
 11
1308.6854765877097
 21
1194.531540180627
  0
ARC
  8
_0-0_計極細
  6
CONTINUOUS
 62
    2
 10
1301.4759725981448
 20
1218.1697459712136
 40
1.0034861863992508
 50
42.394034000009064
 51
150.00000000000043
  0
ARC
  8
_0-0_計極細
  6
CONTINUOUS
 62
    2
 10
1304.794346263865
 20
1214.8859804678741
 40
0.501740082747087
 50
329.99999999998801
 51
35.887062000032259
  0
ARC
  8
_0-0_計極細
  6
CONTINUOUS
 62
    2
 10
1307.5047349558563
 20
1209.5456724802411
 40
1.0034861863992508
 50
27.517836000010465
 51
149.99999999997448
  0
LINE
  8
_0-0_計極細
  6
CONTINUOUS
 62
    2
 10
1272.9666980570719
 20
1163.7162458160428
 11
1272.9666980570719
 21
1165.5829574661366
  0
LINE
  8
_0-0_計極細
  6
CONTINUOUS
 62
    2
 10
1273.4684441607233
 20
1163.7488363679713
 11
1273.4684441607233
 21
1164.7139074345782
  0
LINE
  8
_0-0_計極細
  6
CONTINUOUS
 62
    2
 10
1272.9666980570719
 20
1215.9539890219844
 11
1272.9666980570719
 21
1217.8207031994789
  0
LINE
  8
_0-0_計極細
  6
CONTINUOUS
 62
    2
 10
1273.4684441607233
 20
1216.823038836787
 11
1273.4684441607233
 21
1217.7881126475504
  0
LINE
  8
_0-1_計細線
  6
CONTINUOUS
 62
    3
 10
1243.4604746743425
 20
1248.7684745077609
 11
1231.3183390506119
 21
1236.6263388840298
  0
ARC
  8
_0-1_計細線
  6
CONTINUOUS
 62
    3
 10
1217.1762034268804
 20
1250.7684745077609
 40
20
 50
269.99999999999977
 51
315.00000000000057
  0
LINE
  8
_0-1_計細線
  6
CONTINUOUS
 62
    3
 10
1183.695731770159
 20
1150.7684745077609
 11
1217.1762034268804
 21
1150.7684745077609
  0
LINE
  8
_0-1_計細線
  6
CONTINUOUS
 62
    3
 10
1243.4604746743425
 20
1132.7684745077609
 11
1231.3183390506119
 21
1144.9106101314919
  0
ARC
  8
_0-1_計細線
  6
CONTINUOUS
 62
    3
 10
1217.1762034268804
 20
1130.7684745077609
 40
20
 50
44.999999999999076
 51
89.999999999999915
  0
LINE
  8
_0-1_計細線
  6
CONTINUOUS
 62
    3
 10
1299.4604746743425
 20
1132.7684745077609
 11
1311.6026102980732
 21
1144.9106101314919
  0
LINE
  8
_0-1_計細線
  6
CONTINUOUS
 62
    3
 10
1325.7447459218047
 20
1150.7684745077609
 11
1339.4604746743425
 21
1150.7684745077609
  0
ARC
  8
_0-1_計細線
  6
CONTINUOUS
 62
    3
 10
1325.7447459218047
 20
1130.7684745077609
 40
20
 50
89.999999999999915
 51
135.00000000000091
  0
LINE
  8
_0-1_計細線
  6
CONTINUOUS
 62
    3
 10
1299.4604746743425
 20
1248.7684745077609
 11
1311.6026102980732
 21
1236.6263388840298
  0
LINE
  8
_0-1_計細線
  6
CONTINUOUS
 62
    3
 10
1325.7447459218047
 20
1230.7684745077609
 11
1339.4604746743425
 21
1230.7684745077609
  0
ARC
  8
_0-1_計細線
  6
CONTINUOUS
 62
    3
 10
1325.7447459218047
 20
1250.7684745077609
 40
20
 50
224.99999999999872
 51
269.99999999999977
  0
LINE
  8
_0-1_計細線
  6
CONTINUOUS
 62
    3
 10
1197.9170839098806
 20
1230.7684745077609
 11
1217.1762034268804
 21
1230.7684745077609
  0
ARC
  8
_0-0_計極細
  6
CONTINUOUS
 62
    2
 10
1144.7303091231661
 20
1219.7684745076749
 40
54.312365187078854
 50
327.72737804884258
 51
32.272621951371519
  0
ARC
  8
_0-0_計極細
  6
CONTINUOUS
 62
    2
 10
1236.574372888218
 20
1161.7684745078509
 40
54.312365187078854
 50
147.72737804884292
 51
212.27262195137578
  0
ARC
  8
_0-0_計極細
  6
CONTINUOUS
 62
    2
 10
1144.7303091231661
 20
1219.7684745076745
 40
54.312365187078854
 50
327.72737804884258
 51
32.272621951371519
  0
ARC
  8
_0-0_計極細
  6
CONTINUOUS
 62
    2
 10
1236.574372888218
 20
1161.7684745078504
 40
54.312365187078854
 50
147.72737804884292
 51
212.27262195137578
  0
LINE
  8
_0-5_寸法線
  6
CONTINUOUS
 62
    7
 10
357.46047467434255
 20
1278.7684745077609
 11
357.46047467434255
 21
1462.7684745077609
  0
LINE
  8
_0-5_寸法線
  6
CONTINUOUS
 62
    7
 10
357.46047467434255
 20
1454.7684745077609
 11
372.91528789496761
 21
1458.9095792294013
  0
LINE
  8
_0-5_寸法線
  6
CONTINUOUS
 62
    7
 10
357.46047467434255
 20
1454.7684745077609
 11
372.91528789496761
 21
1450.6273697861204
  0
LINE
  8
_0-5_寸法線
  6
CONTINUOUS
 62
    7
 10
1351.4604746743425
 20
1278.7684745077609
 11
1351.4604746743425
 21
1462.7684745077609
  0
LINE
  8
_0-5_寸法線
  6
CONTINUOUS
 62
    7
 10
1351.4604746743425
 20
1454.7684745077609
 11
1336.0056614537175
 21
1450.6273697861207
  0
LINE
  8
_0-5_寸法線
  6
CONTINUOUS
 62
    7
 10
1351.4604746743425
 20
1454.7684745077609
 11
1336.0056614537175
 21
1458.9095792294013
  0
LINE
  8
_0-5_寸法線
  6
CONTINUOUS
 62
    7
 10
357.46047467434255
 20
1454.7684745077609
 11
1351.4604746743425
 21
1454.7684745077609
  0
TEXT
  8
_0-5_寸法線
 62
    7
 10
842.46047467434255
 20
1454.7684745077609
 40
24
 41
1
 50
0
  1
Ｌ
  0
LINE
  8
_0-5_寸法線
  6
CONTINUOUS
 62
    7
 10
357.46047467434255
 20
1102.7684745077609
 11
357.46047467434255
 21
1030.7684745077609
  0
LINE
  8
_0-5_寸法線
  6
CONTINUOUS
 62
    7
 10
357.46047467434255
 20
1038.7684745077609
 11
372.91528789496761
 21
1042.9095792294013
  0
LINE
  8
_0-5_寸法線
  6
CONTINUOUS
 62
    7
 10
357.46047467434255
 20
1038.7684745077609
 11
372.91528789496761
 21
1034.6273697861204
  0
LINE
  8
_0-5_寸法線
  6
CONTINUOUS
 62
    7
 10
1271.4604746743425
 20
1102.7684745077609
 11
1271.4604746743425
 21
1030.7684745077609
  0
LINE
  8
_0-5_寸法線
  6
CONTINUOUS
 62
    7
 10
1271.4604746743425
 20
1038.7684745077609
 11
1256.0056614537175
 21
1034.6273697861207
  0
LINE
  8
_0-5_寸法線
  6
CONTINUOUS
 62
    7
 10
1271.4604746743425
 20
1038.7684745077609
 11
1256.0056614537175
 21
1042.9095792294013
  0
LINE
  8
_0-5_寸法線
  6
CONTINUOUS
 62
    7
 10
357.46047467434255
 20
1038.7684745077609
 11
1271.4604746743425
 21
1038.7684745077609
  0
TEXT
  8
_0-5_寸法線
 62
    7
 10
802.46047467434255
 20
1038.7684745077609
 40
24
 41
1
 50
0
  1
Ｃ
  0
LINE
  8
_0-5_寸法線
  6
CONTINUOUS
 62
    7
 10
1271.4604746743425
 20
1038.7684745077609
 11
1286.9152878949676
 21
1042.9095792294011
  0
LINE
  8
_0-5_寸法線
  6
CONTINUOUS
 62
    7
 10
1271.4604746743425
 20
1038.7684745077609
 11
1286.9152878949676
 21
1034.6273697861204
  0
LINE
  8
_0-5_寸法線
  6
CONTINUOUS
 62
    7
 10
1351.4604746743425
 20
1102.7684745077609
 11
1351.4604746743425
 21
1030.7684745077609
  0
LINE
  8
_0-5_寸法線
  6
CONTINUOUS
 62
    7
 10
1351.4604746743425
 20
1038.7684745077609
 11
1336.0056614537175
 21
1034.6273697861207
  0
LINE
  8
_0-5_寸法線
  6
CONTINUOUS
 62
    7
 10
1351.4604746743425
 20
1038.7684745077609
 11
1336.0056614537175
 21
1042.9095792294013
  0
LINE
  8
_0-5_寸法線
  6
CONTINUOUS
 62
    7
 10
1271.4604746743425
 20
1038.7684745077609
 11
1351.4604746743425
 21
1038.7684745077609
  0
TEXT
  8
_0-5_寸法線
 62
    7
 10
1299.4604746743425
 20
1038.7684745077609
 40
24
 41
1
 50
0
  1
80
  0
LINE
  8
_0-5_寸法線
  6
CONTINUOUS
 62
    7
 10
357.46047467434255
 20
1398.7684745077609
 11
342.00566145371749
 21
1394.6273697861207
  0
LINE
  8
_0-5_寸法線
  6
CONTINUOUS
 62
    7
 10
357.46047467434255
 20
1398.7684745077609
 11
342.00566145371749
 21
1402.9095792294013
  0
LINE
  8
_0-5_寸法線
  6
CONTINUOUS
 62
    7
 10
369.46047467434255
 20
1278.7684745077609
 11
369.46047467434255
 21
1406.7684745077609
  0
LINE
  8
_0-5_寸法線
  6
CONTINUOUS
 62
    7
 10
317.46047467434255
 20
1398.7684745077609
 11
369.46047467434255
 21
1398.7684745077609
  0
TEXT
  8
_0-5_寸法線
 62
    7
 10
315.48676340906604
 20
1398.7684745077609
 40
24
 41
1
 50
0
  1
12
  0
LINE
  8
_0-5_寸法線
  6
CONTINUOUS
 62
    7
 10
369.46047467434255
 20
1398.7684745077609
 11
384.91528789496761
 21
1402.9095792294011
  0
LINE
  8
_0-5_寸法線
  6
CONTINUOUS
 62
    7
 10
369.46047467434255
 20
1398.7684745077609
 11
384.91528789496761
 21
1394.6273697861204
  0
LINE
  8
_0-5_寸法線
  6
CONTINUOUS
 62
    7
 10
1339.4604746743425
 20
1278.7684745077609
 11
1339.4604746743425
 21
1406.7684745077609
  0
LINE
  8
_0-5_寸法線
  6
CONTINUOUS
 62
    7
 10
1339.4604746743425
 20
1398.7684745077609
 11
1324.0056614537175
 21
1394.6273697861207
  0
LINE
  8
_0-5_寸法線
  6
CONTINUOUS
 62
    7
 10
1339.4604746743425
 20
1398.7684745077609
 11
1324.0056614537175
 21
1402.9095792294013
  0
LINE
  8
_0-5_寸法線
  6
CONTINUOUS
 62
    7
 10
369.46047467434255
 20
1398.7684745077609
 11
1339.4604746743425
 21
1398.7684745077609
  0
TEXT
  8
_0-5_寸法線
 62
    7
 10
842.46047467434255
 20
1398.7684745077609
 40
24
 41
1
 50
0
  1
Ａ
  0
LINE
  8
_0-5_寸法線
  6
CONTINUOUS
 62
    7
 10
1351.4604746743425
 20
1398.7684745077609
 11
1366.9152878949676
 21
1402.9095792294011
  0
LINE
  8
_0-5_寸法線
  6
CONTINUOUS
 62
    7
 10
1351.4604746743425
 20
1398.7684745077609
 11
1366.9152878949676
 21
1394.6273697861204
  0
LINE
  8
_0-5_寸法線
  6
CONTINUOUS
 62
    7
 10
1339.4604746743425
 20
1398.7684745077609
 11
1391.4604746743425
 21
1398.7684745077609
  0
TEXT
  8
_0-5_寸法線
 62
    7
 10
1363.7515991760938
 20
1398.7684745077609
 40
24
 41
1
 50
0
  1
12
  0
LINE
  8
_0-5_寸法線
  6
CONTINUOUS
 62
    7
 10
407.60979042549297
 20
1149.8649754222561
 11
417.48882387203412
 21
1137.2790825988557
  0
LINE
  8
_0-5_寸法線
  6
CONTINUOUS
 62
    7
 10
407.60979042549297
 20
1149.8649754222561
 11
409.87233794333349
 21
1134.0257557846126
  0
LINE
  8
_0-5_寸法線
  6
CONTINUOUS
 62
    7
 10
407.60979042549297
 20
1149.8649754222561
 11
440.86783006367011
 21
1072.0033262908662
  0
LINE
  8
_0-5_寸法線
  6
CONTINUOUS
 62
    7
 10
440.86783006367011
 20
1072.0033262908662
 11
618.77360784144889
 21
1072.0033262908662
  0
TEXT
  8
_0-5_寸法線
 62
    7
 10
445.97360784144882
 20
1072.0033262908662
 40
24
 41
0.8000000000000001
 50
0
  1
ＳＵＳグレーチング
  0
LINE
  8
_0-5_寸法線
  6
CONTINUOUS
 62
    7
 10
651.32835231156423
 20
1125.3008902027755
 11
660.83598476167651
 21
1112.4321324852033
  0
LINE
  8
_0-5_寸法線
  6
CONTINUOUS
 62
    7
 10
651.32835231156423
 20
1125.3008902027755
 11
653.12782468442072
 21
1109.4024028791548
  0
LINE
  8
_0-5_寸法線
  6
CONTINUOUS
 62
    7
 10
651.32835231156423
 20
1125.3008902027755
 11
672.32638262152511
 21
1071.8782419858787
  0
LINE
  8
_0-5_寸法線
  6
CONTINUOUS
 62
    7
 10
672.32638262152511
 20
1071.8782419858787
 11
787.52638262152527
 21
1071.8782419858787
  0
TEXT
  8
_0-5_寸法線
 62
    7
 10
672.32638262152511
 20
1071.8782419858787
 40
24
 41
0.8000000000000001
 50
0
  1
排水ユニット
  0
LINE
  8
_0-5_寸法線
  6
CONTINUOUS
 62
    7
 10
357.46047467434255
 20
894.76847450776086
 11
357.46047467434255
 21
966.76847450776086
  0
LINE
  8
_0-5_寸法線
  6
CONTINUOUS
 62
    7
 10
357.46047467434255
 20
958.76847450776086
 11
372.91528789496761
 21
962.90957922940117
  0
LINE
  8
_0-5_寸法線
  6
CONTINUOUS
 62
    7
 10
357.46047467434255
 20
958.76847450776086
 11
372.91528789496761
 21
954.62736978612054
  0
LINE
  8
_0-5_寸法線
  6
CONTINUOUS
 62
    7
 10
392.46047467434255
 20
894.76847450776086
 11
392.46047467434255
 21
966.76847450776086
  0
LINE
  8
_0-5_寸法線
  6
CONTINUOUS
 62
    7
 10
392.46047467434255
 20
958.76847450776086
 11
377.00566145371749
 21
954.62736978612054
  0
LINE
  8
_0-5_寸法線
  6
CONTINUOUS
 62
    7
 10
392.46047467434255
 20
958.76847450776086
 11
377.00566145371749
 21
962.90957922940129
  0
LINE
  8
_0-5_寸法線
  6
CONTINUOUS
 62
    7
 10
357.46047467434255
 20
958.76847450776086
 11
392.46047467434255
 21
958.76847450776086
  0
TEXT
  8
_0-5_寸法線
 62
    7
 10
362.96047467434255
 20
958.76847450776086
 40
24
 41
1
 50
0
  1
35
  0
LINE
  8
_0-5_寸法線
  6
CONTINUOUS
 62
    7
 10
392.46047467434255
 20
958.76847450776086
 11
407.91528789496761
 21
962.90957922940106
  0
LINE
  8
_0-5_寸法線
  6
CONTINUOUS
 62
    7
 10
392.46047467434255
 20
958.76847450776086
 11
407.91528789496761
 21
954.62736978612043
  0
LINE
  8
_0-5_寸法線
  6
CONTINUOUS
 62
    7
 10
1316.4604746743425
 20
894.76847450776086
 11
1316.4604746743425
 21
966.76847450776086
  0
LINE
  8
_0-5_寸法線
  6
CONTINUOUS
 62
    7
 10
1316.4604746743425
 20
958.76847450776086
 11
1301.0056614537175
 21
954.62736978612054
  0
LINE
  8
_0-5_寸法線
  6
CONTINUOUS
 62
    7
 10
1316.4604746743425
 20
958.76847450776086
 11
1301.0056614537175
 21
962.90957922940129
  0
LINE
  8
_0-5_寸法線
  6
CONTINUOUS
 62
    7
 10
392.46047467434255
 20
958.76847450776086
 11
1316.4604746743425
 21
958.76847450776086
  0
TEXT
  8
_0-5_寸法線
 62
    7
 10
794.46047467434255
 20
958.76847450776086
 40
24
 41
1
 50
0
  1
Ｄ＝Ｎ×Ｅ
  0
LINE
  8
_0-5_寸法線
  6
CONTINUOUS
 62
    7
 10
1316.4604746743425
 20
958.76847450776086
 11
1331.9152878949676
 21
962.90957922940106
  0
LINE
  8
_0-5_寸法線
  6
CONTINUOUS
 62
    7
 10
1316.4604746743425
 20
958.76847450776086
 11
1331.9152878949676
 21
954.62736978612043
  0
LINE
  8
_0-5_寸法線
  6
CONTINUOUS
 62
    7
 10
1351.4604746743425
 20
894.76847450776086
 11
1351.4604746743425
 21
966.76847450776086
  0
LINE
  8
_0-5_寸法線
  6
CONTINUOUS
 62
    7
 10
1351.4604746743425
 20
958.76847450776086
 11
1336.0056614537175
 21
954.62736978612054
  0
LINE
  8
_0-5_寸法線
  6
CONTINUOUS
 62
    7
 10
1351.4604746743425
 20
958.76847450776086
 11
1336.0056614537175
 21
962.90957922940129
  0
LINE
  8
_0-5_寸法線
  6
CONTINUOUS
 62
    7
 10
1316.4604746743425
 20
958.76847450776086
 11
1351.4604746743425
 21
958.76847450776086
  0
TEXT
  8
_0-5_寸法線
 62
    7
 10
1321.9604746743425
 20
958.76847450776086
 40
24
 41
1
 50
0
  1
35
  0
LINE
  8
_0-1_計細線
  6
CONTINUOUS
 62
    3
 10
1271.4604745400641
 20
778.76847447178102
 11
1196.4604742339127
 21
778.76847447178102
  0
LINE
  8
_0-1_計細線
  6
CONTINUOUS
 62
    3
 10
357.46047454006407
 20
870.76847447178102
 11
1271.4604745400641
 21
870.76847447178102
  0
LINE
  8
_0-1_計細線
  6
CONTINUOUS
 62
    3
 10
368.46047454006407
 20
798.76847447178102
 11
368.46047454006407
 21
870.76847447178102
  0
LINE
  8
_0-1_計細線
  6
CONTINUOUS
 62
    3
 10
1271.4604745400641
 20
858.76847447178102
 11
1337.9604745400641
 21
858.76847447178102
  0
LINE
  8
_0-1_計細線
  6
CONTINUOUS
 62
    3
 10
1271.4604745400641
 20
874.86847447178116
 11
1337.9604745400641
 21
874.86847447178116
  0
LINE
  8
_0-1_計細線
  6
CONTINUOUS
 62
    3
 10
1337.9604745400641
 20
878.76847447178102
 11
1337.9604745400641
 21
858.76847447178102
  0
LINE
  8
_0-0_計極細
  6
CONTINUOUS
 62
    2
 10
1271.4604745400641
 20
877.66847447178111
 11
1337.9604745400641
 21
877.66847447178111
  0
LINE
  8
_0-1_計細線
  6
CONTINUOUS
 62
    3
 10
384.46047469314476
 20
798.38200103798863
 11
368.46047454006407
 21
798.76847447178102
  0
LINE
  8
_0-5_寸法線
  6
CONTINUOUS
 62
    7
 10
392.46047454006407
 20
775.17616545024271
 11
401.18576196040044
 21
761.76462715545631
  0
LINE
  8
_0-5_寸法線
  6
CONTINUOUS
 62
    7
 10
392.46047454006407
 20
775.17616545024271
 11
393.31102595400284
 21
759.1987888729617
  0
LINE
  8
_0-5_寸法線
  6
CONTINUOUS
 62
    7
 10
392.46047454006407
 20
775.17616545024271
 11
405.60102784473679
 21
734.84689413245383
  0
LINE
  8
_0-5_寸法線
  6
CONTINUOUS
 62
    7
 10
405.60102784473679
 20
734.84689413245383
 11
482.40102784473675
 21
734.84689413245383
  0
TEXT
  8
_0-5_寸法線
 62
    7
 10
405.60102784473679
 20
734.84689413245383
 40
24
 41
0.8000000000000001
 50
0
  1
アンカー
  0
LINE
  8
_0-1_計細線
  6
CONTINUOUS
 62
    3
 10
846.46047469314476
 20
787.22258074400747
 11
400.28409687832777
 21
797.99978794158687
  0
LINE
  8
_0-1_計細線
  6
CONTINUOUS
 62
    3
 10
1196.4604742339127
 20
778.76847447178102
 11
862.27179514524255
 21
786.84066479091712
  0
LINE
  8
_0-1_計細線
  6
CONTINUOUS
 62
    3
 10
386.46047469314476
 20
810.17616545024271
 11
384.46047469314476
 21
808.17616545024271
  0
LINE
  8
_0-1_計細線
  6
CONTINUOUS
 62
    3
 10
384.46047469314476
 20
798.17616545024271
 11
384.46047469314476
 21
808.17616545024271
  0
LINE
  8
_0-1_計細線
  6
CONTINUOUS
 62
    3
 10
400.46047438698338
 20
798.17616545024271
 11
400.46047438698338
 21
808.17616545024271
  0
LINE
  8
_0-1_計細線
  6
CONTINUOUS
 62
    3
 10
386.46047469314476
 20
794.17616545024271
 11
384.46047469314476
 21
792.17616545024271
  0
LINE
  8
_0-1_計細線
  6
CONTINUOUS
 62
    3
 10
386.46047469314476
 20
796.17616545024271
 11
386.46047469314476
 21
794.17616545024271
  0
LINE
  8
_0-1_計細線
  6
CONTINUOUS
 62
    3
 10
384.46047469314476
 20
798.17616545024271
 11
386.46047469314476
 21
796.17616545024271
  0
LINE
  8
_0-1_計細線
  6
CONTINUOUS
 62
    3
 10
398.46047438698338
 20
794.17616545024271
 11
400.46047438698338
 21
792.17616545024271
  0
LINE
  8
_0-1_計細線
  6
CONTINUOUS
 62
    3
 10
398.46047438698338
 20
796.17616545024271
 11
398.46047438698338
 21
794.17616545024271
  0
LINE
  8
_0-1_計細線
  6
CONTINUOUS
 62
    3
 10
400.46047438698338
 20
798.17616545024271
 11
398.46047438698338
 21
796.17616545024271
  0
LINE
  8
_0-1_計細線
  6
CONTINUOUS
 62
    3
 10
384.46047469314476
 20
792.17616545024271
 11
384.46047469314476
 21
778.17616545024271
  0
ARC
  8
_0-1_計細線
  6
CONTINUOUS
 62
    3
 10
387.46047469314476
 20
778.17616545024271
 40
3
 50
179.99999999999983
 51
269.99999999999977
  0
LINE
  8
_0-1_計細線
  6
CONTINUOUS
 62
    3
 10
387.46047469314476
 20
775.17616545024271
 11
397.46047438698338
 21
775.17616545024271
  0
LINE
  8
_0-1_計細線
  6
CONTINUOUS
 62
    3
 10
400.46047438698338
 20
792.17616545024271
 11
400.46047438698338
 21
778.17616545024271
  0
ARC
  8
_0-1_計細線
  6
CONTINUOUS
 62
    3
 10
397.46047438698338
 20
778.17616545024271
 40
3
 50
269.99999999999977
 51
359.99999999999966
  0
LINE
  8
_0-1_計細線
  6
CONTINUOUS
 62
    3
 10
386.46047469314476
 20
810.17616545024271
 11
398.46047438698338
 21
810.17616545024271
  0
LINE
  8
_0-1_計細線
  6
CONTINUOUS
 62
    3
 10
400.46047438698338
 20
808.17616545024271
 11
398.46047438698338
 21
810.17616545024271
  0
LINE
  8
_0-0_計極細
  6
CENTER1
 62
    2
 10
392.46047454006407
 20
770.39328372450382
 11
392.46047454006407
 21
815.44698380204159
  0
LINE
  8
_0-1_計細線
  6
CONTINUOUS
 62
    3
 10
848.46047469314476
 20
799.02934403265795
 11
846.46047469314476
 21
797.02934403265795
  0
LINE
  8
_0-1_計細線
  6
CONTINUOUS
 62
    3
 10
846.46047469314476
 20
787.02934403265795
 11
846.46047469314476
 21
797.02934403265795
  0
LINE
  8
_0-1_計細線
  6
CONTINUOUS
 62
    3
 10
862.46047438698338
 20
787.02934403265795
 11
862.46047438698338
 21
797.02934403265795
  0
LINE
  8
_0-1_計細線
  6
CONTINUOUS
 62
    3
 10
848.46047469314476
 20
783.02934403265795
 11
846.46047469314476
 21
781.02934403265795
  0
LINE
  8
_0-1_計細線
  6
CONTINUOUS
 62
    3
 10
848.46047469314476
 20
785.02934403265795
 11
848.46047469314476
 21
783.02934403265795
  0
LINE
  8
_0-1_計細線
  6
CONTINUOUS
 62
    3
 10
846.46047469314476
 20
787.02934403265795
 11
848.46047469314476
 21
785.02934403265795
  0
LINE
  8
_0-1_計細線
  6
CONTINUOUS
 62
    3
 10
860.46047438698338
 20
783.02934403265795
 11
862.46047438698338
 21
781.02934403265795
  0
LINE
  8
_0-1_計細線
  6
CONTINUOUS
 62
    3
 10
860.46047438698338
 20
785.02934403265795
 11
860.46047438698338
 21
783.02934403265795
  0
LINE
  8
_0-1_計細線
  6
CONTINUOUS
 62
    3
 10
862.46047438698338
 20
787.02934403265795
 11
860.46047438698338
 21
785.02934403265795
  0
LINE
  8
_0-1_計細線
  6
CONTINUOUS
 62
    3
 10
846.46047469314476
 20
781.02934403265795
 11
846.46047469314476
 21
767.02934403265795
  0
ARC
  8
_0-1_計細線
  6
CONTINUOUS
 62
    3
 10
849.46047469314476
 20
767.02934403265795
 40
3
 50
179.99999999999983
 51
269.99999999999977
  0
LINE
  8
_0-1_計細線
  6
CONTINUOUS
 62
    3
 10
849.46047469314476
 20
764.02934403265795
 11
859.46047438698338
 21
764.02934403265795
  0
LINE
  8
_0-1_計細線
  6
CONTINUOUS
 62
    3
 10
862.46047438698338
 20
781.02934403265795
 11
862.46047438698338
 21
767.02934403265795
  0
ARC
  8
_0-1_計細線
  6
CONTINUOUS
 62
    3
 10
859.46047438698338
 20
767.02934403265795
 40
3
 50
269.99999999999977
 51
359.99999999999966
  0
LINE
  8
_0-1_計細線
  6
CONTINUOUS
 62
    3
 10
848.46047469314476
 20
799.02934403265795
 11
860.46047438698338
 21
799.02934403265795
  0
LINE
  8
_0-1_計細線
  6
CONTINUOUS
 62
    3
 10
862.46047438698338
 20
797.02934403265795
 11
860.46047438698338
 21
799.02934403265795
  0
LINE
  8
_0-0_計極細
  6
CENTER1
 62
    2
 10
854.46047454006407
 20
759.24646230691883
 11
854.46047454006407
 21
804.30016238445683
  0
LINE
  8
_0-1_計細線
  6
DASHED2
 62
    3
 10
1324.4604743869834
 20
788.76847447178102
 11
1322.4604743869834
 21
790.76847447178102
  0
LINE
  8
_0-1_計細線
  6
DASHED2
 62
    3
 10
1310.4604746931448
 20
790.76847447178102
 11
1322.4604743869834
 21
790.76847447178102
  0
ARC
  8
_0-1_計細線
  6
DASHED2
 62
    3
 10
1321.4604743869834
 20
758.76847447178102
 40
3
 50
269.99999999999977
 51
359.99999999999966
  0
LINE
  8
_0-1_計細線
  6
DASHED2
 62
    3
 10
1324.4604743869834
 20
772.76847447178102
 11
1324.4604743869834
 21
758.76847447178102
  0
LINE
  8
_0-1_計細線
  6
DASHED2
 62
    3
 10
1311.4604746931448
 20
755.76847447178102
 11
1321.4604743869834
 21
755.76847447178102
  0
ARC
  8
_0-1_計細線
  6
DASHED2
 62
    3
 10
1311.4604746931448
 20
758.76847447178102
 40
3
 50
179.99999999999983
 51
269.99999999999977
  0
LINE
  8
_0-1_計細線
  6
DASHED2
 62
    3
 10
1308.4604746931448
 20
772.76847447178102
 11
1308.4604746931448
 21
758.76847447178102
  0
LINE
  8
_0-1_計細線
  6
DASHED2
 62
    3
 10
1324.4604743869834
 20
778.76847447178102
 11
1322.4604743869834
 21
776.76847447178102
  0
LINE
  8
_0-1_計細線
  6
DASHED2
 62
    3
 10
1322.4604743869834
 20
776.76847447178102
 11
1322.4604743869834
 21
774.76847447178102
  0
LINE
  8
_0-1_計細線
  6
DASHED2
 62
    3
 10
1322.4604743869834
 20
774.76847447178102
 11
1324.4604743869834
 21
772.76847447178102
  0
LINE
  8
_0-1_計細線
  6
DASHED2
 62
    3
 10
1308.4604746931448
 20
778.76847447178102
 11
1310.4604746931448
 21
776.76847447178102
  0
LINE
  8
_0-1_計細線
  6
DASHED2
 62
    3
 10
1310.4604746931448
 20
776.76847447178102
 11
1310.4604746931448
 21
774.76847447178102
  0
LINE
  8
_0-1_計細線
  6
DASHED2
 62
    3
 10
1310.4604746931448
 20
774.76847447178102
 11
1308.4604746931448
 21
772.76847447178102
  0
LINE
  8
_0-1_計細線
  6
DASHED2
 62
    3
 10
1324.4604743869834
 20
778.76847447178102
 11
1324.4604743869834
 21
788.76847447178102
  0
LINE
  8
_0-1_計細線
  6
DASHED2
 62
    3
 10
1308.4604746931448
 20
778.76847447178102
 11
1308.4604746931448
 21
788.76847447178102
  0
LINE
  8
_0-1_計細線
  6
DASHED2
 62
    3
 10
1310.4604746931448
 20
790.76847447178102
 11
1308.4604746931448
 21
788.76847447178102
  0
LINE
  8
_0-0_計極細
  6
DASHED2
 62
    2
 10
1316.4604745400641
 20
750.98559274604213
 11
1316.4604745400641
 21
796.0392928235799
  0
LINE
  8
_0-1_計細線
  6
CONTINUOUS
 62
    3
 10
1328.4604745400641
 20
774.76847447178102
 11
1327.4604745400641
 21
774.76847447178102
  0
LINE
  8
_0-1_計細線
  6
CONTINUOUS
 62
    3
 10
1328.4604745400641
 20
775.76847447178102
 11
1327.4604745400641
 21
775.76847447178102
  0
ARC
  8
_0-1_計細線
  6
CONTINUOUS
 62
    3
 10
1330.4604745400641
 20
778.26847447178102
 40
1.5
 50
89.999999999999915
 51
179.99999999999983
  0
LINE
  8
_0-1_計細線
  6
CONTINUOUS
 62
    3
 10
1328.9604745400641
 20
778.26847447178102
 11
1328.9604745400641
 21
776.26847447178102
  0
ARC
  8
_0-1_計細線
  6
CONTINUOUS
 62
    3
 10
1328.4604745400641
 20
776.26847447178102
 40
1.5
 50
269.99999999999977
 51
359.99999999999966
  0
LINE
  8
_0-1_計細線
  6
CONTINUOUS
 62
    3
 10
1329.9604745400641
 20
778.26847447178102
 11
1329.9604745400641
 21
776.26847447178102
  0
ARC
  8
_0-1_計細線
  6
CONTINUOUS
 62
    3
 10
1330.4604745400641
 20
778.26847447178102
 40
0.5
 50
89.999999999999915
 51
179.99999999999983
  0
LINE
  8
_0-1_計細線
  6
CONTINUOUS
 62
    3
 10
1339.4604745400641
 20
778.76847447178102
 11
1330.4604745400641
 21
778.76847447178102
  0
ARC
  8
_0-1_計細線
  6
CONTINUOUS
 62
    3
 10
1328.4604745400641
 20
776.26847447178102
 40
0.5
 50
269.99999999999977
 51
359.99999999999966
  0
LINE
  8
_0-1_計細線
  6
CONTINUOUS
 62
    3
 10
1339.4604745400641
 20
779.76847447178102
 11
1330.4604745400641
 21
779.76847447178102
  0
ARC
  8
_0-1_計細線
  6
CONTINUOUS
 62
    3
 10
1339.4604745400641
 20
779.76847447178102
 40
1
 50
269.99999999999977
 51
359.99999999999966
  0
LINE
  8
_0-1_計細線
  6
CONTINUOUS
 62
    3
 10
1340.4604745400641
 20
877.76847447178102
 11
1340.4604745400641
 21
779.76847447178102
  0
LINE
  8
_0-1_計細線
  6
CONTINUOUS
 62
    3
 10
1339.4604745400641
 20
877.76847447178102
 11
1339.4604745400641
 21
779.76847447178102
  0
ARC
  8
_0-1_計細線
  6
CONTINUOUS
 62
    3
 10
1340.4604745400641
 20
877.76847447178102
 40
1
 50
89.999999999999915
 51
179.99999999999983
  0
LINE
  8
_0-1_計細線
  6
CONTINUOUS
 62
    3
 10
1350.4604745400641
 20
878.76847447178102
 11
1340.4604745400641
 21
878.76847447178102
  0
ARC
  8
_0-1_計細線
  6
CONTINUOUS
 62
    3
 10
1350.4604745400641
 20
877.76847447178102
 40
1
 50
0
 51
89.999999999999915
  0
LINE
  8
_0-1_計細線
  6
CONTINUOUS
 62
    3
 10
1351.4604745400641
 20
870.76847447178102
 11
1351.4604745400641
 21
877.76847447178102
  0
LINE
  8
_0-1_計細線
  6
CONTINUOUS
 62
    3
 10
1350.4604745400641
 20
870.76847447178102
 11
1351.4604745400641
 21
870.76847447178102
  0
LINE
  8
_0-1_計細線
  6
CONTINUOUS
 62
    3
 10
1350.4604745400641
 20
877.76847447178102
 11
1340.4604745400641
 21
877.76847447178102
  0
LINE
  8
_0-1_計細線
  6
CONTINUOUS
 62
    3
 10
1350.4604745400641
 20
870.76847447178102
 11
1350.4604745400641
 21
877.76847447178102
  0
LINE
  8
_0-1_計細線
  6
CONTINUOUS
 62
    3
 10
357.46047454006407
 20
870.76847447178102
 11
357.46047454006407
 21
877.76847447178102
  0
LINE
  8
_0-1_計細線
  6
CONTINUOUS
 62
    3
 10
1340.4604745400641
 20
878.76847447178102
 11
358.46047454006407
 21
878.76847447178102
  0
ARC
  8
_0-1_計細線
  6
CONTINUOUS
 62
    3
 10
358.46047454006407
 20
877.76847447178102
 40
1
 50
89.999999999999915
 51
179.99999999999983
  0
LINE
  8
_0-5_寸法線
  6
CONTINUOUS
 62
    7
 10
352.46047454006407
 20
798.76847447178102
 11
269.46047454006407
 21
798.76847447178125
  0
LINE
  8
_0-5_寸法線
  6
CONTINUOUS
 62
    7
 10
277.46047454006407
 20
798.76847447178125
 11
273.31936981842375
 21
814.2232876924063
  0
LINE
  8
_0-5_寸法線
  6
CONTINUOUS
 62
    7
 10
277.46047454006407
 20
798.76847447178125
 11
281.6015792617045
 21
814.2232876924063
  0
LINE
  8
_0-5_寸法線
  6
CONTINUOUS
 62
    7
 10
341.46047454006407
 20
878.76847447178102
 11
269.46047454006407
 21
878.76847447178125
  0
LINE
  8
_0-5_寸法線
  6
CONTINUOUS
 62
    7
 10
277.46047454006407
 20
878.76847447178125
 11
281.6015792617045
 21
863.31366125115619
  0
LINE
  8
_0-5_寸法線
  6
CONTINUOUS
 62
    7
 10
277.46047454006407
 20
878.76847447178125
 11
273.31936981842375
 21
863.31366125115619
  0
LINE
  8
_0-5_寸法線
  6
CONTINUOUS
 62
    7
 10
277.46047454006407
 20
798.76847447178125
 11
277.46047454006407
 21
878.76847447178125
  0
TEXT
  8
_0-5_寸法線
 62
    7
 10
277.46047454006407
 20
826.76847447178147
 40
24
 41
1
 50
90
  1
80
  0
LINE
  8
_0-1_計細線
  6
CONTINUOUS
 62
    3
 10
1271.4604745400641
 20
777.67553847178112
 11
1327.4604745400641
 21
777.67553847178112
  0
LINE
  8
_0-1_計細線
  6
CONTINUOUS
 62
    3
 10
1324.4604745400641
 20
753.26847447178102
 11
1324.4604745400641
 21
761.26847447178102
  0
ARC
  8
_0-1_計細線
  6
CONTINUOUS
 62
    3
 10
1326.9604745400641
 20
748.93834647178141
 40
5
 50
119.99999999999989
 51
179.99999999999983
  0
LINE
  8
_0-1_計細線
  6
CONTINUOUS
 62
    3
 10
1271.4604745400641
 20
761.26847447178102
 11
1269.4604745400641
 21
761.26847447178102
  0
LINE
  8
_0-1_計細線
  6
CONTINUOUS
 62
    3
 10
1269.4604745400641
 20
761.26847447178102
 11
1269.4604745400641
 21
771.26847447178102
  0
LINE
  8
_0-1_計細線
  6
CONTINUOUS
 62
    3
 10
1245.9604745400641
 20
761.26847447178102
 11
1245.9604745400641
 21
771.26847447178102
  0
LINE
  8
_0-1_計細線
  6
CONTINUOUS
 62
    3
 10
1218.4604745400641
 20
753.26847447178102
 11
1218.4604745400641
 21
771.26847447178102
  0
ARC
  8
_0-1_計細線
  6
CONTINUOUS
 62
    3
 10
1215.9604745400641
 20
748.93834647178141
 40
5
 50
0
 51
60.000000000000107
  0
LINE
  8
_0-1_計細線
  6
CONTINUOUS
 62
    3
 10
1241.9604745400641
 20
761.26847447178102
 11
1241.9604745400641
 21
771.26847447178102
  0
LINE
  8
_0-1_計細線
  6
CONTINUOUS
 62
    3
 10
1271.4604745400641
 20
753.26847447178102
 11
1218.4604745400641
 21
753.26847447178102
  0
LINE
  8
_0-1_計細線
  6
CONTINUOUS
 62
    3
 10
1245.9604745400641
 20
761.26847447178102
 11
1241.9604745400641
 21
761.26847447178102
  0
LINE
  8
_0-0_計極細
  6
CONTINUOUS
 62
    2
 10
1319.9604745400641
 20
756.26847447178102
 11
1319.9604745400641
 21
759.17553847178101
  0
LINE
  8
_0-0_計極細
  6
CONTINUOUS
 62
    2
 10
1321.4394745400652
 20
755.46847447178084
 11
1319.9604745400641
 21
756.26847447178102
  0
LINE
  8
_0-0_計極細
  6
CONTINUOUS
 62
    2
 10
1311.7104745400641
 20
763.17553847178101
 11
1315.7604745400652
 21
763.17553847178101
  0
LINE
  8
_0-0_計極細
  6
CONTINUOUS
 62
    2
 10
1318.7016985400635
 20
774.17553847178101
 11
1317.5104745400652
 21
774.17553847178101
  0
LINE
  8
_0-0_計極細
  6
CONTINUOUS
 62
    2
 10
1315.7604745400652
 20
761.87553847178174
 11
1315.7604745400652
 21
772.42553847178101
  0
ARC
  8
_0-0_計極細
  6
CONTINUOUS
 62
    2
 10
1317.5104745400652
 20
772.42553847178101
 40
1.75
 50
89.999999999999915
 51
179.99999999999983
  0
ARC
  8
_0-0_計極細
  6
CONTINUOUS
 62
    2
 10
1321.4394745400652
 20
774.92553847178101
 40
1.75
 50
89.999999999999915
 51
173.71630243580054
  0
ARC
  8
_0-0_計極細
  6
CONTINUOUS
 62
    2
 10
1318.7016985400635
 20
775.17553847178101
 40
1
 50
269.99999999999977
 51
356.64911200000284
  0
ARC
  8
_0-0_計極細
  6
CONTINUOUS
 62
    2
 10
1321.4394745400652
 20
774.92553847178101
 40
1.05
 50
89.999999999999915
 51
172.98761645885341
  0
ARC
  8
_0-0_計極細
  6
CONTINUOUS
 62
    2
 10
1318.7016985400635
 20
775.17553847178101
 40
1.7
 50
269.99999999999977
 51
355.89100209803809
  0
LINE
  8
_0-0_計極細
  6
CONTINUOUS
 62
    2
 10
1318.7016985400635
 20
773.47553847178119
 11
1317.5104745400652
 21
773.47553847178119
  0
ARC
  8
_0-0_計極細
  6
CONTINUOUS
 62
    2
 10
1317.5104745400652
 20
772.42553847178101
 40
1.05
 50
89.999999999999915
 51
179.99999999999983
  0
LINE
  8
_0-0_計極細
  6
CONTINUOUS
 62
    2
 10
1316.4604745400641
 20
761.17553847178101
 11
1316.4604745400641
 21
772.42553847178101
  0
LINE
  8
_0-0_計極細
  6
CONTINUOUS
 62
    2
 10
1321.4394745400652
 20
760.65453847178128
 11
1321.4394745400652
 21
775.97553847178119
  0
LINE
  8
_0-0_計極細
  6
CONTINUOUS
 62
    2
 10
1321.4394745400652
 20
760.65453847178128
 11
1319.9604745400641
 21
759.17553847178101
  0
LINE
  8
_0-0_計極細
  6
CONTINUOUS
 62
    2
 10
1314.4604745400641
 20
757.17553847178101
 11
1314.4604745400641
 21
763.17553847178101
  0
LINE
  8
_0-0_計極細
  6
CONTINUOUS
 62
    2
 10
1312.2104745400641
 20
759.27631447178123
 11
1312.2104745400641
 21
763.17553847178101
  0
LINE
  8
_0-0_計極細
  6
CONTINUOUS
 62
    2
 10
1314.4604745400641
 20
761.17553847178101
 11
1316.4604745400641
 21
761.17553847178101
  0
LINE
  8
_0-0_計極細
  6
CONTINUOUS
 62
    2
 10
1314.4604745400641
 20
761.87553847178174
 11
1315.7604745400652
 21
761.87553847178174
  0
LINE
  8
_0-0_計極細
  6
CONTINUOUS
 62
    2
 10
1313.6302905400637
 20
757.17553847178101
 11
1314.4604745400641
 21
757.17553847178101
  0
LINE
  8
_0-0_計極細
  6
CONTINUOUS
 62
    2
 10
1314.4604745400641
 20
759.17553847178101
 11
1319.9604745400641
 21
759.17553847178101
  0
LINE
  8
_0-0_計極細
  6
CONTINUOUS
 62
    2
 10
1315.7604745400652
 20
774.17553847178101
 11
1317.7104745400641
 21
774.17553847178101
  0
LINE
  8
_0-0_計極細
  6
CONTINUOUS
 62
    2
 10
1315.7604745400652
 20
771.17553847178101
 11
1315.7604745400652
 21
774.17553847178101
  0
ARC
  8
_0-0_計極細
  6
CONTINUOUS
 62
    2
 10
1315.2604745400652
 20
771.17553847178101
 40
0.5
 50
269.99999999999977
 51
359.99999999999966
  0
LINE
  8
_0-0_計極細
  6
CONTINUOUS
 62
    2
 10
1311.2104745400641
 20
769.58165047178159
 11
1311.2104745400641
 21
769.08165047178159
  0
LINE
  8
_0-0_計極細
  6
CONTINUOUS
 62
    2
 10
1314.8104745400644
 20
768.08165047178159
 11
1315.6104745400637
 21
769.58165047178159
  0
LINE
  8
_0-0_計極細
  6
CONTINUOUS
 62
    2
 10
1310.7104745400641
 20
766.2816504717814
 11
1311.2104745400641
 21
766.7816504717814
  0
LINE
  8
_0-0_計極細
  6
CONTINUOUS
 62
    2
 10
1311.2104745400641
 20
765.7816504717814
 11
1310.7104745400641
 21
766.2816504717814
  0
LINE
  8
_0-0_計極細
  6
CONTINUOUS
 62
    2
 10
1311.2104745400641
 20
768.08165047178159
 11
1310.7104745400641
 21
768.58165047178159
  0
LINE
  8
_0-0_計極細
  6
CONTINUOUS
 62
    2
 10
1310.7104745400641
 20
768.58165047178159
 11
1311.2104745400641
 21
769.08165047178159
  0
LINE
  8
_0-0_計極細
  6
CONTINUOUS
 62
    2
 10
1314.8104745400644
 20
768.08165047178159
 11
1314.8104745400644
 21
765.2816504717814
  0
LINE
  8
_0-0_計極細
  6
CONTINUOUS
 62
    2
 10
1311.2104745400641
 20
765.7816504717814
 11
1311.2104745400641
 21
765.2816504717814
  0
LINE
  8
_0-0_計極細
  6
CONTINUOUS
 62
    2
 10
1311.2104745400641
 20
768.08165047178159
 11
1311.2104745400641
 21
766.7816504717814
  0
ARC
  8
_0-0_計極細
  6
CONTINUOUS
 62
    2
 10
1311.9604745400641
 20
758.27631447178123
 40
2
 50
269.99999999999977
 51
359.99999999999966
  0
LINE
  8
_0-0_計極細
  6
CONTINUOUS
 62
    2
 10
1313.9604745400641
 20
758.27631447178123
 11
1313.9604745400641
 21
759.27631447178123
  0
LINE
  8
_0-0_計極細
  6
CONTINUOUS
 62
    2
 10
1313.9604745400641
 20
759.27631447178123
 11
1311.7104745400641
 21
759.27631447178123
  0
LINE
  8
_0-0_計極細
  6
CONTINUOUS
 62
    2
 10
1314.9604745400641
 20
763.67631447178178
 11
1314.9604745400641
 21
765.17631447178178
  0
LINE
  8
_0-0_計極細
  6
CONTINUOUS
 62
    2
 10
1314.9604745400641
 20
769.77631447178123
 11
1314.9604745400641
 21
770.67553847178101
  0
LINE
  8
_0-0_計極細
  6
CONTINUOUS
 62
    2
 10
1311.7104745400641
 20
759.27631447178123
 11
1311.7104745400641
 21
763.67631447178178
  0
ARC
  8
_0-0_計極細
  6
CONTINUOUS
 62
    2
 10
1309.7104745400641
 20
749.26847447178102
 40
1
 50
89.999999999999915
 51
179.99999999999983
  0
LINE
  8
_0-0_計極細
  6
CONTINUOUS
 62
    2
 10
1309.7104745400641
 20
750.26847447178102
 11
1298.4604745400641
 21
750.26847447178102
  0
LINE
  8
_0-0_計極細
  6
CONTINUOUS
 62
    2
 10
1299.0176345400644
 20
759.17553847178101
 11
1308.9587785400647
 21
759.17553847178101
  0
LINE
  8
_0-0_計極細
  6
CONTINUOUS
 62
    2
 10
1301.2467865400642
 20
757.47553847178119
 11
1306.2467865400642
 21
757.47553847178119
  0
LINE
  8
_0-0_計極細
  6
CONTINUOUS
 62
    2
 10
1301.2467865400642
 20
757.47553847178119
 11
1301.2467865400642
 21
759.17553847178101
  0
LINE
  8
_0-0_計極細
  6
CONTINUOUS
 62
    2
 10
1306.2467865400642
 20
757.47553847178119
 11
1306.2467865400642
 21
759.17553847178101
  0
LINE
  8
_0-0_計極細
  6
CONTINUOUS
 62
    2
 10
1302.7467865400642
 20
757.47553847178119
 11
1302.7467865400642
 21
759.17553847178101
  0
ARC
  8
_0-0_計極細
  6
CONTINUOUS
 62
    2
 10
1304.4604745400641
 20
756.65056247178131
 40
6
 50
55.166294000000143
 51
179.99999999999983
  0
ARC
  8
_0-0_計極細
  6
CONTINUOUS
 62
    2
 10
1305.9604745400641
 20
759.27631447178123
 40
3
 50
0
 51
50.029503000001569
  0
LINE
  8
_0-0_計極細
  6
CONTINUOUS
 62
    2
 10
1308.9604745400641
 20
756.27631447178123
 11
1308.9604745400641
 21
759.27631447178123
  0
ARC
  8
_0-0_計極細
  6
CONTINUOUS
 62
    2
 10
1309.7104745400641
 20
749.26847447178102
 40
1
 50
0
 51
89.999999999999915
  0
LINE
  8
_0-0_計極細
  6
CONTINUOUS
 62
    2
 10
1311.9604745400641
 20
756.27631447178123
 11
1308.9604745400641
 21
756.27631447178123
  0
LINE
  8
_0-0_計極細
  6
CONTINUOUS
 62
    2
 10
1298.4604745400641
 20
756.26847447178102
 11
1319.9604745400641
 21
756.26847447178102
  0
LINE
  8
_0-0_計極細
  6
CONTINUOUS
 62
    2
 10
1298.3633465400646
 20
755.46847447178084
 11
1321.4394745400652
 21
755.46847447178084
  0
LINE
  8
_0-0_計極細
  6
CONTINUOUS
 62
    2
 10
1271.4604745400641
 20
755.46847447178084
 11
1296.4604585400641
 21
755.46847447178084
  0
LINE
  8
_0-0_計極細
  6
CONTINUOUS
 62
    2
 10
1271.4604745400641
 20
776.67553847178101
 11
1321.4394745400652
 21
776.67553847178101
  0
LINE
  8
_0-0_計極細
  6
CONTINUOUS
 62
    2
 10
1271.6604745400648
 20
771.67553847178101
 11
1314.6604745400648
 21
771.67553847178101
  0
LINE
  8
_0-0_計極細
  6
CONTINUOUS
 62
    2
 10
1271.6604745400648
 20
770.67553847178101
 11
1315.2604745400652
 21
770.67553847178101
  0
LINE
  8
_0-0_計極細
  6
CONTINUOUS
 62
    2
 10
1271.4604745400641
 20
769.58165047178159
 11
1315.6104745400637
 21
769.58165047178159
  0
LINE
  8
_0-0_計極細
  6
CONTINUOUS
 62
    2
 10
1271.4604745400641
 20
768.58165047178159
 11
1310.7104745400641
 21
768.58165047178159
  0
LINE
  8
_0-0_計極細
  6
CONTINUOUS
 62
    2
 10
1271.4604745400641
 20
766.2816504717814
 11
1310.7104745400641
 21
766.2816504717814
  0
LINE
  8
_0-0_計極細
  6
CONTINUOUS
 62
    2
 10
1271.4604745400641
 20
765.2816504717814
 11
1314.8104745400644
 21
765.2816504717814
  0
LINE
  8
_0-0_計極細
  6
CONTINUOUS
 62
    2
 10
1314.9604745400641
 20
763.67631447178178
 11
1271.4604745400641
 21
763.67631447178178
  0
LINE
  8
_0-0_計極細
  6
CONTINUOUS
 62
    2
 10
1314.9604745400641
 20
765.17631447178178
 11
1271.4604745400641
 21
765.17631447178178
  0
LINE
  8
_0-0_計極細
  6
CONTINUOUS
 62
    2
 10
1314.9604745400641
 20
769.77631447178123
 11
1271.4604745400641
 21
769.77631447178123
  0
LINE
  8
_0-0_計極細
  6
CONTINUOUS
 62
    2
 10
1271.4604745400641
 20
748.93834647178141
 11
1220.9604745400641
 21
748.93834647178141
  0
LINE
  8
_0-1_計細線
  6
CONTINUOUS
 62
    3
 10
1327.4604745400641
 20
761.26847447178102
 11
1327.4604745400641
 21
777.67553847178101
  0
LINE
  8
_0-0_計極細
  6
CONTINUOUS
 62
    2
 10
1321.4394745400652
 20
776.67553847178101
 11
1327.4604745400641
 21
777.67553847178101
  0
LINE
  8
_0-0_計極細
  6
CONTINUOUS
 62
    2
 10
1321.4394745400652
 20
775.96847199768149
 11
1327.4604745400641
 21
776.96847745711079
  0
LINE
  8
_0-0_計極細
  6
CONTINUOUS
 62
    2
 10
1327.4604745400641
 20
775.26847447178102
 11
1321.4394745400652
 21
774.46847447178084
  0
LINE
  8
_0-1_計細線
  6
CONTINUOUS
 62
    3
 10
1324.4604745400641
 20
761.26847447178102
 11
1327.4604745400641
 21
761.26847447178102
  0
LINE
  8
_0-1_計細線
  6
CONTINUOUS
 62
    3
 10
1215.4604745400641
 20
761.26847447178102
 11
1215.4604745400641
 21
775.26847447178102
  0
LINE
  8
_0-1_計細線
  6
CONTINUOUS
 62
    3
 10
1218.4604745400641
 20
761.26847447178102
 11
1215.4604745400641
 21
761.26847447178102
  0
LINE
  8
_0-1_計細線
  6
CONTINUOUS
 62
    3
 10
1271.4604745400641
 20
771.26847447178102
 11
1215.4604745400641
 21
771.26847447178102
  0
LINE
  8
_0-1_計細線
  6
CONTINUOUS
 62
    3
 10
1215.7216985400639
 20
775.26849119178473
 11
1271.4604745400641
 21
775.26849119178473
  0
LINE
  8
_0-1_計細線
  6
CONTINUOUS
 62
    3
 10
1212.96060070009
 20
777.26849119178473
 11
1212.96060070009
 21
778.76847447178102
  0
ARC
  8
_0-1_計細線
  6
CONTINUOUS
 62
    3
 10
1214.96060070009
 20
777.26849119178473
 40
2
 50
179.99999999999983
 51
269.99999999999977
  0
LINE
  8
_0-1_計細線
  6
CONTINUOUS
 62
    3
 10
1214.96060070009
 20
775.26849119178473
 11
1220.4604745400641
 21
775.26849119178473
  0
LINE
  8
_0-1_計細線
  6
CONTINUOUS
 62
    3
 10
1312.5604745400644
 20
642.76847447178102
 11
1312.9604745400641
 21
667.76847447178102
  0
LINE
  8
_0-1_計細線
  6
CONTINUOUS
 62
    3
 10
1312.9604745400641
 20
667.76847447178102
 11
1313.9604745400641
 21
667.76847447178102
  0
ARC
  8
_0-1_計細線
  6
CONTINUOUS
 62
    3
 10
1313.9604745400641
 20
675.76847447178102
 40
8
 50
269.99999999999977
 51
359.99999999999966
  0
LINE
  8
_0-1_計細線
  6
CONTINUOUS
 62
    3
 10
1299.0438025400647
 20
642.76847447178102
 11
1312.5604745400644
 21
642.76847447178102
  0
LINE
  8
_0-1_計細線
  6
CONTINUOUS
 62
    3
 10
1321.9604745400641
 20
675.76847447178102
 11
1321.9604745400641
 21
748.93834647178141
  0
LINE
  8
_0-1_計細線
  6
CONTINUOUS
 62
    3
 10
1271.4604745400641
 20
637.76847447178102
 11
1298.9604745400641
 21
637.76847447178102
  0
LINE
  8
_0-0_計極細
  6
CONTINUOUS
 62
    2
 10
1310.7104745400641
 20
692.26847447178102
 11
1310.7104745400641
 21
719.26847447178102
  0
ARC
  8
_0-0_計極細
  6
CONTINUOUS
 62
    2
 10
1318.4604745400641
 20
729.19004247178168
 40
1
 50
277.18075600000213
 51
359.99999999999966
  0
LINE
  8
_0-0_計極細
  6
CONTINUOUS
 62
    2
 10
1310.7104745400641
 20
728.19788247178099
 11
1318.5854745400641
 21
728.19788247178099
  0
ARC
  8
_0-0_計極細
  6
CONTINUOUS
 62
    2
 10
1297.4604745400641
 20
700.47631447178105
 40
1
 50
269.99999999999977
 51
359.99999999999966
  0
ARC
  8
_0-0_計極細
  6
CONTINUOUS
 62
    2
 10
1297.4604585400641
 20
700.47631447178105
 40
1
 50
179.99999999999983
 51
269.99999999999977
  0
LINE
  8
_0-0_計極細
  6
CONTINUOUS
 62
    2
 10
1298.4520025400645
 20
700.34653847178129
 11
1298.4520185400645
 21
700.34655447178125
  0
ARC
  8
_0-0_計極細
  6
CONTINUOUS
 62
    2
 10
1311.4604745400641
 20
678.26847447178102
 40
8
 50
269.99999999999977
 51
359.99999999999966
  0
LINE
  8
_0-0_計極細
  6
CONTINUOUS
 62
    2
 10
1299.4604745400641
 20
667.76847447178102
 11
1309.4604745400641
 21
667.76847447178102
  0
LINE
  8
_0-0_計極細
  6
CONTINUOUS
 62
    2
 10
1296.4620505400646
 20
670.16580247178103
 11
1296.4604745400641
 21
670.26847447178102
  0
LINE
  8
_0-0_計極細
  6
CONTINUOUS
 62
    2
 10
1298.7104745400641
 20
680.26847447178102
 11
1296.4604745400641
 21
680.26847447178102
  0
LINE
  8
_0-0_計極細
  6
CONTINUOUS
 62
    2
 10
1296.4604745400641
 20
670.26847447178102
 11
1296.4604745400641
 21
680.26847447178102
  0
LINE
  8
_0-0_計極細
  6
CONTINUOUS
 62
    2
 10
1309.7104745400641
 20
642.76847447178102
 11
1309.4604745400641
 21
667.76847447178102
  0
LINE
  8
_0-0_計極細
  6
CONTINUOUS
 62
    2
 10
1311.4604745400641
 20
670.26847447178102
 11
1296.4604745400641
 21
670.26847447178102
  0
LINE
  8
_0-0_計極細
  6
CONTINUOUS
 62
    2
 10
1319.4604745400641
 20
678.26847447178102
 11
1319.4604745400641
 21
729.19004247178168
  0
ARC
  8
_0-0_計極細
  6
CONTINUOUS
 62
    2
 10
1298.7104745400641
 20
692.26847447178102
 40
12
 50
269.99999999999977
 51
359.99999999999966
  0
ARC
  8
_0-0_計極細
  6
CONTINUOUS
 62
    2
 10
1298.7104745400641
 20
692.26847447178102
 40
10
 50
269.99999999999977
 51
359.99999999999966
  0
LINE
  8
_0-0_計極細
  6
CONTINUOUS
 62
    2
 10
1319.4604745400641
 20
729.19004247178168
 11
1319.4604745400641
 21
755.46847447178084
  0
LINE
  8
_0-0_計極細
  6
CONTINUOUS
 62
    2
 10
1310.7104745400641
 20
692.26847447178102
 11
1310.7104745400641
 21
749.26847447178102
  0
LINE
  8
_0-0_計極細
  6
CONTINUOUS
 62
    2
 10
1308.7104745400641
 20
692.26847447178102
 11
1308.7104745400641
 21
749.26847447178102
  0
LINE
  8
_0-0_計極細
  6
CONTINUOUS
 62
    2
 10
1298.4604745400641
 20
700.47631447178105
 11
1298.4604745400641
 21
756.65056247178131
  0
LINE
  8
_0-0_計極細
  6
CONTINUOUS
 62
    2
 10
1296.4604585400641
 20
700.47631447178105
 11
1296.4604585400641
 21
755.46847447178084
  0
LINE
  8
_0-0_計極細
  6
CONTINUOUS
 62
    2
 10
1272.4570505400636
 20
670.76502647178154
 11
1272.3915785400652
 21
680.25819447178151
  0
ARC
  8
_0-0_計極細
  6
CONTINUOUS
 62
    2
 10
1272.9570345400655
 20
670.76847447178102
 40
0.5
 50
180.39513700000634
 51
269.99999999999977
  0
LINE
  8
_0-0_計極細
  6
CONTINUOUS
 62
    2
 10
1271.4604745400641
 20
680.26847447178102
 11
1272.3915065400645
 21
680.26847447178102
  0
LINE
  8
_0-0_計極細
  6
CONTINUOUS
 62
    2
 10
1296.4604745400641
 20
670.26847447178102
 11
1271.4604745400641
 21
670.26847447178102
  0
LINE
  8
_0-0_計極細
  6
CONTINUOUS
 62
    2
 10
1272.3915065400645
 20
680.26847447178102
 11
1298.7104745400641
 21
680.26847447178102
  0
LINE
  8
_0-0_計極細
  6
CONTINUOUS
 62
    2
 10
1271.4604745400641
 20
682.26847447178102
 11
1298.7104745400641
 21
682.26847447178102
  0
LINE
  8
_0-0_計極細
  6
CONTINUOUS
 62
    2
 10
1297.4604745400641
 20
699.47631447178105
 11
1271.4604745400641
 21
699.47631447178105
  0
LINE
  8
_0-0_計極細
  6
CONTINUOUS
 62
    2
 10
1296.9604745400641
 20
637.76847447178102
 11
1296.4604745400641
 21
670.26847447178102
  0
LINE
  8
_0-0_計極細
  6
CONTINUOUS
 62
    2
 10
1299.0438078733971
 20
642.76847447178102
 11
1299.4604745400641
 21
667.76847447178102
  0
LINE
  8
_0-1_計細線
  6
CONTINUOUS
 62
    3
 10
1298.9604745400641
 20
637.76847447178102
 11
1299.0438078733971
 21
642.76847447178102
  0
LINE
  8
_0-1_計細線
  6
CONTINUOUS
 62
    3
 10
1203.36178487756
 20
719.40495247178046
 11
1205.8464846187928
 21
645.33264547178101
  0
LINE
  8
_0-1_計細線
  6
CONTINUOUS
 62
    3
 10
1153.1313516187931
 20
728.76669547178085
 11
1167.0271127157328
 21
720.8395825784421
  0
LINE
  8
_0-1_計細線
  6
CONTINUOUS
 62
    3
 10
1167.0271127157328
 20
720.8395825784421
 11
1192.6239486187935
 21
719.40495247178092
  0
LINE
  8
_0-1_計細線
  6
CONTINUOUS
 62
    3
 10
1206.0563106187931
 20
740.87890747178085
 11
1205.5995953362606
 21
736.7684754717809
  0
LINE
  8
_0-1_計細線
  6
CONTINUOUS
 62
    3
 10
1141.1512176187937
 20
728.76847447178102
 11
1143.1435552997457
 21
736.76847447178102
  0
ARC
  8
_0-1_計細線
  6
CONTINUOUS
 62
    3
 10
1207.0501926187933
 20
740.76847447178102
 40
0.9999989999999999
 50
89.999999999999915
 51
173.65980800001805
  0
LINE
  8
_0-1_計細線
  6
CONTINUOUS
 62
    3
 10
1198.1548866187934
 20
711.45149647178118
 11
1201.1101206187934
 21
711.08318647178135
  0
LINE
  8
_0-1_計細線
  6
CONTINUOUS
 62
    3
 10
1195.4543856187931
 20
716.51022847178069
 11
1195.527588618794
 21
714.32788747178097
  0
ARC
  8
_0-1_計細線
  6
CONTINUOUS
 62
    3
 10
1198.5259026187935
 20
714.42846547178056
 40
3
 50
181.92122399999411
 51
262.89591000000917
  0
ARC
  8
_0-1_計細線
  6
CONTINUOUS
 62
    3
 10
1200.7391046187934
 20
708.10621747178106
 40
3
 50
1.9212240000031657
 51
82.895909999993336
  0
ARC
  8
_0-1_計細線
  6
CONTINUOUS
 62
    3
 10
1192.4560716187927
 20
716.40965347178121
 40
3
 50
1.9212239999939036
 51
86.792087999984531
  0
ARC
  8
_0-1_計細線
  6
CONTINUOUS
 62
    3
 10
1225.5548346187927
 20
627.76847347178114
 40
5.0000009999999993
 50
4.7950419999943836
 51
89.999999999999915
  0
ARC
  8
_0-1_計細線
  6
CONTINUOUS
 62
    3
 10
1218.8391756187932
 20
645.76847347178114
 40
12.999999000000003
 50
181.92122399999965
 51
269.99999999999977
  0
ARC
  8
_0-1_計細線
  6
CONTINUOUS
 62
    3
 10
1234.0054686187934
 20
610.7684754717809
 40
2.0000010000000001
 50
184.79504200000338
 51
269.99999999999977
  0
LINE
  8
_0-1_計細線
  6
CONTINUOUS
 62
    3
 10
1230.5373336187934
 20
628.18643347178136
 11
1232.0124666187933
 21
610.601291471781
  0
LINE
  8
_0-1_計細線
  6
CONTINUOUS
 62
    3
 10
1319.6512181187938
 20
733.06654920069036
 11
1325.3477586187935
 21
731.92467297178086
  0
LINE
  8
_0-1_計細線
  6
CONTINUOUS
 62
    3
 10
1325.3477586187935
 20
735.61227597178117
 11
1319.6512181187938
 21
734.47039974287168
  0
ARC
  8
_0-1_計細線
  6
CONTINUOUS
 62
    3
 10
1325.1512166187933
 20
730.94417697178073
 40
0.9999989999999999
 50
0
 51
78.665252999996241
  0
ARC
  8
_0-1_計細線
  6
CONTINUOUS
 62
    3
 10
1325.1512166187933
 20
736.59277197178085
 40
0.9999989999999999
 50
281.3347470000034
 51
359.99999999999966
  0
LINE
  8
_0-1_計細線
  6
CONTINUOUS
 62
    3
 10
1330.1512176187937
 20
730.97884497178097
 11
1326.1512186187936
 21
730.97884497178097
  0
LINE
  8
_0-1_計細線
  6
CONTINUOUS
 62
    3
 10
1330.1512176187937
 20
736.57884597178077
 11
1326.1512186187936
 21
736.57884597178077
  0
ARC
  8
_0-1_計細線
  6
CONTINUOUS
 62
    3
 10
1330.1512176187937
 20
731.97884697178119
 40
0.9999989999999999
 50
269.99999999999977
 51
359.99999999999966
  0
LINE
  8
_0-1_計細線
  6
CONTINUOUS
 62
    3
 10
1331.1512166187933
 20
731.97884697178119
 11
1331.1512166187933
 21
735.5788469717811
  0
ARC
  8
_0-1_計細線
  6
CONTINUOUS
 62
    3
 10
1330.1512176187937
 20
735.5788469717811
 40
0.9999989999999999
 50
0
 51
89.999999999999915
  0
LINE
  8
_0-1_計細線
  6
CONTINUOUS
 62
    3
 10
1298.1801089973308
 20
637.7684754717809
 11
1298.3474316187933
 21
632.76847447178102
  0
LINE
  8
_0-1_計細線
  6
CONTINUOUS
 62
    3
 10
1401.1512186187936
 20
728.76847447178102
 11
1399.1588809378402
 21
736.76847447178102
  0
LINE
  8
_0-1_計細線
  6
CONTINUOUS
 62
    3
 10
1331.0489796187933
 20
725.76847447178102
 11
1326.1512186187936
 21
725.76847447178102
  0
LINE
  8
_0-1_計細線
  6
CONTINUOUS
 62
    3
 10
1332.1512186187936
 20
730.7684754717809
 11
1326.1512186187936
 21
730.7684754717809
  0
LINE
  8
_0-1_計細線
  6
CONTINUOUS
 62
    3
 10
1332.1512186187936
 20
736.7684754717809
 11
1326.1512186187936
 21
736.7684754717809
  0
LINE
  8
_0-1_計細線
  6
CONTINUOUS
 62
    3
 10
1335.2522406187929
 20
741.76847347178114
 11
1326.1512186187936
 21
741.76847347178114
  0
LINE
  8
_0-1_計細線
  6
CONTINUOUS
 62
    3
 10
1393.1512176187937
 20
734.76847447178102
 11
1393.1512176187937
 21
736.7684754717809
  0
ARC
  8
_0-1_計細線
  6
CONTINUOUS
 62
    3
 10
1373.9651946187935
 20
726.76847347178114
 40
0.9999989999999999
 50
269.99999999999977
 51
295.41928799998146
  0
LINE
  8
_0-1_計細線
  6
CONTINUOUS
 62
    3
 10
1393.1697426187936
 20
734.78820247178123
 11
1374.3944316187938
 21
725.86528447178102
  0
LINE
  8
_0-1_計細線
  6
CONTINUOUS
 62
    3
 10
1362.3990756187934
 20
732.61102747178097
 11
1363.7487996187931
 21
726.85693147178085
  0
LINE
  8
_0-1_計細線
  6
CONTINUOUS
 62
    3
 10
1359.8896536187933
 20
732.63054547178103
 11
1358.4514206187935
 21
726.35180947178083
  0
ARC
  8
_0-1_計細線
  6
CONTINUOUS
 62
    3
 10
1361.3637216187938
 20
732.2684754717809
 40
1.5
 50
98.144501000001384
 51
160.17912800000187
  0
ARC
  8
_0-1_計細線
  6
CONTINUOUS
 62
    3
 10
1360.9387116187938
 20
732.2684754717809
 40
1.5
 50
13.201087000001985
 51
81.855499000033006
  0
ARC
  8
_0-1_計細線
  6
CONTINUOUS
 62
    3
 10
1365.6959496187931
 20
727.31367247178082
 40
2.0000010000000001
 50
193.20108700000222
 51
273.20791200001526
  0
ARC
  8
_0-1_計細線
  6
CONTINUOUS
 62
    3
 10
1356.5019126187929
 20
726.79837147178091
 40
2.0000010000000001
 50
273.20791200001526
 51
347.0981779999961
  0
LINE
  8
_0-1_計細線
  6
CONTINUOUS
 62
    3
 10
1375.2753216187932
 20
720.83958247178111
 11
1349.6784846187932
 21
719.40495247178092
  0
LINE
  8
_0-1_計細線
  6
CONTINUOUS
 62
    3
 10
1374.1326816187936
 20
725.783387471781
 11
1365.8078676187936
 21
725.31680647178086
  0
LINE
  8
_0-1_計細線
  6
CONTINUOUS
 62
    3
 10
1346.8480506187936
 20
716.51022847178069
 11
1346.7748446187936
 21
714.32788747178097
  0
ARC
  8
_0-1_計細線
  6
CONTINUOUS
 62
    3
 10
1349.8463646187931
 20
716.40965347178121
 40
3
 50
93.207911999989463
 51
178.07877600000555
  0
ARC
  8
_0-1_計細線
  6
CONTINUOUS
 62
    3
 10
1335.2522406187929
 20
740.76847447178102
 40
0.9999989999999999
 50
6.3401919999819398
 51
89.999999999999915
  0
ARC
  8
_0-1_計細線
  6
CONTINUOUS
 62
    3
 10
1341.7048236187932
 20
727.97217547178093
 40
3.9999990000000003
 50
186.3401920000008
 51
273.20791200000201
  0
LINE
  8
_0-1_計細線
  6
CONTINUOUS
 62
    3
 10
1332.1512186187936
 20
730.7684754717809
 11
1332.1512186187936
 21
736.7684754717809
  0
LINE
  8
_0-1_計細線
  6
CONTINUOUS
 62
    3
 10
1326.1512186187936
 20
725.76847447178102
 11
1326.1512186187936
 21
730.7684754717809
  0
ARC
  8
_0-1_計細線
  6
CONTINUOUS
 62
    3
 10
1331.0489796187933
 20
722.76847447178102
 40
3
 50
358.07877599999676
 51
89.999999999999545
  0
LINE
  8
_0-1_計細線
  6
CONTINUOUS
 62
    3
 10
1326.1512186187936
 20
736.7684754717809
 11
1326.1512186187936
 21
741.76847347178114
  0
LINE
  8
_0-1_計細線
  6
CONTINUOUS
 62
    3
 10
1336.2461256187928
 20
740.87890747178085
 11
1337.7292866187934
 21
727.53044947178091
  0
ARC
  8
_0-1_計細線
  6
CONTINUOUS
 62
    3
 10
1341.5633316187934
 20
708.10621747178106
 40
3
 50
97.104089999998052
 51
178.07877599999682
  0
LINE
  8
_0-1_計細線
  6
CONTINUOUS
 62
    3
 10
1344.1475496187934
 20
711.45149647178118
 11
1341.1923156187934
 21
711.08318647178135
  0
LINE
  8
_0-1_計細線
  6
CONTINUOUS
 62
    3
 10
1333.8138636187934
 20
715.70906947178105
 11
1342.0924146187938
 21
723.98762047178093
  0
ARC
  8
_0-1_計細線
  6
CONTINUOUS
 62
    3
 10
1343.7765306187932
 20
714.42846547178056
 40
3
 50
277.10409000000737
 51
358.07877600000575
  0
LINE
  8
_0-1_計細線
  6
CONTINUOUS
 62
    3
 10
1356.6138306187934
 20
724.80150547178096
 11
1341.9286596187933
 21
723.97844347178102
  0
ARC
  8
_0-1_計細線
  6
CONTINUOUS
 62
    3
 10
1323.4632576187935
 20
645.76847347178114
 40
12.999999000000003
 50
269.99999999999977
 51
358.07877599999961
  0
ARC
  8
_0-1_計細線
  6
CONTINUOUS
 62
    3
 10
1323.4632576187935
 20
645.76847347178114
 40
8.0000009999999975
 50
269.99999999999977
 51
358.0787759999979
  0
ARC
  8
_0-1_計細線
  6
CONTINUOUS
 62
    3
 10
1300.1512176187937
 20
631.7684754717809
 40
0.9999989999999999
 50
0
 51
89.999999999999915
  0
ARC
  8
_0-1_計細線
  6
CONTINUOUS
 62
    3
 10
1300.1512176187937
 20
627.76847347178114
 40
0.9999989999999999
 50
269.99999999999977
 51
359.99999999999966
  0
LINE
  8
_0-1_計細線
  6
CONTINUOUS
 62
    3
 10
1301.1512166187933
 20
627.76847347178114
 11
1301.1512166187933
 21
631.7684754717809
  0
ARC
  8
_0-1_計細線
  6
CONTINUOUS
 62
    3
 10
1316.7476016187932
 20
627.76847347178114
 40
5.0000009999999993
 50
89.999999999999915
 51
175.20495800000475
  0
LINE
  8
_0-1_計細線
  6
CONTINUOUS
 62
    3
 10
1323.4632576187935
 20
632.76847447178102
 11
1316.7476016187932
 21
632.76847447178102
  0
LINE
  8
_0-1_計細線
  6
CONTINUOUS
 62
    3
 10
1338.5650176187935
 20
708.20679547178111
 11
1336.4559516187931
 21
645.33264547178101
  0
LINE
  8
_0-1_計細線
  6
CONTINUOUS
 62
    3
 10
1334.0472936187932
 20
722.66789947178063
 11
1331.4587616187939
 21
645.50027047178105
  0
LINE
  8
_0-1_計細線
  6
CONTINUOUS
 62
    3
 10
1401.1512186187936
 20
728.76847447178102
 11
1389.1742046187935
 21
728.76847447178102
  0
ARC
  8
_0-1_計細線
  6
CONTINUOUS
 62
    3
 10
1308.2969676187934
 20
610.7684754717809
 40
2.0000010000000001
 50
269.99999999999977
 51
355.20495799999702
  0
LINE
  8
_0-1_計細線
  6
CONTINUOUS
 62
    3
 10
1299.0872646187934
 20
610.76072347178092
 11
1301.1509466187938
 21
608.7705024717809
  0
LINE
  8
_0-1_計細線
  6
CONTINUOUS
 62
    3
 10
1311.7651026187934
 20
628.18643347178136
 11
1310.2899696187935
 21
610.601291471781
  0
LINE
  8
_0-1_計細線
  6
CONTINUOUS
 62
    3
 10
1298.5482186187935
 20
626.76847447178102
 11
1299.0837996187936
 21
610.76406247178079
  0
LINE
  8
_0-1_計細線
  6
CONTINUOUS
 62
    3
 10
1300.5493386187929
 20
626.76847447178102
 11
1301.1516996187936
 21
608.76847447178102
  0
LINE
  8
_0-1_計細線
  6
CONTINUOUS
 62
    3
 10
1399.1588809378402
 20
736.7684754717809
 11
1393.1512176187937
 21
736.7684754717809
  0
LINE
  8
_0-1_計細線
  6
CONTINUOUS
 62
    3
 10
1334.0395740115357
 20
723.00584586452374
 11
1337.8696134888726
 21
726.8358853418606
  0
LINE
  8
_0-1_計細線
  6
CONTINUOUS
 62
    3
 10
1141.1512176187937
 20
728.76847447178102
 11
1271.4604502851159
 21
728.76847447178102
  0
LINE
  8
_0-1_計細線
  6
CONTINUOUS
 62
    3
 10
1218.8391756187932
 20
632.76847447178102
 11
1271.4604502851159
 21
632.76847447178102
  0
LINE
  8
_0-1_計細線
  6
CONTINUOUS
 62
    3
 10
1207.0501926187933
 20
741.76847347178114
 11
1271.4604502851159
 21
741.76847347178114
  0
LINE
  8
_0-1_計細線
  6
CONTINUOUS
 62
    3
 10
1143.1435552997457
 20
736.7684754717809
 11
1271.4604502851159
 21
736.7684754717809
  0
LINE
  8
_0-1_計細線
  6
CONTINUOUS
 62
    3
 10
1234.0054686187934
 20
608.76847447178102
 11
1271.4604487851163
 21
608.76847447178102
  0
LINE
  8
_0-1_計細線
  6
CONTINUOUS
 62
    3
 10
1192.6239486187935
 20
719.40495247178092
 11
1271.4604502851159
 21
719.40495247178092
  0
LINE
  8
_0-1_計細線
  6
CONTINUOUS
 62
    3
 10
1323.4632576187935
 20
637.7684754717809
 11
1271.4604487851163
 21
637.7684754717809
  0
LINE
  8
_0-1_計細線
  6
CONTINUOUS
 62
    3
 10
1300.1512176187937
 20
626.76847447178102
 11
1271.4604487851163
 21
626.76847447178102
  0
LINE
  8
_0-1_計細線
  6
CONTINUOUS
 62
    3
 10
1300.1512176187937
 20
632.76847447178102
 11
1271.4604487851163
 21
632.76847447178102
  0
LINE
  8
_0-1_計細線
  6
CONTINUOUS
 62
    3
 10
1299.0836526187934
 20
610.7684754717809
 11
1271.4604487851163
 21
610.7684754717809
  0
LINE
  8
_0-1_計細線
  6
CONTINUOUS
 62
    3
 10
1308.2969676187934
 20
608.76847447178102
 11
1271.4604487851163
 21
608.76847447178102
  0
LINE
  8
_0-1_計細線
  6
CONTINUOUS
 62
    3
 10
1393.1512176187937
 20
736.7684754717809
 11
1338.1512186187936
 21
736.7684754717809
  0
LINE
  8
_0-1_計細線
  6
CONTINUOUS
 62
    3
 10
1361.1512166187933
 20
733.7684754717809
 11
1338.1512186187936
 21
733.7684754717809
  0
LINE
  8
_0-1_計細線
  6
CONTINUOUS
 62
    3
 10
1389.1710846187932
 20
728.76669547178085
 11
1375.2753220401466
 21
720.83958173317319
  0
LINE
  8
_0-1_計細線
  6
CONTINUOUS
 62
    3
 10
1220.9604745400641
 20
741.76847347178114
 11
1220.9604745400641
 21
748.93834647178141
  0
LINE
  8
_0-0_計極細
  6
CONTINUOUS
 62
    2
 10
1167.0271127157328
 20
720.8395825784421
 11
1271.4604502851159
 21
720.8395825784421
  0
LINE
  8
_0-0_計極細
  6
CENTER1
 62
    2
 10
1331.1917436187935
 20
716.62248247178081
 11
1346.7260136187931
 21
732.15675247178092
  0
LINE
  8
_0-5_寸法線
  6
CONTINUOUS
 62
    7
 10
1367.4604745400641
 20
608.76847447178102
 11
1551.4604745400641
 21
608.76847447178034
  0
LINE
  8
_0-5_寸法線
  6
CONTINUOUS
 62
    7
 10
1543.4604745400641
 20
608.76847447178034
 11
1539.3193698184239
 21
624.22328769240539
  0
LINE
  8
_0-5_寸法線
  6
CONTINUOUS
 62
    7
 10
1543.4604745400641
 20
608.76847447178034
 11
1547.6015792617045
 21
624.22328769240539
  0
LINE
  8
_0-5_寸法線
  6
CONTINUOUS
 62
    7
 10
1367.4604745400641
 20
878.76847447178102
 11
1551.4604745400641
 21
878.76847447178045
  0
LINE
  8
_0-5_寸法線
  6
CONTINUOUS
 62
    7
 10
1543.4604745400641
 20
878.76847447178045
 11
1547.6015792617043
 21
863.31366125115528
  0
LINE
  8
_0-5_寸法線
  6
CONTINUOUS
 62
    7
 10
1543.4604745400641
 20
878.76847447178045
 11
1539.3193698184236
 21
863.31366125115539
  0
LINE
  8
_0-5_寸法線
  6
CONTINUOUS
 62
    7
 10
1543.4604745400641
 20
608.76847447178034
 11
1543.4604745400641
 21
878.76847447178045
  0
TEXT
  8
_0-5_寸法線
 62
    7
 10
1543.4604745400643
 20
665.76847447178079
 40
24
 41
1
 50
89.999999999999844
  1
270(250)～320
  0
LINE
  8
_0-5_寸法線
  6
CONTINUOUS
 62
    7
 10
1356.4604745400641
 20
779.06637784185773
 11
1439.4604745400641
 21
779.0663778418575
  0
LINE
  8
_0-5_寸法線
  6
CONTINUOUS
 62
    7
 10
1431.4604745400641
 20
779.0663778418575
 11
1427.3193698184239
 21
794.52119106248256
  0
LINE
  8
_0-5_寸法線
  6
CONTINUOUS
 62
    7
 10
1431.4604745400641
 20
779.0663778418575
 11
1435.6015792617045
 21
794.52119106248256
  0
LINE
  8
_0-5_寸法線
  6
CONTINUOUS
 62
    7
 10
1367.4604745400641
 20
878.76847447178091
 11
1439.4604745400641
 21
878.76847447178068
  0
LINE
  8
_0-5_寸法線
  6
CONTINUOUS
 62
    7
 10
1431.4604745400641
 20
878.76847447178068
 11
1435.6015792617045
 21
863.31366125115562
  0
LINE
  8
_0-5_寸法線
  6
CONTINUOUS
 62
    7
 10
1431.4604745400641
 20
878.76847447178068
 11
1427.3193698184239
 21
863.31366125115562
  0
LINE
  8
_0-5_寸法線
  6
CONTINUOUS
 62
    7
 10
1431.4604745400641
 20
779.0663778418575
 11
1431.4604745400641
 21
878.76847447178068
  0
TEXT
  8
_0-5_寸法線
 62
    7
 10
1431.4604745400641
 20
810.91742615681983
 40
24
 41
1
 50
90
  1
100
  0
TEXT
  8
_0-5_寸法線
 62
    7
 10
1409.8351200840241
 20
577.94096589839069
 40
24
 41
0.7999999999999999
 50
0
  1
※（　）内はトラップ切断時
  0
LINE
  8
_0-5_寸法線
  6
CONTINUOUS
 62
    7
 10
1367.4604745400641
 20
608.76847447178102
 11
1495.4604745400641
 21
608.76847447178056
  0
LINE
  8
_0-5_寸法線
  6
CONTINUOUS
 62
    7
 10
1487.4604745400641
 20
608.76847447178056
 11
1483.3193698184239
 21
624.22328769240562
  0
LINE
  8
_0-5_寸法線
  6
CONTINUOUS
 62
    7
 10
1487.4604745400641
 20
608.76847447178056
 11
1491.6015792617045
 21
624.22328769240562
  0
LINE
  8
_0-5_寸法線
  6
CONTINUOUS
 62
    7
 10
1415.1588806887983
 20
736.7684754717809
 11
1495.4604745400641
 21
736.76847547178068
  0
LINE
  8
_0-5_寸法線
  6
CONTINUOUS
 62
    7
 10
1487.4604745400641
 20
736.76847547178068
 11
1491.6015792617043
 21
721.31366225115562
  0
LINE
  8
_0-5_寸法線
  6
CONTINUOUS
 62
    7
 10
1487.4604745400641
 20
736.76847547178068
 11
1483.3193698184236
 21
721.31366225115562
  0
LINE
  8
_0-5_寸法線
  6
CONTINUOUS
 62
    7
 10
1487.4604745400641
 20
608.76847447178056
 11
1487.4604745400641
 21
736.76847547178068
  0
TEXT
  8
_0-5_寸法線
 62
    7
 10
1487.4604745400641
 20
654.76847497178017
 40
24
 41
1
 50
90
  1
128
  0
LINE
  8
_0-5_寸法線
  6
CONTINUOUS
 62
    7
 10
1487.4604745400641
 20
736.76847547178068
 11
1483.3193698184239
 21
752.22328869240573
  0
LINE
  8
_0-5_寸法線
  6
CONTINUOUS
 62
    7
 10
1487.4604745400641
 20
736.76847547178068
 11
1491.6015792617045
 21
752.22328869240573
  0
LINE
  8
_0-5_寸法線
  6
CONTINUOUS
 62
    7
 10
1367.4604745400641
 20
878.76847447178102
 11
1495.4604745400641
 21
878.76847447178056
  0
LINE
  8
_0-5_寸法線
  6
CONTINUOUS
 62
    7
 10
1487.4604745400641
 20
878.76847447178056
 11
1491.6015792617045
 21
863.31366125115551
  0
LINE
  8
_0-5_寸法線
  6
CONTINUOUS
 62
    7
 10
1487.4604745400641
 20
878.76847447178056
 11
1483.3193698184239
 21
863.31366125115551
  0
LINE
  8
_0-5_寸法線
  6
CONTINUOUS
 62
    7
 10
1487.4604745400641
 20
736.76847547178068
 11
1487.4604745400641
 21
878.76847447178056
  0
TEXT
  8
_0-5_寸法線
 62
    7
 10
1487.4604745400643
 20
737.73410822648361
 40
24
 41
1
 50
89.999999999999844
  1
142(122)～192
  0
LINE
  8
_0-5_寸法線
  6
CONTINUOUS
 62
    7
 10
1241.3512181187928
 20
592.76847447178102
 11
1241.3512181187928
 21
520.76847447178102
  0
LINE
  8
_0-5_寸法線
  6
CONTINUOUS
 62
    7
 10
1241.3512181187928
 20
528.76847447178102
 11
1256.8060313394178
 21
532.90957919342134
  0
LINE
  8
_0-5_寸法線
  6
CONTINUOUS
 62
    7
 10
1241.3512181187928
 20
528.76847447178102
 11
1256.8060313394178
 21
524.6273697501407
  0
LINE
  8
_0-5_寸法線
  6
CONTINUOUS
 62
    7
 10
1300.9512181187931
 20
592.76847447178102
 11
1300.9512181187931
 21
520.76847447178102
  0
LINE
  8
_0-5_寸法線
  6
CONTINUOUS
 62
    7
 10
1300.9512181187931
 20
528.76847447178102
 11
1285.4964048981681
 21
524.6273697501407
  0
LINE
  8
_0-5_寸法線
  6
CONTINUOUS
 62
    7
 10
1300.9512181187931
 20
528.76847447178102
 11
1285.4964048981681
 21
532.90957919342145
  0
LINE
  8
_0-5_寸法線
  6
CONTINUOUS
 62
    7
 10
1241.3512181187928
 20
528.76847447178102
 11
1300.9512181187931
 21
528.76847447178102
  0
TEXT
  8
_0-5_寸法線
 62
    7
 10
1217.1512181187929
 20
528.76847447178102
 40
24
 41
1
 50
0
  1
Rc2(59.6)
  0
LINE
  8
_0-5_寸法線
  6
CONTINUOUS
 62
    7
 10
1232.1512181187925
 20
592.75612058174579
 11
1232.1512181187891
 21
464.76847447178102
  0
LINE
  8
_0-5_寸法線
  6
CONTINUOUS
 62
    7
 10
1232.1512181187893
 20
472.76847447178102
 11
1247.6060313394144
 21
476.90957919342134
  0
LINE
  8
_0-5_寸法線
  6
CONTINUOUS
 62
    7
 10
1232.1512181187893
 20
472.76847447178102
 11
1247.6060313394144
 21
468.6273697501407
  0
LINE
  8
_0-5_寸法線
  6
CONTINUOUS
 62
    7
 10
1310.1512181187925
 20
592.75612058174579
 11
1310.1512181187891
 21
464.76847447178102
  0
LINE
  8
_0-5_寸法線
  6
CONTINUOUS
 62
    7
 10
1310.1512181187893
 20
472.76847447178102
 11
1294.6964048981642
 21
468.62736975014076
  0
LINE
  8
_0-5_寸法線
  6
CONTINUOUS
 62
    7
 10
1310.1512181187893
 20
472.76847447178102
 11
1294.6964048981642
 21
476.90957919342139
  0
LINE
  8
_0-5_寸法線
  6
CONTINUOUS
 62
    7
 10
1232.1512181187893
 20
472.76847447178102
 11
1310.1512181187893
 21
472.76847447178102
  0
TEXT
  8
_0-5_寸法線
 62
    7
 10
1247.1512181187893
 20
472.76847447178102
 40
24
 41
1
 50
0
  1
φ78
  0
LINE
  8
_0-5_寸法線
  6
CONTINUOUS
 62
    7
 10
1206.1512181187925
 20
626.93727081598558
 11
1206.1512181187873
 21
408.76847447178102
  0
LINE
  8
_0-5_寸法線
  6
CONTINUOUS
 62
    7
 10
1206.1512181187875
 20
416.76847447178102
 11
1221.6060313394125
 21
420.90957919342134
  0
LINE
  8
_0-5_寸法線
  6
CONTINUOUS
 62
    7
 10
1206.1512181187875
 20
416.76847447178102
 11
1221.6060313394125
 21
412.6273697501407
  0
LINE
  8
_0-5_寸法線
  6
CONTINUOUS
 62
    7
 10
1336.1512181187925
 20
626.93727081598558
 11
1336.1512181187873
 21
408.76847447178102
  0
LINE
  8
_0-5_寸法線
  6
CONTINUOUS
 62
    7
 10
1336.1512181187875
 20
416.76847447178102
 11
1320.6964048981624
 21
412.62736975014076
  0
LINE
  8
_0-5_寸法線
  6
CONTINUOUS
 62
    7
 10
1336.1512181187875
 20
416.76847447178102
 11
1320.6964048981624
 21
420.90957919342139
  0
LINE
  8
_0-5_寸法線
  6
CONTINUOUS
 62
    7
 10
1206.1512181187875
 20
416.76847447178102
 11
1336.1512181187875
 21
416.76847447178102
  0
TEXT
  8
_0-5_寸法線
 62
    7
 10
1241.1512181187875
 20
416.76847447178102
 40
24
 41
1
 50
0
  1
φ130
  0
LINE
  8
_0-5_寸法線
  6
CONTINUOUS
 62
    7
 10
1141.1512181187934
 20
712.76847647947284
 11
1141.1512181187843
 21
352.76847447178102
  0
LINE
  8
_0-5_寸法線
  6
CONTINUOUS
 62
    7
 10
1141.1512181187845
 20
360.76847447178102
 11
1156.6060313394096
 21
364.90957919342134
  0
LINE
  8
_0-5_寸法線
  6
CONTINUOUS
 62
    7
 10
1141.1512181187845
 20
360.76847447178102
 11
1156.6060313394096
 21
356.6273697501407
  0
LINE
  8
_0-5_寸法線
  6
CONTINUOUS
 62
    7
 10
1401.1512181187929
 20
712.76847647947284
 11
1401.1512181187838
 21
352.76847447178102
  0
LINE
  8
_0-5_寸法線
  6
CONTINUOUS
 62
    7
 10
1401.1512181187841
 20
360.76847447178102
 11
1385.696404898159
 21
356.62736975014076
  0
LINE
  8
_0-5_寸法線
  6
CONTINUOUS
 62
    7
 10
1401.1512181187841
 20
360.76847447178102
 11
1385.696404898159
 21
364.90957919342139
  0
LINE
  8
_0-5_寸法線
  6
CONTINUOUS
 62
    7
 10
1141.1512181187845
 20
360.76847447178102
 11
1401.1512181187841
 21
360.76847447178102
  0
TEXT
  8
_0-5_寸法線
 62
    7
 10
1241.1512181187843
 20
360.76847447178102
 40
24
 41
1
 50
0
  1
φ260
  0
LINE
  8
_0-5_寸法線
  6
CONTINUOUS
 62
    7
 10
1220.6898078733964
 20
767.67931157740372
 11
1210.6472298970227
 21
755.22352466575285
  0
LINE
  8
_0-5_寸法線
  6
CONTINUOUS
 62
    7
 10
1220.6898078733964
 20
767.67931157740372
 11
1205.7647867705452
 21
761.91357267597516
  0
LINE
  8
_0-5_寸法線
  6
CONTINUOUS
 62
    7
 10
1220.6898078733964
 20
767.67931157740372
 11
1119.1560465565242
 21
693.57927308896626
  0
LINE
  8
_0-5_寸法線
  6
CONTINUOUS
 62
    7
 10
1119.1560465565242
 20
693.57927308896626
 11
904.8886995057693
 21
693.57927308896626
  0
TEXT
  8
_0-5_寸法線
 62
    7
 10
904.8886995057693
 20
698.41820374406632
 40
24
 41
0.7999999999999998
 50
0
  1
縦引き排水トラップ一式
  0
LINE
  8
_0-5_寸法線
  6
CONTINUOUS
 62
    7
 10
1221.972046556524
 20
679.46663668028418
 11
1211.8825998684169
 21
667.04878398636617
  0
LINE
  8
_0-5_寸法線
  6
CONTINUOUS
 62
    7
 10
1221.972046556524
 20
679.46663668028418
 11
1207.0254030675355
 21
673.7571841309516
  0
LINE
  8
_0-5_寸法線
  6
CONTINUOUS
 62
    7
 10
1221.972046556524
 20
679.46663668028418
 11
1119.1560465565242
 21
605.02302337219896
  0
LINE
  8
_0-5_寸法線
  6
CONTINUOUS
 62
    7
 10
1119.1560465565242
 20
605.02302337219896
 11
984.75604655652421
 21
605.02302337219942
  0
TEXT
  8
_0-5_寸法線
 62
    7
 10
984.75604655652421
 20
605.02302337219896
 40
24
 41
0.7999999999999998
 50
0
  1
防水マス縦引き
  0
LINE
  8
_0-1_計細線
  6
CONTINUOUS
 62
    3
 10
1303.8571526087337
 20
1288.7664098817136
 11
1303.8571526087337
 21
1288.7664098817136
  0
LINE
  8
_0-1_計細線
  6
CONTINUOUS
 62
    3
 10
1303.8571526087337
 20
1288.7664098817136
 11
1286.3401715876312
 21
1292.979642435497
  0
LINE
  8
_0-1_計細線
  6
CONTINUOUS
 62
    3
 10
1286.3401715876312
 20
1292.979642435497
 11
1268.3576962881009
 21
1294.0870598258352
  0
LINE
  8
_0-1_計細線
  6
CONTINUOUS
 62
    3
 10
1268.3576962881009
 20
1294.0870598258352
 11
1250.4561151225475
 21
1292.0550137357031
  0
LINE
  8
_0-1_計細線
  6
CONTINUOUS
 62
    3
 10
1250.4561151225475
 20
1292.0550137357031
 11
1238.1829384167456
 21
1288.7664098817136
  0
LINE
  8
_0-1_計細線
  6
CONTINUOUS
 62
    3
 10
1237.9880887976944
 20
1092.7664098817124
 11
1237.9880887976944
 21
1092.7664098817124
  0
LINE
  8
_0-1_計細線
  6
CONTINUOUS
 62
    3
 10
1237.9880887976944
 20
1092.7664098817124
 11
1255.4966557058672
 21
1088.518346752744
  0
LINE
  8
_0-1_計細線
  6
CONTINUOUS
 62
    3
 10
1255.4966557058672
 20
1088.518346752744
 11
1273.4768929581076
 21
1087.3751668394061
  0
LINE
  8
_0-1_計細線
  6
CONTINUOUS
 62
    3
 10
1273.4768929581076
 20
1087.3751668394061
 11
1291.3824801439453
 21
1089.3716050848889
  0
LINE
  8
_0-1_計細線
  6
CONTINUOUS
 62
    3
 10
1291.3824801439453
 20
1089.3716050848889
 11
1304.0520022277829
 21
1092.7664098817118
  0
LINE
  8
_0-5_寸法線
  6
CONTINUOUS
 62
    7
 10
1195.90271431976
 20
1092.7664098817111
 11
1195.90271431976
 21
1092.7664098817111
  0
LINE
  8
_0-5_寸法線
  6
CONTINUOUS
 62
    7
 10
1195.90271431976
 20
1092.7664098817111
 11
1214.0506526315755
 21
1081.2102624631705
  0
LINE
  8
_0-5_寸法線
  6
CONTINUOUS
 62
    7
 10
1214.0506526315755
 20
1081.2102624631705
 11
1233.9295771181814
 21
1072.9810507033301
  0
LINE
  8
_0-5_寸法線
  6
CONTINUOUS
 62
    7
 10
1233.9295771181814
 20
1072.9810507033301
 11
1254.9354767182733
 21
1068.3288150373305
  0
LINE
  8
_0-5_寸法線
  6
CONTINUOUS
 62
    7
 10
1254.9354767182733
 20
1068.3288150373305
 11
1276.4300978020008
 21
1067.3949112917387
  0
LINE
  8
_0-5_寸法線
  6
CONTINUOUS
 62
    7
 10
1276.4300978020008
 20
1067.3949112917387
 11
1297.7603371845373
 21
1070.2077156592861
  0
LINE
  8
_0-5_寸法線
  6
CONTINUOUS
 62
    7
 10
1297.7603371845373
 20
1070.2077156592861
 11
1318.2780863358669
 21
1076.6817625026126
  0
LINE
  8
_0-5_寸法線
  6
CONTINUOUS
 62
    7
 10
1318.2780863358669
 20
1076.6817625026126
 11
1337.3599238305083
 21
1086.6203411844094
  0
LINE
  8
_0-5_寸法線
  6
CONTINUOUS
 62
    7
 10
1337.3599238305083
 20
1086.6203411844094
 11
1354.4260576920624
 21
1099.7214730205937
  0
LINE
  8
_0-5_寸法線
  6
CONTINUOUS
 62
    7
 10
1354.4260576920624
 20
1099.7214730205937
 11
1368.9579420790265
 21
1115.5870867498156
  0
LINE
  8
_0-5_寸法線
  6
CONTINUOUS
 62
    7
 10
1368.9579420790265
 20
1115.5870867498156
 11
1380.5140330377906
 21
1133.7351137273004
  0
LINE
  8
_0-5_寸法線
  6
CONTINUOUS
 62
    7
 10
1380.5140330377906
 20
1133.7351137273004
 11
1388.7432045922374
 21
1153.614135336682
  0
LINE
  8
_0-5_寸法線
  6
CONTINUOUS
 62
    7
 10
1388.7432045922374
 20
1153.614135336682
 11
1393.3954175288466
 21
1174.6201375656301
  0
LINE
  8
_0-5_寸法線
  6
CONTINUOUS
 62
    7
 10
1393.3954175288466
 20
1174.6201375656301
 11
1394.3293167116724
 21
1196.1148636659675
  0
LINE
  8
_0-5_寸法線
  6
CONTINUOUS
 62
    7
 10
1394.3293167116724
 20
1196.1148636659675
 11
1391.5165260866206
 21
1217.4452072619922
  0
LINE
  8
_0-5_寸法線
  6
CONTINUOUS
 62
    7
 10
1391.5165260866206
 20
1217.4452072619922
 11
1385.0425108734926
 21
1237.9630566572134
  0
LINE
  8
_0-5_寸法線
  6
CONTINUOUS
 62
    7
 10
1385.0425108734926
 20
1237.9630566572134
 11
1375.1039807485297
 21
1257.04498738029
  0
LINE
  8
_0-5_寸法線
  6
CONTINUOUS
 62
    7
 10
1375.1039807485297
 20
1257.04498738029
 11
1362.0029129204399
 21
1274.1112046221244
  0
LINE
  8
_0-5_寸法線
  6
CONTINUOUS
 62
    7
 10
1362.0029129204399
 20
1274.1112046221244
 11
1346.1373767057194
 21
1288.6431600077458
  0
LINE
  8
_0-5_寸法線
  6
CONTINUOUS
 62
    7
 10
1346.1373767057194
 20
1288.6431600077458
 11
1327.989438393904
 21
1300.1993074262866
  0
LINE
  8
_0-5_寸法線
  6
CONTINUOUS
 62
    7
 10
1327.989438393904
 20
1300.1993074262866
 11
1308.1105139072981
 21
1308.428519186127
  0
LINE
  8
_0-5_寸法線
  6
CONTINUOUS
 62
    7
 10
1308.1105139072981
 20
1308.428519186127
 11
1287.1046143072062
 21
1313.0807548521266
  0
LINE
  8
_0-5_寸法線
  6
CONTINUOUS
 62
    7
 10
1287.1046143072062
 20
1313.0807548521266
 11
1265.6099932234788
 21
1314.0146585977184
  0
LINE
  8
_0-5_寸法線
  6
CONTINUOUS
 62
    7
 10
1265.6099932234788
 20
1314.0146585977184
 11
1244.2797538409422
 21
1311.201854230171
  0
LINE
  8
_0-5_寸法線
  6
CONTINUOUS
 62
    7
 10
1244.2797538409422
 20
1311.201854230171
 11
1223.7620046896127
 21
1304.7278073868445
  0
LINE
  8
_0-5_寸法線
  6
CONTINUOUS
 62
    7
 10
1223.7620046896127
 20
1304.7278073868445
 11
1204.6801671949713
 21
1294.7892287050477
  0
LINE
  8
_0-5_寸法線
  6
CONTINUOUS
 62
    7
 10
1204.6801671949713
 20
1294.7892287050477
 11
1187.6140333334172
 21
1281.6880968688636
  0
LINE
  8
_0-5_寸法線
  6
CONTINUOUS
 62
    7
 10
1187.6140333334172
 20
1281.6880968688636
 11
1173.0821489464531
 21
1265.8224831396419
  0
LINE
  8
_0-5_寸法線
  6
CONTINUOUS
 62
    7
 10
1173.0821489464531
 20
1265.8224831396419
 11
1170.8121716589164
 21
1262.7664098817168
  0
LINE
  8
_0-1_計細線
  6
CONTINUOUS
 62
    3
 10
1345.1714719253382
 20
1262.7664098817158
 11
1345.1714719253382
 21
1262.7664098817158
  0
LINE
  8
_0-1_計細線
  6
CONTINUOUS
 62
    3
 10
1345.1714719253382
 20
1262.7664098817158
 11
1331.5416641222059
 21
1274.5488321689486
  0
LINE
  8
_0-1_計細線
  6
CONTINUOUS
 62
    3
 10
1331.5416641222059
 20
1274.5488321689486
 11
1316.0729375630419
 21
1283.7854501362451
  0
LINE
  8
_0-1_計細線
  6
CONTINUOUS
 62
    3
 10
1316.0729375630419
 20
1283.7854501362451
 11
1299.2353016767927
 21
1290.1956138206235
  0
LINE
  8
_0-1_計細線
  6
CONTINUOUS
 62
    3
 10
1299.2353016767927
 20
1290.1956138206235
 11
1281.5403595096072
 21
1293.5845536422332
  0
LINE
  8
_0-1_計細線
  6
CONTINUOUS
 62
    3
 10
1281.5403595096072
 20
1293.5845536422332
 11
1263.5257629251628
 21
1293.8492983794806
  0
LINE
  8
_0-1_計細線
  6
CONTINUOUS
 62
    3
 10
1263.5257629251628
 20
1293.8492983794806
 11
1245.7388763248518
 21
1290.9818038974922
  0
LINE
  8
_0-1_計細線
  6
CONTINUOUS
 62
    3
 10
1245.7388763248518
 20
1290.9818038974922
 11
1228.7201452574259
 21
1285.0691975650807
  0
LINE
  8
_0-1_計細線
  6
CONTINUOUS
 62
    3
 10
1228.7201452574259
 20
1285.0691975650807
 11
1212.9866752544754
 21
1276.2911309337333
  0
LINE
  8
_0-1_計細線
  6
CONTINUOUS
 62
    3
 10
1212.9866752544754
 20
1276.2911309337333
 11
1199.01651984052
 21
1264.9143211161274
  0
LINE
  8
_0-1_計細線
  6
CONTINUOUS
 62
    3
 10
1199.01651984052
 20
1264.9143211161274
 11
1196.8686191001414
 21
1262.7664098817161
  0
LINE
  8
_0-5_寸法線
  6
CONTINUOUS
 62
    7
 10
1170.7651004077422
 20
1118.7664098817152
 11
1170.7651004077422
 21
1118.7664098817152
  0
LINE
  8
_0-5_寸法線
  6
CONTINUOUS
 62
    7
 10
1170.7651004077422
 20
1118.7664098817152
 11
1184.7901326926112
 21
1102.4510191820511
  0
LINE
  8
_0-5_寸法線
  6
CONTINUOUS
 62
    7
 10
1184.7901326926112
 20
1102.4510191820511
 11
1201.4352172440788
 21
1088.8189291243623
  0
LINE
  8
_0-5_寸法線
  6
CONTINUOUS
 62
    7
 10
1201.4352172440788
 20
1088.8189291243623
 11
1220.1946015908675
 21
1078.2843438668815
  0
LINE
  8
_0-5_寸法線
  6
CONTINUOUS
 62
    7
 10
1220.1946015908675
 20
1078.2843438668815
 11
1240.4982913323065
 21
1071.1673514518998
  0
LINE
  8
_0-5_寸法線
  6
CONTINUOUS
 62
    7
 10
1240.4982913323065
 20
1071.1673514518998
 11
1261.7293691297652
 21
1067.6841980925742
  0
LINE
  8
_0-5_寸法線
  6
CONTINUOUS
 62
    7
 10
1261.7293691297652
 20
1067.6841980925742
 11
1283.2427394278118
 21
1067.9407176411676
  0
LINE
  8
_0-5_寸法線
  6
CONTINUOUS
 62
    7
 10
1283.2427394278118
 20
1067.9407176411676
 11
1304.3847293562301
 21
1071.9291158810008
  0
LINE
  8
_0-5_寸法線
  6
CONTINUOUS
 62
    7
 10
1304.3847293562301
 20
1071.9291158810008
 11
1324.5129502494087
 21
1079.5282073497835
  0
LINE
  8
_0-5_寸法線
  6
CONTINUOUS
 62
    7
 10
1324.5129502494087
 20
1079.5282073497835
 11
1343.0158163008796
 21
1090.5070974985626
  0
LINE
  8
_0-5_寸法線
  6
CONTINUOUS
 62
    7
 10
1343.0158163008796
 20
1090.5070974985626
 11
1359.3311272885708
 21
1104.5321983057538
  0
LINE
  8
_0-5_寸法線
  6
CONTINUOUS
 62
    7
 10
1359.3311272885708
 20
1104.5321983057538
 11
1372.9631507440668
 21
1121.1773641803743
  0
LINE
  8
_0-5_寸法線
  6
CONTINUOUS
 62
    7
 10
1372.9631507440668
 20
1121.1773641803743
 11
1383.4976845328092
 21
1139.9368401801837
  0
LINE
  8
_0-5_寸法線
  6
CONTINUOUS
 62
    7
 10
1383.4976845328092
 20
1139.9368401801837
 11
1390.6146421763585
 21
1160.2406291196812
  0
LINE
  8
_0-5_寸法線
  6
CONTINUOUS
 62
    7
 10
1390.6146421763585
 20
1160.2406291196812
 11
1394.0977785180696
 21
1181.4718106461526
  0
LINE
  8
_0-5_寸法線
  6
CONTINUOUS
 62
    7
 10
1394.0977785180696
 20
1181.4718106461526
 11
1393.8412602227518
 21
1202.9852860524124
  0
LINE
  8
_0-5_寸法線
  6
CONTINUOUS
 62
    7
 10
1393.8412602227518
 20
1202.9852860524124
 11
1389.8528814690039
 21
1224.1273792745856
  0
LINE
  8
_0-5_寸法線
  6
CONTINUOUS
 62
    7
 10
1389.8528814690039
 20
1224.1273792745856
 11
1382.2538271270412
 21
1244.2556985085314
  0
LINE
  8
_0-5_寸法線
  6
CONTINUOUS
 62
    7
 10
1382.2538271270412
 20
1244.2556985085314
 11
1371.2749906177373
 21
1262.7586549597477
  0
LINE
  8
_0-5_寸法線
  6
CONTINUOUS
 62
    7
 10
1371.2749906177373
 20
1262.7586549597477
 11
1371.2694211724142
 21
1262.7664098817152
  0
LINE
  8
_0-1_計細線
  6
CONTINUOUS
 62
    3
 10
1164.6099356536834
 20
1118.7664098817152
 11
1164.6099356536834
 21
1118.7664098817152
  0
LINE
  8
_0-1_計細線
  6
CONTINUOUS
 62
    3
 10
1164.6099356536834
 20
1118.7664098817152
 11
1178.7184510267664
 21
1101.3813035033356
  0
LINE
  8
_0-1_計細線
  6
CONTINUOUS
 62
    3
 10
1178.7184510267664
 20
1101.3813035033356
 11
1195.6315036414453
 21
1086.7102459086902
  0
LINE
  8
_0-1_計細線
  6
CONTINUOUS
 62
    3
 10
1195.6315036414453
 20
1086.7102459086902
 11
1214.8351989524406
 21
1075.1990097588791
  0
LINE
  8
_0-1_計細線
  6
CONTINUOUS
 62
    3
 10
1214.8351989524406
 20
1075.1990097588791
 11
1235.7460423952664
 21
1067.1973581393477
  0
LINE
  8
_0-1_計細線
  6
CONTINUOUS
 62
    3
 10
1235.7460423952664
 20
1067.1973581393477
 11
1257.72866857331
 21
1062.948417185524
  0
LINE
  8
_0-1_計細線
  6
CONTINUOUS
 62
    3
 10
1257.72866857331
 20
1062.948417185524
 11
1280.1151465138967
 21
1062.5812888182224
  0
LINE
  8
_0-1_計細線
  6
CONTINUOUS
 62
    3
 10
1280.1151465138967
 20
1062.5812888182224
 11
1302.2252744129064
 21
1066.1071280471074
  0
LINE
  8
_0-1_計細線
  6
CONTINUOUS
 62
    3
 10
1302.2252744129064
 20
1066.1071280471074
 11
1323.3872472223923
 21
1073.41880403137
  0
LINE
  8
_0-1_計細線
  6
CONTINUOUS
 62
    3
 10
1323.3872472223923
 20
1073.41880403137
 11
1342.958069107013
 21
1084.2941551961148
  0
LINE
  8
_0-1_計細線
  6
CONTINUOUS
 62
    3
 10
1342.958069107013
 20
1084.2941551961148
 11
1360.3430905471182
 21
1098.4027394993948
  0
LINE
  8
_0-1_計細線
  6
CONTINUOUS
 62
    3
 10
1360.3430905471182
 20
1098.4027394993948
 11
1375.0140764634955
 21
1115.3158747464424
  0
LINE
  8
_0-1_計細線
  6
CONTINUOUS
 62
    3
 10
1375.0140764634955
 20
1115.3158747464424
 11
1386.525256372953
 21
1134.5196638812358
  0
LINE
  8
_0-1_計細線
  6
CONTINUOUS
 62
    3
 10
1386.525256372953
 20
1134.5196638812358
 11
1394.5268688988795
 21
1155.4306094885001
  0
LINE
  8
_0-1_計細線
  6
CONTINUOUS
 62
    3
 10
1394.5268688988795
 20
1155.4306094885001
 11
1398.7757890936866
 21
1177.4133430674081
  0
LINE
  8
_0-1_計細線
  6
CONTINUOUS
 62
    3
 10
1398.7757890936866
 20
1177.4133430674081
 11
1399.1429156673121
 21
1199.7999303819643
  0
LINE
  8
_0-1_計細線
  6
CONTINUOUS
 62
    3
 10
1399.1429156673121
 20
1199.7999303819643
 11
1395.6170936645915
 21
1221.9101663047757
  0
LINE
  8
_0-1_計細線
  6
CONTINUOUS
 62
    3
 10
1395.6170936645915
 20
1221.9101663047757
 11
1388.3054534029254
 21
1243.072242505647
  0
LINE
  8
_0-1_計細線
  6
CONTINUOUS
 62
    3
 10
1388.3054534029254
 20
1243.072242505647
 11
1377.430155371796
 21
1262.6431600077417
  0
LINE
  8
_0-1_計細線
  6
CONTINUOUS
 62
    3
 10
1377.430155371796
 20
1262.6431600077417
 11
1363.3216399987132
 21
1280.0282663861212
  0
LINE
  8
_0-1_計細線
  6
CONTINUOUS
 62
    3
 10
1363.3216399987132
 20
1280.0282663861212
 11
1346.4085873840343
 21
1294.6993239807666
  0
LINE
  8
_0-1_計細線
  6
CONTINUOUS
 62
    3
 10
1346.4085873840343
 20
1294.6993239807666
 11
1327.204892073039
 21
1306.2105601305777
  0
LINE
  8
_0-1_計細線
  6
CONTINUOUS
 62
    3
 10
1327.204892073039
 20
1306.2105601305777
 11
1306.2940486302132
 21
1314.2122117501094
  0
LINE
  8
_0-1_計細線
  6
CONTINUOUS
 62
    3
 10
1306.2940486302132
 20
1314.2122117501094
 11
1284.3114224521698
 21
1318.4611527039331
  0
LINE
  8
_0-1_計細線
  6
CONTINUOUS
 62
    3
 10
1284.3114224521698
 20
1318.4611527039331
 11
1261.9249445115831
 21
1318.8282810712349
  0
LINE
  8
_0-1_計細線
  6
CONTINUOUS
 62
    3
 10
1261.9249445115831
 20
1318.8282810712349
 11
1239.8148166125734
 21
1315.3024418423499
  0
LINE
  8
_0-1_計細線
  6
CONTINUOUS
 62
    3
 10
1239.8148166125734
 20
1315.3024418423499
 11
1218.6528438030873
 21
1307.9907658580873
  0
LINE
  8
_0-1_計細線
  6
CONTINUOUS
 62
    3
 10
1218.6528438030873
 20
1307.9907658580873
 11
1199.0820219184666
 21
1297.1154146933422
  0
LINE
  8
_0-1_計細線
  6
CONTINUOUS
 62
    3
 10
1199.0820219184666
 20
1297.1154146933422
 11
1181.6970004783614
 21
1283.0068303900625
  0
LINE
  8
_0-1_計細線
  6
CONTINUOUS
 62
    3
 10
1181.6970004783614
 20
1283.0068303900625
 11
1167.0260145619841
 21
1266.0936951430149
  0
LINE
  8
_0-1_計細線
  6
CONTINUOUS
 62
    3
 10
1167.0260145619841
 20
1266.0936951430149
 11
1164.69336178854
 21
1262.7664098817168
  0
LINE
  8
_0-1_計細線
  6
CONTINUOUS
 62
    3
 10
1162.1958334273002
 20
1118.7664098817149
 11
1162.1958334273002
 21
1118.7664098817149
  0
LINE
  8
_0-1_計細線
  6
CONTINUOUS
 62
    3
 10
1162.1958334273002
 20
1118.7664098817149
 11
1176.3410244376603
 21
1100.9620970029086
  0
LINE
  8
_0-1_計細線
  6
CONTINUOUS
 62
    3
 10
1176.3410244376603
 20
1100.9620970029086
 11
1193.3629895934903
 21
1085.8845702852232
  0
LINE
  8
_0-1_計細線
  6
CONTINUOUS
 62
    3
 10
1193.3629895934903
 20
1085.8845702852232
 11
1212.7445250970602
 21
1073.9919527483787
  0
LINE
  8
_0-1_計細線
  6
CONTINUOUS
 62
    3
 10
1212.7445250970602
 20
1073.9919527483787
 11
1233.8967327996245
 21
1065.6455955582778
  0
LINE
  8
_0-1_計細線
  6
CONTINUOUS
 62
    3
 10
1233.8967327996245
 20
1065.6455955582778
 11
1256.1769135736743
 21
1061.0990985546807
  0
LINE
  8
_0-1_計細線
  6
CONTINUOUS
 62
    3
 10
1256.1769135736743
 20
1061.0990985546807
 11
1278.9080954007052
 21
1060.4906047484035
  0
LINE
  8
_0-1_計細線
  6
CONTINUOUS
 62
    3
 10
1278.9080954007052
 20
1060.4906047484035
 11
1301.399602823436
 21
1063.8386029158373
  0
LINE
  8
_0-1_計細線
  6
CONTINUOUS
 62
    3
 10
1301.399602823436
 20
1063.8386029158373
 11
1322.9680427700794
 21
1071.041365826833
  0
LINE
  8
_0-1_計細線
  6
CONTINUOUS
 62
    3
 10
1322.9680427700794
 20
1071.041365826833
 11
1342.9580691070132
 21
1081.8800411751145
  0
LINE
  8
_0-1_計細線
  6
CONTINUOUS
 62
    3
 10
1342.9580691070132
 20
1081.8800411751145
 11
1360.7622949994316
 21
1096.0253012948579
  0
LINE
  8
_0-1_計細線
  6
CONTINUOUS
 62
    3
 10
1360.7622949994316
 20
1096.0253012948579
 11
1375.8397480529661
 21
1113.0473496151724
  0
LINE
  8
_0-1_計細線
  6
CONTINUOUS
 62
    3
 10
1375.8397480529661
 20
1113.0473496151724
 11
1387.7323074861447
 21
1132.4289798114171
  0
LINE
  8
_0-1_計細線
  6
CONTINUOUS
 62
    3
 10
1387.7323074861447
 20
1132.4289798114171
 11
1396.0786238985154
 21
1153.5812908576572
  0
LINE
  8
_0-1_計細線
  6
CONTINUOUS
 62
    3
 10
1396.0786238985154
 20
1153.5812908576572
 11
1400.6250986893288
 21
1175.8615804863384
  0
LINE
  8
_0-1_計細線
  6
CONTINUOUS
 62
    3
 10
1400.6250986893288
 20
1175.8615804863384
 11
1401.2335895226925
 21
1198.5928733714641
  0
LINE
  8
_0-1_計細線
  6
CONTINUOUS
 62
    3
 10
1401.2335895226925
 20
1198.5928733714641
 11
1397.8856077125465
 21
1221.0844906813086
  0
LINE
  8
_0-1_計細線
  6
CONTINUOUS
 62
    3
 10
1397.8856077125465
 20
1221.0844906813086
 11
1390.6828799920315
 21
1242.65303600522
  0
LINE
  8
_0-1_計細線
  6
CONTINUOUS
 62
    3
 10
1390.6828799920315
 20
1242.65303600522
 11
1379.8442575981792
 21
1262.6431600077419
  0
LINE
  8
_0-1_計細線
  6
CONTINUOUS
 62
    3
 10
1379.8442575981792
 20
1262.6431600077419
 11
1365.6990665878193
 21
1280.4474728865484
  0
LINE
  8
_0-1_計細線
  6
CONTINUOUS
 62
    3
 10
1365.6990665878193
 20
1280.4474728865484
 11
1348.6771014319893
 21
1295.5249996042339
  0
LINE
  8
_0-1_計細線
  6
CONTINUOUS
 62
    3
 10
1348.6771014319893
 20
1295.5249996042339
 11
1329.2955659284194
 21
1307.4176171410782
  0
LINE
  8
_0-1_計細線
  6
CONTINUOUS
 62
    3
 10
1329.2955659284194
 20
1307.4176171410782
 11
1308.1433582258551
 21
1315.7639743311793
  0
LINE
  8
_0-1_計細線
  6
CONTINUOUS
 62
    3
 10
1308.1433582258551
 20
1315.7639743311793
 11
1285.8631774518055
 21
1320.3104713347764
  0
LINE
  8
_0-1_計細線
  6
CONTINUOUS
 62
    3
 10
1285.8631774518055
 20
1320.3104713347764
 11
1263.1319956247746
 21
1320.9189651410536
  0
LINE
  8
_0-1_計細線
  6
CONTINUOUS
 62
    3
 10
1263.1319956247746
 20
1320.9189651410536
 11
1240.6404882020436
 21
1317.57096697362
  0
LINE
  8
_0-1_計細線
  6
CONTINUOUS
 62
    3
 10
1240.6404882020436
 20
1317.57096697362
 11
1219.0720482554004
 21
1310.368204062624
  0
LINE
  8
_0-1_計細線
  6
CONTINUOUS
 62
    3
 10
1219.0720482554004
 20
1310.368204062624
 11
1199.0820219184666
 21
1299.5295287143429
  0
LINE
  8
_0-1_計細線
  6
CONTINUOUS
 62
    3
 10
1199.0820219184666
 20
1299.5295287143429
 11
1181.2777960260482
 21
1285.3842685945995
  0
LINE
  8
_0-1_計細線
  6
CONTINUOUS
 62
    3
 10
1181.2777960260482
 20
1285.3842685945995
 11
1166.2003429725135
 21
1268.3622202742849
  0
LINE
  8
_0-1_計細線
  6
CONTINUOUS
 62
    3
 10
1166.2003429725135
 20
1268.3622202742849
 11
1162.2774074741751
 21
1262.7664098817168
  0
LINE
  8
_0-5_寸法線
  6
CONTINUOUS
 62
    7
 10
1312.8829955081478
 20
1262.7664098817161
 11
1312.8829955081478
 21
1262.7664098817161
  0
LINE
  8
_0-5_寸法線
  6
CONTINUOUS
 62
    7
 10
1312.8829955081478
 20
1262.7664098817161
 11
1299.743722213605
 21
1268.9419696860591
  0
LINE
  8
_0-5_寸法線
  6
CONTINUOUS
 62
    7
 10
1299.743722213605
 20
1268.9419696860591
 11
1285.731694537388
 21
1272.7420868497993
  0
LINE
  8
_0-5_寸法線
  6
CONTINUOUS
 62
    7
 10
1285.731694537388
 20
1272.7420868497993
 11
1271.2726608500109
 21
1274.0512967358686
  0
LINE
  8
_0-5_寸法線
  6
CONTINUOUS
 62
    7
 10
1271.2726608500109
 20
1274.0512967358686
 11
1256.8059515734401
 21
1272.8298196643705
  0
LINE
  8
_0-5_寸法線
  6
CONTINUOUS
 62
    7
 10
1256.8059515734401
 20
1272.8298196643705
 11
1242.7711303485364
 21
1269.1147695980258
  0
LINE
  8
_0-5_寸法線
  6
CONTINUOUS
 62
    7
 10
1242.7711303485364
 20
1269.1147695980258
 11
1229.5946381162562
 21
1263.0190264531939
  0
LINE
  8
_0-5_寸法線
  6
CONTINUOUS
 62
    7
 10
1229.5946381162562
 20
1263.0190264531939
 11
1229.1570955173318
 21
1262.7664098817161
  0
LINE
  8
_0-5_寸法線
  6
CONTINUOUS
 62
    7
 10
1229.1437600976076
 20
1118.7664098817145
 11
1229.1437600976076
 21
1118.7664098817145
  0
LINE
  8
_0-5_寸法線
  6
CONTINUOUS
 62
    7
 10
1229.1437600976076
 20
1118.7664098817145
 11
1242.2818893656522
 21
1112.5884165800344
  0
LINE
  8
_0-5_寸法線
  6
CONTINUOUS
 62
    7
 10
1242.2818893656522
 20
1112.5884165800344
 11
1256.2932129660173
 21
1108.7857042301623
  0
LINE
  8
_0-5_寸法線
  6
CONTINUOUS
 62
    7
 10
1256.2932129660173
 20
1108.7857042301623
 11
1270.7520039211779
 21
1107.4738163225843
  0
LINE
  8
_0-5_寸法線
  6
CONTINUOUS
 62
    7
 10
1270.7520039211779
 20
1107.4738163225843
 11
1285.2189391844624
 21
1108.6926139075244
  0
LINE
  8
_0-5_寸法線
  6
CONTINUOUS
 62
    7
 10
1285.2189391844624
 20
1108.6926139075244
 11
1299.2544482485184
 21
1112.4050644371059
  0
LINE
  8
_0-5_寸法線
  6
CONTINUOUS
 62
    7
 10
1299.2544482485184
 20
1112.4050644371059
 11
1312.4320692727451
 21
1118.4983669805777
  0
LINE
  8
_0-5_寸法線
  6
CONTINUOUS
 62
    7
 10
1312.4320692727451
 20
1118.4983669805777
 11
1312.8963309278704
 21
1118.7664098817138
  0
LINE
  8
_0-5_寸法線
  6
CONTINUOUS
 62
    7
 10
1331.9550585501645
 20
1262.7664098817158
 11
1331.9550585501645
 21
1262.7664098817158
  0
LINE
  8
_0-5_寸法線
  6
CONTINUOUS
 62
    7
 10
1331.9550585501645
 20
1262.7664098817158
 11
1318.5260377633206
 21
1272.2538148583092
  0
LINE
  8
_0-5_寸法線
  6
CONTINUOUS
 62
    7
 10
1318.5260377633206
 20
1272.2538148583092
 11
1303.653571441135
 21
1279.2651484546154
  0
LINE
  8
_0-5_寸法線
  6
CONTINUOUS
 62
    7
 10
1303.653571441135
 20
1279.2651484546154
 11
1287.7895519469757
 21
1283.5873748472168
  0
LINE
  8
_0-5_寸法線
  6
CONTINUOUS
 62
    7
 10
1287.7895519469757
 20
1283.5873748472168
 11
1271.415999485592
 21
1285.0891653743261
  0
LINE
  8
_0-5_寸法線
  6
CONTINUOUS
 62
    7
 10
1271.415999485592
 20
1285.0891653743261
 11
1255.0304161631054
 21
1283.7248888907195
  0
LINE
  8
_0-5_寸法線
  6
CONTINUOUS
 62
    7
 10
1255.0304161631054
 20
1283.7248888907195
 11
1239.1306696372649
 21
1279.5359982469947
  0
LINE
  8
_0-5_寸法線
  6
CONTINUOUS
 62
    7
 10
1239.1306696372649
 20
1279.5359982469947
 11
1224.1998656605977
 21
1272.6497707656802
  0
LINE
  8
_0-5_寸法線
  6
CONTINUOUS
 62
    7
 10
1224.1998656605977
 20
1272.6497707656802
 11
1210.6916691565837
 21
1263.2754409841962
  0
LINE
  8
_0-5_寸法線
  6
CONTINUOUS
 62
    7
 10
1210.6916691565837
 20
1263.2754409841962
 11
1210.0850324753151
 21
1262.7664098817161
  0
LINE
  8
_0-5_寸法線
  6
CONTINUOUS
 62
    7
 10
1328.7996567577156
 20
1262.7664098817158
 11
1328.7996567577156
 21
1262.7664098817158
  0
LINE
  8
_0-5_寸法線
  6
CONTINUOUS
 62
    7
 10
1328.7996567577156
 20
1262.7664098817158
 11
1315.4185736142485
 21
1271.7058824102146
  0
LINE
  8
_0-5_寸法線
  6
CONTINUOUS
 62
    7
 10
1315.4185736142485
 20
1271.7058824102146
 11
1300.688463661156
 21
1278.1859322085941
  0
LINE
  8
_0-5_寸法線
  6
CONTINUOUS
 62
    7
 10
1300.688463661156
 20
1278.1859322085941
 11
1285.056893835568
 21
1282.0096662427943
  0
LINE
  8
_0-5_寸法線
  6
CONTINUOUS
 62
    7
 10
1285.056893835568
 20
1282.0096662427943
 11
1268.9988214766788
 21
1283.0609022890887
  0
LINE
  8
_0-5_寸法線
  6
CONTINUOUS
 62
    7
 10
1268.9988214766788
 20
1283.0609022890887
 11
1253.0021629873365
 21
1281.3076990721618
  0
LINE
  8
_0-5_寸法線
  6
CONTINUOUS
 62
    7
 10
1253.0021629873365
 20
1281.3076990721618
 11
1237.5529687410403
 21
1276.8033267845963
  0
LINE
  8
_0-5_寸法線
  6
CONTINUOUS
 62
    7
 10
1237.5529687410403
 20
1276.8033267845963
 11
1223.1206546872941
 21
1269.6846484990274
  0
LINE
  8
_0-5_寸法線
  6
CONTINUOUS
 62
    7
 10
1223.1206546872941
 20
1269.6846484990274
 11
1213.2404342677639
 21
1262.7664098817163
  0
LINE
  8
_0-1_計細線
  6
CONTINUOUS
 62
    3
 10
1196.8610896350128
 20
1118.7664098817152
 11
1196.8610896350128
 21
1118.7664098817152
  0
LINE
  8
_0-1_計細線
  6
CONTINUOUS
 62
    3
 10
1196.8610896350128
 20
1118.7664098817152
 11
1210.4896652061507
 21
1106.9825622955061
  0
LINE
  8
_0-1_計細線
  6
CONTINUOUS
 62
    3
 10
1210.4896652061507
 20
1106.9825622955061
 11
1225.9574257530537
 21
1097.7443267068415
  0
LINE
  8
_0-1_計細線
  6
CONTINUOUS
 62
    3
 10
1225.9574257530537
 20
1097.7443267068415
 11
1242.794391198569
 21
1091.3324022293104
  0
LINE
  8
_0-1_計細線
  6
CONTINUOUS
 62
    3
 10
1242.794391198569
 20
1091.3324022293104
 11
1260.48897886755
 21
1087.9416119435721
  0
LINE
  8
_0-1_計細線
  6
CONTINUOUS
 62
    3
 10
1260.48897886755
 20
1087.9416119435721
 11
1278.5035476675685
 21
1087.6749832966359
  0
LINE
  8
_0-1_計細線
  6
CONTINUOUS
 62
    3
 10
1278.5035476675685
 20
1087.6749832966359
 11
1296.2907340414472
 21
1090.5406176650185
  0
LINE
  8
_0-1_計細線
  6
CONTINUOUS
 62
    3
 10
1296.2907340414472
 20
1090.5406176650185
 11
1313.3100833319666
 21
1096.4514441985177
  0
LINE
  8
_0-1_計細線
  6
CONTINUOUS
 62
    3
 10
1313.3100833319666
 20
1096.4514441985177
 11
1329.0444712231404
 21
1105.2278654239353
  0
LINE
  8
_0-1_計細線
  6
CONTINUOUS
 62
    3
 10
1329.0444712231404
 20
1105.2278654239353
 11
1343.0158163008798
 21
1116.6032142234208
  0
LINE
  8
_0-1_計細線
  6
CONTINUOUS
 62
    3
 10
1343.0158163008798
 20
1116.6032142234208
 11
1345.1790013904647
 21
1118.7664098817133
  0
LINE
  8
_0-1_計細線
  6
CONTINUOUS
 62
    3
 10
1351.4604746743423
 20
1125.8601421361811
 11
1351.4604746743423
 21
1125.8601421361811
  0
LINE
  8
_0-1_計細線
  6
CONTINUOUS
 62
    3
 10
1351.4604746743423
 20
1125.8601421361811
 11
1361.5085305432187
 21
1140.8145574594503
  0
LINE
  8
_0-1_計細線
  6
CONTINUOUS
 62
    3
 10
1361.5085305432187
 20
1140.8145574594503
 11
1368.8071395838269
 21
1157.2866167270231
  0
LINE
  8
_0-1_計細線
  6
CONTINUOUS
 62
    3
 10
1368.8071395838269
 20
1157.2866167270231
 11
1373.1345372537423
 21
1174.7758247533186
  0
LINE
  8
_0-1_計細線
  6
CONTINUOUS
 62
    3
 10
1373.1345372537423
 20
1174.7758247533186
 11
1374.3592377645334
 21
1192.7507808024241
  0
LINE
  8
_0-1_計細線
  6
CONTINUOUS
 62
    3
 10
1374.3592377645334
 20
1192.7507808024241
 11
1372.4440292109082
 21
1210.6653249305539
  0
LINE
  8
_0-1_計細線
  6
CONTINUOUS
 62
    3
 10
1372.4440292109082
 20
1210.6653249305539
 11
1367.4471042356263
 21
1227.9751327795718
  0
LINE
  8
_0-1_計細線
  6
CONTINUOUS
 62
    3
 10
1367.4471042356263
 20
1227.9751327795718
 11
1359.5202918754953
 21
1244.1542545971706
  0
LINE
  8
_0-1_計細線
  6
CONTINUOUS
 62
    3
 10
1359.5202918754953
 20
1244.1542545971706
 11
1351.5024100529324
 21
1255.6129128392699
  0
LINE
  8
_0-5_寸法線
  6
CONTINUOUS
 62
    7
 10
1210.0758701411532
 20
1118.7664098817147
 11
1210.0758701411532
 21
1118.7664098817147
  0
LINE
  8
_0-5_寸法線
  6
CONTINUOUS
 62
    7
 10
1210.0758701411532
 20
1118.7664098817147
 11
1223.5036835029523
 21
1109.2772960600278
  0
LINE
  8
_0-5_寸法線
  6
CONTINUOUS
 62
    7
 10
1223.5036835029523
 20
1109.2772960600278
 11
1238.3752574799794
 21
1102.2640699116416
  0
LINE
  8
_0-5_寸法線
  6
CONTINUOUS
 62
    7
 10
1238.3752574799794
 20
1102.2640699116416
 11
1254.238726822322
 21
1097.9398247642114
  0
LINE
  8
_0-5_寸法線
  6
CONTINUOUS
 62
    7
 10
1254.238726822322
 20
1097.9398247642114
 11
1270.6120880413162
 21
1096.435950618368
  0
LINE
  8
_0-5_寸法線
  6
CONTINUOUS
 62
    7
 10
1270.6120880413162
 20
1096.435950618368
 11
1286.997844841643
 21
1097.7981419290361
  0
LINE
  8
_0-5_寸法線
  6
CONTINUOUS
 62
    7
 10
1286.997844841643
 20
1097.7981419290361
 11
1302.8981242945176
 21
1101.9850092025429
  0
LINE
  8
_0-5_寸法線
  6
CONTINUOUS
 62
    7
 10
1302.8981242945176
 20
1101.9850092025429
 11
1317.8298044546941
 21
1108.86933659544
  0
LINE
  8
_0-5_寸法線
  6
CONTINUOUS
 62
    7
 10
1317.8298044546941
 20
1108.86933659544
 11
1331.3391937763004
 21
1118.2419473035318
  0
LINE
  8
_0-5_寸法線
  6
CONTINUOUS
 62
    7
 10
1331.3391937763004
 20
1118.2419473035318
 11
1331.9642208843245
 21
1118.7664098817133
  0
LINE
  8
_0-5_寸法線
  6
CONTINUOUS
 62
    7
 10
1351.4604746743423
 20
1141.4985030083121
 11
1351.4604746743423
 21
1141.4985030083121
  0
LINE
  8
_0-5_寸法線
  6
CONTINUOUS
 62
    7
 10
1351.4604746743423
 20
1141.4985030083121
 11
1358.792970943528
 21
1156.2153364907276
  0
LINE
  8
_0-5_寸法線
  6
CONTINUOUS
 62
    7
 10
1358.792970943528
 20
1156.2153364907276
 11
1363.4585312887425
 21
1171.9818690397517
  0
LINE
  8
_0-5_寸法線
  6
CONTINUOUS
 62
    7
 10
1363.4585312887425
 20
1171.9818690397517
 11
1365.3153950197839
 21
1188.3190425421326
  0
LINE
  8
_0-5_寸法線
  6
CONTINUOUS
 62
    7
 10
1365.3153950197839
 20
1188.3190425421326
 11
1364.3071422718031
 21
1204.7304602480092
  0
LINE
  8
_0-5_寸法線
  6
CONTINUOUS
 62
    7
 10
1364.3071422718031
 20
1204.7304602480092
 11
1360.4644082943464
 21
1220.7174695349665
  0
LINE
  8
_0-5_寸法線
  6
CONTINUOUS
 62
    7
 10
1360.4644082943464
 20
1220.7174695349665
 11
1353.9039526148024
 21
1235.7943132156374
  0
LINE
  8
_0-5_寸法線
  6
CONTINUOUS
 62
    7
 10
1353.9039526148024
 20
1235.7943132156374
 11
1351.5024100529322
 21
1239.9580217437258
  0
LINE
  8
_0-5_寸法線
  6
CONTINUOUS
 62
    7
 10
1213.2307716509563
 20
1118.7664098817152
 11
1213.2307716509563
 21
1118.7664098817152
  0
LINE
  8
_0-5_寸法線
  6
CONTINUOUS
 62
    7
 10
1213.2307716509563
 20
1118.7664098817152
 11
1226.6106549697963
 21
1109.8251416345288
  0
LINE
  8
_0-5_寸法線
  6
CONTINUOUS
 62
    7
 10
1226.6106549697963
 20
1109.8251416345288
 11
1241.3398951480476
 21
1103.3431150500855
  0
LINE
  8
_0-5_寸法線
  6
CONTINUOUS
 62
    7
 10
1241.3398951480476
 20
1103.3431150500855
 11
1256.9709516762493
 21
1099.5172832260894
  0
LINE
  8
_0-5_寸法線
  6
CONTINUOUS
 62
    7
 10
1256.9709516762493
 20
1099.5172832260894
 11
1273.0288828114883
 21
1098.4638921265487
  0
LINE
  8
_0-5_寸法線
  6
CONTINUOUS
 62
    7
 10
1273.0288828114883
 20
1098.4638921265487
 11
1289.0257764419255
 21
1100.2149485069813
  0
LINE
  8
_0-5_寸法線
  6
CONTINUOUS
 62
    7
 10
1289.0257764419255
 20
1100.2149485069813
 11
1304.4755750494189
 21
1104.7172474053448
  0
LINE
  8
_0-5_寸法線
  6
CONTINUOUS
 62
    7
 10
1304.4755750494189
 20
1104.7172474053448
 11
1318.9088443212549
 21
1111.8339887478855
  0
LINE
  8
_0-5_寸法線
  6
CONTINUOUS
 62
    7
 10
1318.9088443212549
 20
1111.8339887478855
 11
1328.8093193745212
 21
1118.7664098817138
  0
LINE
  8
_0-5_寸法線
  6
CONTINUOUS
 62
    7
 10
1351.4604746743425
 20
1169.167250417951
 11
1351.4604746743425
 21
1169.167250417951
  0
LINE
  8
_0-5_寸法線
  6
CONTINUOUS
 62
    7
 10
1351.4604746743425
 20
1169.167250417951
 11
1353.9883668514481
 21
1183.4637334558765
  0
LINE
  8
_0-5_寸法線
  6
CONTINUOUS
 62
    7
 10
1353.9883668514481
 20
1183.4637334558765
 11
1353.9953085686732
 21
1197.9819868069785
  0
LINE
  8
_0-5_寸法線
  6
CONTINUOUS
 62
    7
 10
1353.9953085686732
 20
1197.9819868069785
 11
1351.5024100529322
 21
1212.2009973975144
  0
LINE
  8
_0-5_寸法線
  6
CONTINUOUS
 62
    7
 10
1351.4604746743421
 20
1145.4596782569502
 11
1351.4604746743421
 21
1145.4596782569502
  0
LINE
  8
_0-5_寸法線
  6
CONTINUOUS
 62
    7
 10
1351.4604746743421
 20
1145.4596782569502
 11
1358.1051234408098
 21
1160.1163325866264
  0
LINE
  8
_0-5_寸法線
  6
CONTINUOUS
 62
    7
 10
1358.1051234408098
 20
1160.1163325866264
 11
1362.1037361816088
 21
1175.7041561905367
  0
LINE
  8
_0-5_寸法線
  6
CONTINUOUS
 62
    7
 10
1362.1037361816088
 20
1175.7041561905367
 11
1363.3348170720058
 21
1191.7495209362953
  0
LINE
  8
_0-5_寸法線
  6
CONTINUOUS
 62
    7
 10
1363.3348170720058
 20
1191.7495209362953
 11
1361.7609603421026
 21
1207.7648965354488
  0
LINE
  8
_0-5_寸法線
  6
CONTINUOUS
 62
    7
 10
1361.7609603421026
 20
1207.7648965354488
 11
1357.4299868322278
 21
1223.2636639045879
  0
LINE
  8
_0-5_寸法線
  6
CONTINUOUS
 62
    7
 10
1357.4299868322278
 20
1223.2636639045879
 11
1351.5024100529322
 21
1235.9908440315567
  0
LINE
  8
_0-5_寸法線
  6
CONTINUOUS
 62
    7
 10
341.46047467434255
 20
1262.7684745077609
 11
213.46047467434255
 21
1262.7684745077609
  0
LINE
  8
_0-5_寸法線
  6
CONTINUOUS
 62
    7
 10
221.46047467434255
 20
1262.7684745077609
 11
225.60157939598287
 21
1247.3136612871358
  0
LINE
  8
_0-5_寸法線
  6
CONTINUOUS
 62
    7
 10
221.46047467434255
 20
1262.7684745077609
 11
217.31936995270223
 21
1247.3136612871358
  0
LINE
  8
_0-5_寸法線
  6
CONTINUOUS
 62
    7
 10
341.46047467434255
 20
1118.7684745077609
 11
213.46047467434255
 21
1118.7684745077609
  0
LINE
  8
_0-5_寸法線
  6
CONTINUOUS
 62
    7
 10
221.46047467434255
 20
1118.7684745077609
 11
217.31936995270223
 21
1134.2232877283859
  0
LINE
  8
_0-5_寸法線
  6
CONTINUOUS
 62
    7
 10
221.46047467434255
 20
1118.7684745077609
 11
225.60157939598287
 21
1134.2232877283859
  0
LINE
  8
_0-5_寸法線
  6
CONTINUOUS
 62
    7
 10
221.46047467434255
 20
1262.7684745077609
 11
221.46047467434255
 21
1118.7684745077609
  0
TEXT
  8
_0-5_寸法線
 62
    7
 10
221.46047467434255
 20
1172.7684745077613
 40
24
 41
1
 50
90
  1
144
  0
LINE
  8
_0-5_寸法線
  6
CONTINUOUS
 62
    7
 10
277.46047467434255
 20
1262.7684745077609
 11
273.31936995270223
 21
1278.2232877283859
  0
LINE
  8
_0-5_寸法線
  6
CONTINUOUS
 62
    7
 10
277.46047467434255
 20
1262.7684745077609
 11
281.60157939598298
 21
1278.2232877283859
  0
LINE
  8
_0-5_寸法線
  6
CONTINUOUS
 62
    7
 10
341.46047467434255
 20
1250.7684745077609
 11
269.46047467434255
 21
1250.7684745077609
  0
LINE
  8
_0-5_寸法線
  6
CONTINUOUS
 62
    7
 10
277.46047467434255
 20
1302.7684745077609
 11
277.46047467434255
 21
1250.7684745077609
  0
TEXT
  8
_0-5_寸法線
 62
    7
 10
277.46047467434346
 20
1274.4497182267123
 40
24
 41
1
 50
90
  1
12
  0
LINE
  8
_0-5_寸法線
  6
CONTINUOUS
 62
    7
 10
277.46047467434255
 20
1250.7684745077609
 11
281.60157939598275
 21
1235.3136612871358
  0
LINE
  8
_0-5_寸法線
  6
CONTINUOUS
 62
    7
 10
277.46047467434255
 20
1250.7684745077609
 11
273.31936995270212
 21
1235.3136612871358
  0
LINE
  8
_0-5_寸法線
  6
CONTINUOUS
 62
    7
 10
341.46047467434255
 20
1130.7684745077609
 11
269.46047467434255
 21
1130.7684745077609
  0
LINE
  8
_0-5_寸法線
  6
CONTINUOUS
 62
    7
 10
277.46047467434255
 20
1130.7684745077609
 11
273.31936995270223
 21
1146.2232877283859
  0
LINE
  8
_0-5_寸法線
  6
CONTINUOUS
 62
    7
 10
277.46047467434255
 20
1130.7684745077609
 11
281.60157939598298
 21
1146.2232877283859
  0
LINE
  8
_0-5_寸法線
  6
CONTINUOUS
 62
    7
 10
277.46047467434255
 20
1250.7684745077609
 11
277.46047467434255
 21
1130.7684745077609
  0
TEXT
  8
_0-5_寸法線
 62
    7
 10
277.46047467434346
 20
1172.7684745077613
 40
24
 41
1
 50
90
  1
120
  0
LINE
  8
_0-5_寸法線
  6
CONTINUOUS
 62
    7
 10
277.46047467434255
 20
1118.7684745077609
 11
281.60157939598275
 21
1103.3136612871358
  0
LINE
  8
_0-5_寸法線
  6
CONTINUOUS
 62
    7
 10
277.46047467434255
 20
1118.7684745077609
 11
273.31936995270212
 21
1103.3136612871358
  0
LINE
  8
_0-5_寸法線
  6
CONTINUOUS
 62
    7
 10
277.46047467434255
 20
1130.7684745077609
 11
277.46047467434255
 21
1078.7684745077609
  0
TEXT
  8
_0-5_寸法線
 62
    7
 10
277.46047467434346
 20
1081.3228123826611
 40
24
 41
1
 50
90
  1
12
  0
LINE
  8
_0-5_寸法線
  6
CONTINUOUS
 62
    7
 10
854.96047467434255
 20
1278.7684745077609
 11
854.96047467434266
 21
1350.7684745077609
  0
LINE
  8
_0-5_寸法線
  6
CONTINUOUS
 62
    7
 10
854.96047467434266
 20
1342.7684745077609
 11
870.41528789496772
 21
1346.9095792294013
  0
LINE
  8
_0-5_寸法線
  6
CONTINUOUS
 62
    7
 10
854.96047467434266
 20
1342.7684745077609
 11
870.41528789496772
 21
1338.6273697861204
  0
LINE
  8
_0-5_寸法線
  6
CONTINUOUS
 62
    7
 10
1337.9604746743425
 20
1278.7684745077609
 11
1337.9604746743425
 21
1350.7684745077609
  0
LINE
  8
_0-5_寸法線
  6
CONTINUOUS
 62
    7
 10
1337.9604746743425
 20
1342.7684745077609
 11
1322.5056614537175
 21
1338.6273697861207
  0
LINE
  8
_0-5_寸法線
  6
CONTINUOUS
 62
    7
 10
1337.9604746743425
 20
1342.7684745077609
 11
1322.5056614537175
 21
1346.9095792294013
  0
LINE
  8
_0-5_寸法線
  6
CONTINUOUS
 62
    7
 10
854.96047467434266
 20
1342.7684745077609
 11
1337.9604746743425
 21
1342.7684745077609
  0
TEXT
  8
_0-5_寸法線
 62
    7
 10
1084.4604746743428
 20
1342.7684745077606
 40
24
 41
1
 50
0
  1
Ｂ
  0
LINE
  8
_0-5_寸法線
  6
CONTINUOUS
 62
    7
 10
370.96047467434528
 20
1278.7684745077609
 11
370.96047467434528
 21
1350.7684745077609
  0
LINE
  8
_0-5_寸法線
  6
CONTINUOUS
 62
    7
 10
370.96047467434528
 20
1342.7684745077609
 11
386.41528789497033
 21
1346.9095792294013
  0
LINE
  8
_0-5_寸法線
  6
CONTINUOUS
 62
    7
 10
370.96047467434528
 20
1342.7684745077609
 11
386.41528789497033
 21
1338.6273697861204
  0
LINE
  8
_0-5_寸法線
  6
CONTINUOUS
 62
    7
 10
853.96047467434255
 20
1278.7684745077611
 11
853.96047467434266
 21
1350.7684745077609
  0
LINE
  8
_0-5_寸法線
  6
CONTINUOUS
 62
    7
 10
853.96047467434266
 20
1342.7684745077609
 11
838.50566145371761
 21
1338.6273697861207
  0
LINE
  8
_0-5_寸法線
  6
CONTINUOUS
 62
    7
 10
853.96047467434266
 20
1342.7684745077609
 11
838.50566145371761
 21
1346.9095792294013
  0
LINE
  8
_0-5_寸法線
  6
CONTINUOUS
 62
    7
 10
370.96047467434528
 20
1342.7684745077609
 11
853.96047467434266
 21
1342.7684745077609
  0
TEXT
  8
_0-5_寸法線
 62
    7
 10
600.46047467434414
 20
1342.7684745077606
 40
24
 41
1
 50
0
  1
Ｂ
  0
ARC
  8
_0-a_極細1
  6
CONTINUOUS
 62
    7
 10
2018.8342976988567
 20
545.19253202597997
 40
40.55999999997205
 50
329.9999999999622
 51
30.00000000001284
  0
ARC
  8
_0-a_極細1
  6
CONTINUOUS
 62
    7
 10
2089.0862784537057
 20
504.63253202599321
 40
40.559999999917665
 50
149.99999999994984
 51
210.000000000104
  0
ARC
  8
_0-a_極細1
  6
CONTINUOUS
 62
    7
 10
1812.8668629518913
 20
545.19253202597997
 40
40.55999999997205
 50
329.99999999996334
 51
30.000000000012331
  0
ARC
  8
_0-a_極細1
  6
CONTINUOUS
 62
    7
 10
1883.1188437067401
 20
504.63253202599321
 40
40.559999999917665
 50
149.99999999994853
 51
210.000000000104
  0
LINE
  8
_0-b_細線1
  6
CONTINUOUS
 62
    7
 10
1852.136739791317
 20
555.34094929243224
 11
2058.1041745382827
 21
555.34094929243224
  0
LINE
  8
_0-d_寸法1
  6
CONTINUOUS
 62
    7
 10
1830.1176628645342
 20
491.34094929243241
 11
1752.9433912802299
 21
491.34094929243327
  0
LINE
  8
_0-d_寸法1
  6
CONTINUOUS
 62
    7
 10
1760.9433912802299
 20
491.34094929243315
 11
1756.8022865585897
 21
506.79576251305826
  0
LINE
  8
_0-d_寸法1
  6
CONTINUOUS
 62
    7
 10
1760.9433912802299
 20
491.34094929243315
 11
1765.0844960018703
 21
506.79576251305826
  0
LINE
  8
_0-d_寸法1
  6
CONTINUOUS
 62
    7
 10
1836.136739791317
 20
555.34094929243236
 11
1752.9433912802299
 21
555.34094929243327
  0
LINE
  8
_0-d_寸法1
  6
CONTINUOUS
 62
    7
 10
1760.9433912802299
 20
555.34094929243315
 11
1765.0844960018703
 21
539.8861360718081
  0
LINE
  8
_0-d_寸法1
  6
CONTINUOUS
 62
    7
 10
1760.9433912802299
 20
555.34094929243315
 11
1756.8022865585897
 21
539.8861360718081
  0
LINE
  8
_0-d_寸法1
  6
CONTINUOUS
 62
    7
 10
1760.9433912802299
 20
491.34094929243315
 11
1760.9433912802299
 21
555.34094929243315
  0
TEXT
  8
_0-d_寸法1
 62
    7
 10
1760.9433912802299
 20
517.34094929243315
 40
24
 41
1
 50
90
  1
8
  0
LINE
  8
_0-b_細線1
  6
CONTINUOUS
 62
    7
 10
2050.7659518837218
 20
491.34094929243224
 11
1844.7985171367561
 21
491.34094929243224
  0
LINE
  8
_0-a_極細1
  6
CONTINUOUS
 62
    7
 10
2049.4513398822037
 20
496.01944637526299
 11
2004.9602126943275
 21
555.34094929243179
  0
LINE
  8
_0-a_極細1
  6
CONTINUOUS
 62
    7
 10
2053.0421058588827
 20
523.23175840635736
 11
2028.9602126943275
 21
555.34094929243179
  0
LINE
  8
_0-a_極細1
  6
CONTINUOUS
 62
    7
 10
2053.4346147994029
 20
523.97348543253133
 11
2028.9602126943275
 21
491.34094929243179
  0
LINE
  8
_0-a_極細1
  6
CONTINUOUS
 62
    7
 10
2052.9602126943219
 20
555.34094929243179
 11
2059.3622363633758
 21
546.80491771262473
  0
LINE
  8
_0-a_極細1
  6
CONTINUOUS
 62
    7
 10
1884.9602126943275
 20
555.34094929243179
 11
1842.9137106785013
 21
499.27894648217421
  0
LINE
  8
_0-a_極細1
  6
CONTINUOUS
 62
    7
 10
1884.9602126943275
 20
491.34094929243179
 11
1852.1485323012741
 21
535.08985648315843
  0
LINE
  8
_0-a_極細1
  6
CONTINUOUS
 62
    7
 10
2004.9602126943221
 20
555.34094929243179
 11
1956.9602126943221
 21
491.34094929243179
  0
LINE
  8
_0-a_極細1
  6
CONTINUOUS
 62
    7
 10
2004.9602126943275
 20
491.34094929243179
 11
1956.9602126943275
 21
555.34094929243179
  0
LINE
  8
_0-a_極細1
  6
CONTINUOUS
 62
    7
 10
2028.9602126943221
 20
555.34094929243179
 11
1980.9602126943221
 21
491.34094929243179
  0
LINE
  8
_0-a_極細1
  6
CONTINUOUS
 62
    7
 10
2028.9602126943275
 20
491.34094929243179
 11
1980.9602126943275
 21
555.34094929243179
  0
LINE
  8
_0-a_極細1
  6
CONTINUOUS
 62
    7
 10
2052.9602126943219
 20
555.34094929243179
 11
2004.9602126943275
 21
491.34094929243179
  0
LINE
  8
_0-a_極細1
  6
CONTINUOUS
 62
    7
 10
1908.9602126943275
 20
555.34094929243179
 11
1860.9602126943275
 21
491.34094929243179
  0
LINE
  8
_0-a_極細1
  6
CONTINUOUS
 62
    7
 10
1956.9602126943275
 20
555.34094929243179
 11
1908.9602126943275
 21
491.34094929243179
  0
LINE
  8
_0-a_極細1
  6
CONTINUOUS
 62
    7
 10
1908.9602126943275
 20
491.34094929243179
 11
1860.9602126943275
 21
555.34094929243179
  0
LINE
  8
_0-a_極細1
  6
CONTINUOUS
 62
    7
 10
1932.9602126943275
 20
491.34094929243179
 11
1884.9602126943275
 21
555.34094929243179
  0
LINE
  8
_0-a_極細1
  6
CONTINUOUS
 62
    7
 10
1932.9602126943221
 20
555.34094929243179
 11
1884.9602126943221
 21
491.34094929243179
  0
LINE
  8
_0-a_極細1
  6
CONTINUOUS
 62
    7
 10
1956.9602126943275
 20
491.34094929243179
 11
1908.9602126943275
 21
555.34094929243179
  0
LINE
  8
_0-a_極細1
  6
CONTINUOUS
 62
    7
 10
1980.9602126943275
 20
491.34094929243179
 11
1932.9602126943275
 21
555.34094929243179
  0
LINE
  8
_0-a_極細1
  6
CONTINUOUS
 62
    7
 10
1980.9602126943275
 20
555.34094929243179
 11
1932.9602126943275
 21
491.34094929243179
  0
LINE
  8
_0-a_極細1
  6
CONTINUOUS
 62
    7
 10
1860.960212694318
 20
491.34094929243224
 11
1843.7310439904215
 21
514.31317423095516
  0
LINE
  8
_0-1_計細線
  6
CONTINUOUS
 62
    3
 10
1190.4604746743425
 20
1245.7684745077604
 11
1192.4150342687528
 21
1245.7684745077604
  0
LINE
  8
_0-1_計細線
  6
CONTINUOUS
 62
    3
 10
455.14047467434284
 20
1135.7684745077609
 11
455.14047467434284
 21
1245.7684745077609
  0
LINE
  8
_0-1_計細線
  6
CONTINUOUS
 62
    3
 10
455.14047467434284
 20
1245.7684745077609
 11
463.14047467434284
 21
1245.7684745077609
  0
LINE
  8
_0-1_計細線
  6
CONTINUOUS
 62
    3
 10
463.14047467434284
 20
1245.7684745077609
 11
463.14047467434284
 21
1135.7684745077609
  0
LINE
  8
_0-1_計細線
  6
CONTINUOUS
 62
    3
 10
463.14047467434284
 20
1135.7684745077609
 11
455.14047467434284
 21
1135.7684745077609
  0
LINE
  8
_0-1_計細線
  6
CONTINUOUS
 62
    3
 10
441.11047467434219
 20
1135.7684745077609
 11
441.11047467434219
 21
1245.7684745077609
  0
LINE
  8
_0-1_計細線
  6
CONTINUOUS
 62
    3
 10
441.11047467434219
 20
1245.7684745077609
 11
449.11047467434219
 21
1245.7684745077609
  0
LINE
  8
_0-1_計細線
  6
CONTINUOUS
 62
    3
 10
449.11047467434219
 20
1245.7684745077609
 11
449.11047467434219
 21
1135.7684745077609
  0
LINE
  8
_0-1_計細線
  6
CONTINUOUS
 62
    3
 10
449.11047467434219
 20
1135.7684745077609
 11
441.11047467434219
 21
1135.7684745077609
  0
LINE
  8
_0-1_計細線
  6
CONTINUOUS
 62
    3
 10
427.08047467434244
 20
1135.7684745077609
 11
427.08047467434244
 21
1245.7684745077609
  0
LINE
  8
_0-1_計細線
  6
CONTINUOUS
 62
    3
 10
427.08047467434244
 20
1245.7684745077609
 11
435.08047467434244
 21
1245.7684745077609
  0
LINE
  8
_0-1_計細線
  6
CONTINUOUS
 62
    3
 10
435.08047467434244
 20
1245.7684745077609
 11
435.08047467434244
 21
1135.7684745077609
  0
LINE
  8
_0-1_計細線
  6
CONTINUOUS
 62
    3
 10
435.08047467434244
 20
1135.7684745077609
 11
427.08047467434244
 21
1135.7684745077609
  0
LINE
  8
_0-1_計細線
  6
CONTINUOUS
 62
    3
 10
413.05047467434269
 20
1135.7684745077609
 11
413.05047467434269
 21
1245.7684745077609
  0
LINE
  8
_0-1_計細線
  6
CONTINUOUS
 62
    3
 10
413.05047467434269
 20
1245.7684745077609
 11
421.05047467434269
 21
1245.7684745077609
  0
LINE
  8
_0-1_計細線
  6
CONTINUOUS
 62
    3
 10
421.05047467434269
 20
1245.7684745077609
 11
421.05047467434269
 21
1135.7684745077609
  0
LINE
  8
_0-1_計細線
  6
CONTINUOUS
 62
    3
 10
421.05047467434269
 20
1135.7684745077609
 11
413.05047467434269
 21
1135.7684745077609
  0
LINE
  8
_0-1_計細線
  6
CONTINUOUS
 62
    3
 10
399.02047467434204
 20
1135.7684745077609
 11
399.02047467434204
 21
1245.7684745077609
  0
LINE
  8
_0-1_計細線
  6
CONTINUOUS
 62
    3
 10
399.02047467434204
 20
1245.7684745077609
 11
407.02047467434204
 21
1245.7684745077609
  0
LINE
  8
_0-1_計細線
  6
CONTINUOUS
 62
    3
 10
407.02047467434204
 20
1245.7684745077609
 11
407.02047467434204
 21
1135.7684745077609
  0
LINE
  8
_0-1_計細線
  6
CONTINUOUS
 62
    3
 10
407.02047467434204
 20
1135.7684745077609
 11
399.02047467434204
 21
1135.7684745077609
  0
LINE
  8
_0-1_計細線
  6
CONTINUOUS
 62
    3
 10
384.99047467434229
 20
1135.7684745077609
 11
384.99047467434229
 21
1245.7684745077609
  0
LINE
  8
_0-1_計細線
  6
CONTINUOUS
 62
    3
 10
384.99047467434229
 20
1245.7684745077609
 11
392.99047467434229
 21
1245.7684745077609
  0
LINE
  8
_0-1_計細線
  6
CONTINUOUS
 62
    3
 10
392.99047467434229
 20
1245.7684745077609
 11
392.99047467434229
 21
1135.7684745077609
  0
LINE
  8
_0-1_計細線
  6
CONTINUOUS
 62
    3
 10
392.99047467434229
 20
1135.7684745077609
 11
384.99047467434229
 21
1135.7684745077609
  0
LINE
  8
_0-1_計細線
  6
CONTINUOUS
 62
    3
 10
370.96047467434255
 20
1135.7684745077609
 11
370.96047467434255
 21
1245.7684745077609
  0
LINE
  8
_0-1_計細線
  6
CONTINUOUS
 62
    3
 10
370.96047467434255
 20
1245.7684745077609
 11
378.96047467434255
 21
1245.7684745077609
  0
LINE
  8
_0-1_計細線
  6
CONTINUOUS
 62
    3
 10
378.96047467434255
 20
1245.7684745077609
 11
378.96047467434255
 21
1135.7684745077609
  0
LINE
  8
_0-1_計細線
  6
CONTINUOUS
 62
    3
 10
378.96047467434255
 20
1135.7684745077609
 11
370.96047467434255
 21
1135.7684745077609
  0
LINE
  8
_0-1_計細線
  6
CONTINUOUS
 62
    3
 10
370.96047467434255
 20
1248.7684745077609
 11
853.96047467434255
 21
1248.7684745077609
  0
LINE
  8
_0-1_計細線
  6
CONTINUOUS
 62
    3
 10
853.96047467434255
 20
1248.7684745077609
 11
853.96047467434255
 21
1245.7684745077609
  0
LINE
  8
_0-1_計細線
  6
CONTINUOUS
 62
    3
 10
853.96047467434255
 20
1245.7684745077609
 11
370.96047467434255
 21
1245.7684745077609
  0
LINE
  8
_0-1_計細線
  6
CONTINUOUS
 62
    3
 10
370.96047467434255
 20
1245.7684745077609
 11
370.96047467434255
 21
1248.7684745077609
  0
LINE
  8
_0-1_計細線
  6
CONTINUOUS
 62
    3
 10
370.96047467434255
 20
1132.7684745077609
 11
853.96047467434255
 21
1132.7684745077609
  0
LINE
  8
_0-1_計細線
  6
CONTINUOUS
 62
    3
 10
853.96047467434255
 20
1132.7684745077609
 11
853.96047467434255
 21
1135.7684745077609
  0
LINE
  8
_0-1_計細線
  6
CONTINUOUS
 62
    3
 10
853.96047467434255
 20
1135.7684745077609
 11
370.96047467434255
 21
1135.7684745077609
  0
LINE
  8
_0-1_計細線
  6
CONTINUOUS
 62
    3
 10
370.96047467434255
 20
1135.7684745077609
 11
370.96047467434255
 21
1132.7684745077609
  0
LINE
  8
_0-1_計細線
  6
CONTINUOUS
 62
    3
 10
845.96047467434255
 20
1135.7684745077609
 11
845.96047467434255
 21
1245.7684745077609
  0
LINE
  8
_0-1_計細線
  6
CONTINUOUS
 62
    3
 10
845.96047467434255
 20
1245.7684745077609
 11
853.96047467434255
 21
1245.7684745077609
  0
LINE
  8
_0-1_計細線
  6
CONTINUOUS
 62
    3
 10
853.96047467434255
 20
1245.7684745077609
 11
853.96047467434255
 21
1135.7684745077609
  0
LINE
  8
_0-1_計細線
  6
CONTINUOUS
 62
    3
 10
853.96047467434255
 20
1135.7684745077609
 11
845.96047467434255
 21
1135.7684745077609
  0
LINE
  8
_0-1_計細線
  6
CONTINUOUS
 62
    3
 10
833.95047467434233
 20
1135.7684745077609
 11
833.95047467434233
 21
1245.7684745077609
  0
LINE
  8
_0-1_計細線
  6
CONTINUOUS
 62
    3
 10
833.95047467434233
 20
1245.7684745077609
 11
841.95047467434233
 21
1245.7684745077609
  0
LINE
  8
_0-1_計細線
  6
CONTINUOUS
 62
    3
 10
841.95047467434233
 20
1245.7684745077609
 11
841.95047467434233
 21
1135.7684745077609
  0
LINE
  8
_0-1_計細線
  6
CONTINUOUS
 62
    3
 10
841.95047467434233
 20
1135.7684745077609
 11
833.95047467434233
 21
1135.7684745077609
  0
LINE
  8
_0-1_計細線
  6
CONTINUOUS
 62
    3
 10
819.92047467434168
 20
1135.7684745077609
 11
819.92047467434168
 21
1245.7684745077609
  0
LINE
  8
_0-1_計細線
  6
CONTINUOUS
 62
    3
 10
819.92047467434168
 20
1245.7684745077609
 11
827.92047467434168
 21
1245.7684745077609
  0
LINE
  8
_0-1_計細線
  6
CONTINUOUS
 62
    3
 10
827.92047467434168
 20
1245.7684745077609
 11
827.92047467434168
 21
1135.7684745077609
  0
LINE
  8
_0-1_計細線
  6
CONTINUOUS
 62
    3
 10
827.92047467434168
 20
1135.7684745077609
 11
819.92047467434168
 21
1135.7684745077609
  0
LINE
  8
_0-1_計細線
  6
CONTINUOUS
 62
    3
 10
805.89047467434193
 20
1135.7684745077609
 11
805.89047467434193
 21
1245.7684745077609
  0
LINE
  8
_0-1_計細線
  6
CONTINUOUS
 62
    3
 10
805.89047467434193
 20
1245.7684745077609
 11
813.89047467434193
 21
1245.7684745077609
  0
LINE
  8
_0-1_計細線
  6
CONTINUOUS
 62
    3
 10
813.89047467434193
 20
1245.7684745077609
 11
813.89047467434193
 21
1135.7684745077609
  0
LINE
  8
_0-1_計細線
  6
CONTINUOUS
 62
    3
 10
813.89047467434193
 20
1135.7684745077609
 11
805.89047467434193
 21
1135.7684745077609
  0
LINE
  8
_0-1_計細線
  6
CONTINUOUS
 62
    3
 10
791.86047467434219
 20
1135.7684745077609
 11
791.86047467434219
 21
1245.7684745077609
  0
LINE
  8
_0-1_計細線
  6
CONTINUOUS
 62
    3
 10
791.86047467434219
 20
1245.7684745077609
 11
799.86047467434219
 21
1245.7684745077609
  0
LINE
  8
_0-1_計細線
  6
CONTINUOUS
 62
    3
 10
799.86047467434219
 20
1245.7684745077609
 11
799.86047467434219
 21
1135.7684745077609
  0
LINE
  8
_0-1_計細線
  6
CONTINUOUS
 62
    3
 10
799.86047467434219
 20
1135.7684745077609
 11
791.86047467434219
 21
1135.7684745077609
  0
LINE
  8
_0-1_計細線
  6
CONTINUOUS
 62
    3
 10
777.83047467434153
 20
1135.7684745077609
 11
777.83047467434153
 21
1245.7684745077609
  0
LINE
  8
_0-1_計細線
  6
CONTINUOUS
 62
    3
 10
777.83047467434153
 20
1245.7684745077609
 11
785.83047467434153
 21
1245.7684745077609
  0
LINE
  8
_0-1_計細線
  6
CONTINUOUS
 62
    3
 10
785.83047467434153
 20
1245.7684745077609
 11
785.83047467434153
 21
1135.7684745077609
  0
LINE
  8
_0-1_計細線
  6
CONTINUOUS
 62
    3
 10
785.83047467434153
 20
1135.7684745077609
 11
777.83047467434153
 21
1135.7684745077609
  0
LINE
  8
_0-1_計細線
  6
CONTINUOUS
 62
    3
 10
763.80047467434179
 20
1135.7684745077609
 11
763.80047467434179
 21
1245.7684745077609
  0
LINE
  8
_0-1_計細線
  6
CONTINUOUS
 62
    3
 10
763.80047467434179
 20
1245.7684745077609
 11
771.80047467434179
 21
1245.7684745077609
  0
LINE
  8
_0-1_計細線
  6
CONTINUOUS
 62
    3
 10
771.80047467434179
 20
1245.7684745077609
 11
771.80047467434179
 21
1135.7684745077609
  0
LINE
  8
_0-1_計細線
  6
CONTINUOUS
 62
    3
 10
771.80047467434179
 20
1135.7684745077609
 11
763.80047467434179
 21
1135.7684745077609
  0
LINE
  8
_0-1_計細線
  6
CONTINUOUS
 62
    3
 10
749.77047467434204
 20
1135.7684745077609
 11
749.77047467434204
 21
1245.7684745077609
  0
LINE
  8
_0-1_計細線
  6
CONTINUOUS
 62
    3
 10
749.77047467434204
 20
1245.7684745077609
 11
757.77047467434204
 21
1245.7684745077609
  0
LINE
  8
_0-1_計細線
  6
CONTINUOUS
 62
    3
 10
757.77047467434204
 20
1245.7684745077609
 11
757.77047467434204
 21
1135.7684745077609
  0
LINE
  8
_0-1_計細線
  6
CONTINUOUS
 62
    3
 10
757.77047467434204
 20
1135.7684745077609
 11
749.77047467434204
 21
1135.7684745077609
  0
LINE
  8
_0-1_計細線
  6
CONTINUOUS
 62
    3
 10
735.74047467434229
 20
1135.7684745077609
 11
735.74047467434229
 21
1245.7684745077609
  0
LINE
  8
_0-1_計細線
  6
CONTINUOUS
 62
    3
 10
735.74047467434229
 20
1245.7684745077609
 11
743.74047467434229
 21
1245.7684745077609
  0
LINE
  8
_0-1_計細線
  6
CONTINUOUS
 62
    3
 10
743.74047467434229
 20
1245.7684745077609
 11
743.74047467434229
 21
1135.7684745077609
  0
LINE
  8
_0-1_計細線
  6
CONTINUOUS
 62
    3
 10
743.74047467434229
 20
1135.7684745077609
 11
735.74047467434229
 21
1135.7684745077609
  0
LINE
  8
_0-1_計細線
  6
CONTINUOUS
 62
    3
 10
721.71047467434255
 20
1135.7684745077609
 11
721.71047467434255
 21
1245.7684745077609
  0
LINE
  8
_0-1_計細線
  6
CONTINUOUS
 62
    3
 10
721.71047467434255
 20
1245.7684745077609
 11
729.71047467434255
 21
1245.7684745077609
  0
LINE
  8
_0-1_計細線
  6
CONTINUOUS
 62
    3
 10
729.71047467434255
 20
1245.7684745077609
 11
729.71047467434255
 21
1135.7684745077609
  0
LINE
  8
_0-1_計細線
  6
CONTINUOUS
 62
    3
 10
729.71047467434255
 20
1135.7684745077609
 11
721.71047467434255
 21
1135.7684745077609
  0
LINE
  8
_0-1_計細線
  6
CONTINUOUS
 62
    3
 10
707.68047467434189
 20
1135.7684745077609
 11
707.68047467434189
 21
1245.7684745077609
  0
LINE
  8
_0-1_計細線
  6
CONTINUOUS
 62
    3
 10
707.68047467434189
 20
1245.7684745077609
 11
715.68047467434189
 21
1245.7684745077609
  0
LINE
  8
_0-1_計細線
  6
CONTINUOUS
 62
    3
 10
715.68047467434189
 20
1245.7684745077609
 11
715.68047467434189
 21
1135.7684745077609
  0
LINE
  8
_0-1_計細線
  6
CONTINUOUS
 62
    3
 10
715.68047467434189
 20
1135.7684745077609
 11
707.68047467434189
 21
1135.7684745077609
  0
LINE
  8
_0-1_計細線
  6
CONTINUOUS
 62
    3
 10
693.65047467434215
 20
1135.7684745077609
 11
693.65047467434215
 21
1245.7684745077609
  0
LINE
  8
_0-1_計細線
  6
CONTINUOUS
 62
    3
 10
693.65047467434215
 20
1245.7684745077609
 11
701.65047467434215
 21
1245.7684745077609
  0
LINE
  8
_0-1_計細線
  6
CONTINUOUS
 62
    3
 10
701.65047467434215
 20
1245.7684745077609
 11
701.65047467434215
 21
1135.7684745077609
  0
LINE
  8
_0-1_計細線
  6
CONTINUOUS
 62
    3
 10
701.65047467434215
 20
1135.7684745077609
 11
693.65047467434215
 21
1135.7684745077609
  0
LINE
  8
_0-1_計細線
  6
CONTINUOUS
 62
    3
 10
679.6204746743424
 20
1135.7684745077609
 11
679.6204746743424
 21
1245.7684745077609
  0
LINE
  8
_0-1_計細線
  6
CONTINUOUS
 62
    3
 10
679.6204746743424
 20
1245.7684745077609
 11
687.6204746743424
 21
1245.7684745077609
  0
LINE
  8
_0-1_計細線
  6
CONTINUOUS
 62
    3
 10
687.6204746743424
 20
1245.7684745077609
 11
687.6204746743424
 21
1135.7684745077609
  0
LINE
  8
_0-1_計細線
  6
CONTINUOUS
 62
    3
 10
687.6204746743424
 20
1135.7684745077609
 11
679.6204746743424
 21
1135.7684745077609
  0
LINE
  8
_0-1_計細線
  6
CONTINUOUS
 62
    3
 10
665.59047467434175
 20
1135.7684745077609
 11
665.59047467434175
 21
1245.7684745077609
  0
LINE
  8
_0-1_計細線
  6
CONTINUOUS
 62
    3
 10
665.59047467434175
 20
1245.7684745077609
 11
673.59047467434175
 21
1245.7684745077609
  0
LINE
  8
_0-1_計細線
  6
CONTINUOUS
 62
    3
 10
673.59047467434175
 20
1245.7684745077609
 11
673.59047467434175
 21
1135.7684745077609
  0
LINE
  8
_0-1_計細線
  6
CONTINUOUS
 62
    3
 10
673.59047467434175
 20
1135.7684745077609
 11
665.59047467434175
 21
1135.7684745077609
  0
LINE
  8
_0-1_計細線
  6
CONTINUOUS
 62
    3
 10
651.560474674342
 20
1135.7684745077609
 11
651.560474674342
 21
1245.7684745077609
  0
LINE
  8
_0-1_計細線
  6
CONTINUOUS
 62
    3
 10
651.560474674342
 20
1245.7684745077609
 11
659.560474674342
 21
1245.7684745077609
  0
LINE
  8
_0-1_計細線
  6
CONTINUOUS
 62
    3
 10
659.560474674342
 20
1245.7684745077609
 11
659.560474674342
 21
1135.7684745077609
  0
LINE
  8
_0-1_計細線
  6
CONTINUOUS
 62
    3
 10
659.560474674342
 20
1135.7684745077609
 11
651.560474674342
 21
1135.7684745077609
  0
LINE
  8
_0-1_計細線
  6
CONTINUOUS
 62
    3
 10
637.53047467434226
 20
1135.7684745077609
 11
637.53047467434226
 21
1245.7684745077609
  0
LINE
  8
_0-1_計細線
  6
CONTINUOUS
 62
    3
 10
637.53047467434226
 20
1245.7684745077609
 11
645.53047467434226
 21
1245.7684745077609
  0
LINE
  8
_0-1_計細線
  6
CONTINUOUS
 62
    3
 10
645.53047467434226
 20
1245.7684745077609
 11
645.53047467434226
 21
1135.7684745077609
  0
LINE
  8
_0-1_計細線
  6
CONTINUOUS
 62
    3
 10
645.53047467434226
 20
1135.7684745077609
 11
637.53047467434226
 21
1135.7684745077609
  0
LINE
  8
_0-1_計細線
  6
CONTINUOUS
 62
    3
 10
623.50047467434251
 20
1135.7684745077609
 11
623.50047467434251
 21
1245.7684745077609
  0
LINE
  8
_0-1_計細線
  6
CONTINUOUS
 62
    3
 10
623.50047467434251
 20
1245.7684745077609
 11
631.50047467434251
 21
1245.7684745077609
  0
LINE
  8
_0-1_計細線
  6
CONTINUOUS
 62
    3
 10
631.50047467434251
 20
1245.7684745077609
 11
631.50047467434251
 21
1135.7684745077609
  0
LINE
  8
_0-1_計細線
  6
CONTINUOUS
 62
    3
 10
631.50047467434251
 20
1135.7684745077609
 11
623.50047467434251
 21
1135.7684745077609
  0
LINE
  8
_0-1_計細線
  6
CONTINUOUS
 62
    3
 10
609.47047467434277
 20
1135.7684745077609
 11
609.47047467434277
 21
1245.7684745077609
  0
LINE
  8
_0-1_計細線
  6
CONTINUOUS
 62
    3
 10
609.47047467434277
 20
1245.7684745077609
 11
617.47047467434277
 21
1245.7684745077609
  0
LINE
  8
_0-1_計細線
  6
CONTINUOUS
 62
    3
 10
617.47047467434277
 20
1245.7684745077609
 11
617.47047467434277
 21
1135.7684745077609
  0
LINE
  8
_0-1_計細線
  6
CONTINUOUS
 62
    3
 10
617.47047467434277
 20
1135.7684745077609
 11
609.47047467434277
 21
1135.7684745077609
  0
LINE
  8
_0-1_計細線
  6
CONTINUOUS
 62
    3
 10
595.44047467434211
 20
1135.7684745077609
 11
595.44047467434211
 21
1245.7684745077609
  0
LINE
  8
_0-1_計細線
  6
CONTINUOUS
 62
    3
 10
595.44047467434211
 20
1245.7684745077609
 11
603.44047467434211
 21
1245.7684745077609
  0
LINE
  8
_0-1_計細線
  6
CONTINUOUS
 62
    3
 10
603.44047467434211
 20
1245.7684745077609
 11
603.44047467434211
 21
1135.7684745077609
  0
LINE
  8
_0-1_計細線
  6
CONTINUOUS
 62
    3
 10
603.44047467434211
 20
1135.7684745077609
 11
595.44047467434211
 21
1135.7684745077609
  0
LINE
  8
_0-1_計細線
  6
CONTINUOUS
 62
    3
 10
581.41047467434237
 20
1135.7684745077609
 11
581.41047467434237
 21
1245.7684745077609
  0
LINE
  8
_0-1_計細線
  6
CONTINUOUS
 62
    3
 10
581.41047467434237
 20
1245.7684745077609
 11
589.41047467434237
 21
1245.7684745077609
  0
LINE
  8
_0-1_計細線
  6
CONTINUOUS
 62
    3
 10
589.41047467434237
 20
1245.7684745077609
 11
589.41047467434237
 21
1135.7684745077609
  0
LINE
  8
_0-1_計細線
  6
CONTINUOUS
 62
    3
 10
589.41047467434237
 20
1135.7684745077609
 11
581.41047467434237
 21
1135.7684745077609
  0
LINE
  8
_0-1_計細線
  6
CONTINUOUS
 62
    3
 10
567.38047467434262
 20
1135.7684745077609
 11
567.38047467434262
 21
1245.7684745077609
  0
LINE
  8
_0-1_計細線
  6
CONTINUOUS
 62
    3
 10
567.38047467434262
 20
1245.7684745077609
 11
575.38047467434262
 21
1245.7684745077609
  0
LINE
  8
_0-1_計細線
  6
CONTINUOUS
 62
    3
 10
575.38047467434262
 20
1245.7684745077609
 11
575.38047467434262
 21
1135.7684745077609
  0
LINE
  8
_0-1_計細線
  6
CONTINUOUS
 62
    3
 10
575.38047467434262
 20
1135.7684745077609
 11
567.38047467434262
 21
1135.7684745077609
  0
LINE
  8
_0-1_計細線
  6
CONTINUOUS
 62
    3
 10
553.35047467434197
 20
1135.7684745077609
 11
553.35047467434197
 21
1245.7684745077609
  0
LINE
  8
_0-1_計細線
  6
CONTINUOUS
 62
    3
 10
553.35047467434197
 20
1245.7684745077609
 11
561.35047467434197
 21
1245.7684745077609
  0
LINE
  8
_0-1_計細線
  6
CONTINUOUS
 62
    3
 10
561.35047467434197
 20
1245.7684745077609
 11
561.35047467434197
 21
1135.7684745077609
  0
LINE
  8
_0-1_計細線
  6
CONTINUOUS
 62
    3
 10
561.35047467434197
 20
1135.7684745077609
 11
553.35047467434197
 21
1135.7684745077609
  0
LINE
  8
_0-1_計細線
  6
CONTINUOUS
 62
    3
 10
539.32047467434222
 20
1135.7684745077609
 11
539.32047467434222
 21
1245.7684745077609
  0
LINE
  8
_0-1_計細線
  6
CONTINUOUS
 62
    3
 10
539.32047467434222
 20
1245.7684745077609
 11
547.32047467434222
 21
1245.7684745077609
  0
LINE
  8
_0-1_計細線
  6
CONTINUOUS
 62
    3
 10
547.32047467434222
 20
1245.7684745077609
 11
547.32047467434222
 21
1135.7684745077609
  0
LINE
  8
_0-1_計細線
  6
CONTINUOUS
 62
    3
 10
547.32047467434222
 20
1135.7684745077609
 11
539.32047467434222
 21
1135.7684745077609
  0
LINE
  8
_0-1_計細線
  6
CONTINUOUS
 62
    3
 10
525.29047467434248
 20
1135.7684745077609
 11
525.29047467434248
 21
1245.7684745077609
  0
LINE
  8
_0-1_計細線
  6
CONTINUOUS
 62
    3
 10
525.29047467434248
 20
1245.7684745077609
 11
533.29047467434248
 21
1245.7684745077609
  0
LINE
  8
_0-1_計細線
  6
CONTINUOUS
 62
    3
 10
533.29047467434248
 20
1245.7684745077609
 11
533.29047467434248
 21
1135.7684745077609
  0
LINE
  8
_0-1_計細線
  6
CONTINUOUS
 62
    3
 10
533.29047467434248
 20
1135.7684745077609
 11
525.29047467434248
 21
1135.7684745077609
  0
LINE
  8
_0-1_計細線
  6
CONTINUOUS
 62
    3
 10
511.26047467434182
 20
1135.7684745077609
 11
511.26047467434182
 21
1245.7684745077609
  0
LINE
  8
_0-1_計細線
  6
CONTINUOUS
 62
    3
 10
511.26047467434182
 20
1245.7684745077609
 11
519.26047467434182
 21
1245.7684745077609
  0
LINE
  8
_0-1_計細線
  6
CONTINUOUS
 62
    3
 10
519.26047467434182
 20
1245.7684745077609
 11
519.26047467434182
 21
1135.7684745077609
  0
LINE
  8
_0-1_計細線
  6
CONTINUOUS
 62
    3
 10
519.26047467434182
 20
1135.7684745077609
 11
511.26047467434182
 21
1135.7684745077609
  0
LINE
  8
_0-1_計細線
  6
CONTINUOUS
 62
    3
 10
497.23047467434208
 20
1135.7684745077609
 11
497.23047467434208
 21
1245.7684745077609
  0
LINE
  8
_0-1_計細線
  6
CONTINUOUS
 62
    3
 10
497.23047467434208
 20
1245.7684745077609
 11
505.23047467434208
 21
1245.7684745077609
  0
LINE
  8
_0-1_計細線
  6
CONTINUOUS
 62
    3
 10
505.23047467434208
 20
1245.7684745077609
 11
505.23047467434208
 21
1135.7684745077609
  0
LINE
  8
_0-1_計細線
  6
CONTINUOUS
 62
    3
 10
505.23047467434208
 20
1135.7684745077609
 11
497.23047467434208
 21
1135.7684745077609
  0
LINE
  8
_0-1_計細線
  6
CONTINUOUS
 62
    3
 10
483.20047467434233
 20
1135.7684745077609
 11
483.20047467434233
 21
1245.7684745077609
  0
LINE
  8
_0-1_計細線
  6
CONTINUOUS
 62
    3
 10
483.20047467434233
 20
1245.7684745077609
 11
491.20047467434233
 21
1245.7684745077609
  0
LINE
  8
_0-1_計細線
  6
CONTINUOUS
 62
    3
 10
491.20047467434233
 20
1245.7684745077609
 11
491.20047467434233
 21
1135.7684745077609
  0
LINE
  8
_0-1_計細線
  6
CONTINUOUS
 62
    3
 10
491.20047467434233
 20
1135.7684745077609
 11
483.20047467434233
 21
1135.7684745077609
  0
LINE
  8
_0-1_計細線
  6
CONTINUOUS
 62
    3
 10
469.17047467434259
 20
1135.7684745077609
 11
469.17047467434259
 21
1245.7684745077609
  0
LINE
  8
_0-1_計細線
  6
CONTINUOUS
 62
    3
 10
469.17047467434259
 20
1245.7684745077609
 11
477.17047467434259
 21
1245.7684745077609
  0
LINE
  8
_0-1_計細線
  6
CONTINUOUS
 62
    3
 10
477.17047467434259
 20
1245.7684745077609
 11
477.17047467434259
 21
1135.7684745077609
  0
LINE
  8
_0-1_計細線
  6
CONTINUOUS
 62
    3
 10
477.17047467434259
 20
1135.7684745077609
 11
469.17047467434259
 21
1135.7684745077609
  0
LINE
  8
_0-0_計極細
  6
CONTINUOUS
 62
    2
 10
841.95047467434233
 20
1193.7684745077609
 11
845.96047467434255
 21
1193.7684745077609
  0
LINE
  8
_0-0_計極細
  6
CONTINUOUS
 62
    2
 10
841.95047467434233
 20
1187.7684745077609
 11
845.96047467434255
 21
1187.7684745077609
  0
LINE
  8
_0-0_計極細
  6
CONTINUOUS
 62
    2
 10
827.92047467434168
 20
1192.7684745077609
 11
833.95047467434233
 21
1192.7684745077609
  0
LINE
  8
_0-0_計極細
  6
CONTINUOUS
 62
    2
 10
827.92047467434168
 20
1188.7684745077609
 11
833.95047467434233
 21
1188.7684745077609
  0
LINE
  8
_0-0_計極細
  6
CONTINUOUS
 62
    2
 10
813.89047467434193
 20
1192.7684745077609
 11
819.92047467434259
 21
1192.7684745077609
  0
LINE
  8
_0-0_計極細
  6
CONTINUOUS
 62
    2
 10
813.89047467434193
 20
1188.7684745077609
 11
819.92047467434259
 21
1188.7684745077609
  0
LINE
  8
_0-0_計極細
  6
CONTINUOUS
 62
    2
 10
799.86047467434219
 20
1192.7684745077609
 11
805.89047467434193
 21
1192.7684745077609
  0
LINE
  8
_0-0_計極細
  6
CONTINUOUS
 62
    2
 10
799.86047467434219
 20
1188.7684745077609
 11
805.89047467434193
 21
1188.7684745077609
  0
LINE
  8
_0-0_計極細
  6
CONTINUOUS
 62
    2
 10
785.83047467434153
 20
1192.7684745077609
 11
791.86047467434219
 21
1192.7684745077609
  0
LINE
  8
_0-0_計極細
  6
CONTINUOUS
 62
    2
 10
785.83047467434153
 20
1188.7684745077609
 11
791.86047467434219
 21
1188.7684745077609
  0
LINE
  8
_0-0_計極細
  6
CONTINUOUS
 62
    2
 10
771.80047467434179
 20
1192.7684745077609
 11
777.83047467434244
 21
1192.7684745077609
  0
LINE
  8
_0-0_計極細
  6
CONTINUOUS
 62
    2
 10
771.80047467434179
 20
1188.7684745077609
 11
777.83047467434244
 21
1188.7684745077609
  0
LINE
  8
_0-0_計極細
  6
CONTINUOUS
 62
    2
 10
757.77047467434204
 20
1192.7684745077609
 11
763.80047467434269
 21
1192.7684745077609
  0
LINE
  8
_0-0_計極細
  6
CONTINUOUS
 62
    2
 10
757.77047467434204
 20
1188.7684745077609
 11
763.80047467434269
 21
1188.7684745077609
  0
LINE
  8
_0-0_計極細
  6
CONTINUOUS
 62
    2
 10
743.74047467434229
 20
1192.7684745077609
 11
749.77047467434204
 21
1192.7684745077609
  0
LINE
  8
_0-0_計極細
  6
CONTINUOUS
 62
    2
 10
743.74047467434229
 20
1188.7684745077609
 11
749.77047467434204
 21
1188.7684745077609
  0
LINE
  8
_0-0_計極細
  6
CONTINUOUS
 62
    2
 10
729.71047467434255
 20
1192.7684745077609
 11
735.74047467434229
 21
1192.7684745077609
  0
LINE
  8
_0-0_計極細
  6
CONTINUOUS
 62
    2
 10
729.71047467434255
 20
1188.7684745077609
 11
735.74047467434229
 21
1188.7684745077609
  0
LINE
  8
_0-0_計極細
  6
CONTINUOUS
 62
    2
 10
715.68047467434189
 20
1192.7684745077609
 11
721.71047467434255
 21
1192.7684745077609
  0
LINE
  8
_0-0_計極細
  6
CONTINUOUS
 62
    2
 10
715.68047467434189
 20
1188.7684745077609
 11
721.71047467434255
 21
1188.7684745077609
  0
LINE
  8
_0-0_計極細
  6
CONTINUOUS
 62
    2
 10
701.65047467434215
 20
1192.7684745077609
 11
707.68047467434189
 21
1192.7684745077609
  0
LINE
  8
_0-0_計極細
  6
CONTINUOUS
 62
    2
 10
701.65047467434215
 20
1188.7684745077609
 11
707.68047467434189
 21
1188.7684745077609
  0
LINE
  8
_0-0_計極細
  6
CONTINUOUS
 62
    2
 10
687.6204746743424
 20
1192.7684745077609
 11
693.65047467434215
 21
1192.7684745077609
  0
LINE
  8
_0-0_計極細
  6
CONTINUOUS
 62
    2
 10
687.6204746743424
 20
1188.7684745077609
 11
693.65047467434215
 21
1188.7684745077609
  0
LINE
  8
_0-0_計極細
  6
CONTINUOUS
 62
    2
 10
673.59047467434175
 20
1192.7684745077609
 11
679.6204746743424
 21
1192.7684745077609
  0
LINE
  8
_0-0_計極細
  6
CONTINUOUS
 62
    2
 10
673.59047467434175
 20
1188.7684745077609
 11
679.6204746743424
 21
1188.7684745077609
  0
LINE
  8
_0-0_計極細
  6
CONTINUOUS
 62
    2
 10
659.560474674342
 20
1192.7684745077609
 11
665.59047467434266
 21
1192.7684745077609
  0
LINE
  8
_0-0_計極細
  6
CONTINUOUS
 62
    2
 10
659.560474674342
 20
1188.7684745077609
 11
665.59047467434266
 21
1188.7684745077609
  0
LINE
  8
_0-0_計極細
  6
CONTINUOUS
 62
    2
 10
645.53047467434226
 20
1192.7684745077609
 11
651.56047467434291
 21
1192.7684745077609
  0
LINE
  8
_0-0_計極細
  6
CONTINUOUS
 62
    2
 10
645.53047467434226
 20
1188.7684745077609
 11
651.56047467434291
 21
1188.7684745077609
  0
LINE
  8
_0-0_計極細
  6
CONTINUOUS
 62
    2
 10
631.50047467434251
 20
1192.7684745077609
 11
637.53047467434226
 21
1192.7684745077609
  0
LINE
  8
_0-0_計極細
  6
CONTINUOUS
 62
    2
 10
631.50047467434251
 20
1188.7684745077609
 11
637.53047467434226
 21
1188.7684745077609
  0
LINE
  8
_0-0_計極細
  6
CONTINUOUS
 62
    2
 10
617.47047467434277
 20
1192.7684745077609
 11
623.50047467434251
 21
1192.7684745077609
  0
LINE
  8
_0-0_計極細
  6
CONTINUOUS
 62
    2
 10
617.47047467434277
 20
1188.7684745077609
 11
623.50047467434251
 21
1188.7684745077609
  0
LINE
  8
_0-0_計極細
  6
CONTINUOUS
 62
    2
 10
603.44047467434211
 20
1192.7684745077609
 11
609.47047467434277
 21
1192.7684745077609
  0
LINE
  8
_0-0_計極細
  6
CONTINUOUS
 62
    2
 10
603.44047467434211
 20
1188.7684745077609
 11
609.47047467434277
 21
1188.7684745077609
  0
LINE
  8
_0-0_計極細
  6
CONTINUOUS
 62
    2
 10
589.41047467434237
 20
1192.7684745077609
 11
595.44047467434211
 21
1192.7684745077609
  0
LINE
  8
_0-0_計極細
  6
CONTINUOUS
 62
    2
 10
589.41047467434237
 20
1188.7684745077609
 11
595.44047467434211
 21
1188.7684745077609
  0
LINE
  8
_0-0_計極細
  6
CONTINUOUS
 62
    2
 10
575.38047467434262
 20
1192.7684745077609
 11
581.41047467434237
 21
1192.7684745077609
  0
LINE
  8
_0-0_計極細
  6
CONTINUOUS
 62
    2
 10
575.38047467434262
 20
1188.7684745077609
 11
581.41047467434237
 21
1188.7684745077609
  0
LINE
  8
_0-0_計極細
  6
CONTINUOUS
 62
    2
 10
561.35047467434197
 20
1192.7684745077609
 11
567.38047467434262
 21
1192.7684745077609
  0
LINE
  8
_0-0_計極細
  6
CONTINUOUS
 62
    2
 10
561.35047467434197
 20
1188.7684745077609
 11
567.38047467434262
 21
1188.7684745077609
  0
LINE
  8
_0-0_計極細
  6
CONTINUOUS
 62
    2
 10
547.32047467434222
 20
1192.7684745077609
 11
553.35047467434197
 21
1192.7684745077609
  0
LINE
  8
_0-0_計極細
  6
CONTINUOUS
 62
    2
 10
547.32047467434222
 20
1188.7684745077609
 11
553.35047467434197
 21
1188.7684745077609
  0
LINE
  8
_0-0_計極細
  6
CONTINUOUS
 62
    2
 10
533.29047467434248
 20
1192.7684745077609
 11
539.32047467434222
 21
1192.7684745077609
  0
LINE
  8
_0-0_計極細
  6
CONTINUOUS
 62
    2
 10
533.29047467434248
 20
1188.7684745077609
 11
539.32047467434222
 21
1188.7684745077609
  0
LINE
  8
_0-0_計極細
  6
CONTINUOUS
 62
    2
 10
519.26047467434182
 20
1192.7684745077609
 11
525.29047467434248
 21
1192.7684745077609
  0
LINE
  8
_0-0_計極細
  6
CONTINUOUS
 62
    2
 10
519.26047467434182
 20
1188.7684745077609
 11
525.29047467434248
 21
1188.7684745077609
  0
LINE
  8
_0-0_計極細
  6
CONTINUOUS
 62
    2
 10
505.23047467434208
 20
1192.7684745077609
 11
511.26047467434273
 21
1192.7684745077609
  0
LINE
  8
_0-0_計極細
  6
CONTINUOUS
 62
    2
 10
505.23047467434208
 20
1188.7684745077609
 11
511.26047467434273
 21
1188.7684745077609
  0
LINE
  8
_0-0_計極細
  6
CONTINUOUS
 62
    2
 10
491.20047467434233
 20
1192.7684745077609
 11
497.23047467434299
 21
1192.7684745077609
  0
LINE
  8
_0-0_計極細
  6
CONTINUOUS
 62
    2
 10
491.20047467434233
 20
1188.7684745077609
 11
497.23047467434299
 21
1188.7684745077609
  0
LINE
  8
_0-0_計極細
  6
CONTINUOUS
 62
    2
 10
477.17047467434259
 20
1192.7684745077609
 11
483.20047467434233
 21
1192.7684745077609
  0
LINE
  8
_0-0_計極細
  6
CONTINUOUS
 62
    2
 10
477.17047467434259
 20
1188.7684745077609
 11
483.20047467434233
 21
1188.7684745077609
  0
LINE
  8
_0-0_計極細
  6
CONTINUOUS
 62
    2
 10
463.14047467434284
 20
1192.7684745077609
 11
469.17047467434259
 21
1192.7684745077609
  0
LINE
  8
_0-0_計極細
  6
CONTINUOUS
 62
    2
 10
463.14047467434284
 20
1188.7684745077609
 11
469.17047467434259
 21
1188.7684745077609
  0
LINE
  8
_0-0_計極細
  6
CONTINUOUS
 62
    2
 10
449.11047467434219
 20
1192.7684745077609
 11
455.14047467434284
 21
1192.7684745077609
  0
LINE
  8
_0-0_計極細
  6
CONTINUOUS
 62
    2
 10
449.11047467434219
 20
1188.7684745077609
 11
455.14047467434284
 21
1188.7684745077609
  0
LINE
  8
_0-0_計極細
  6
CONTINUOUS
 62
    2
 10
435.08047467434244
 20
1192.7684745077609
 11
441.11047467434219
 21
1192.7684745077609
  0
LINE
  8
_0-0_計極細
  6
CONTINUOUS
 62
    2
 10
435.08047467434244
 20
1188.7684745077609
 11
441.11047467434219
 21
1188.7684745077609
  0
LINE
  8
_0-0_計極細
  6
CONTINUOUS
 62
    2
 10
421.05047467434269
 20
1192.7684745077609
 11
427.08047467434244
 21
1192.7684745077609
  0
LINE
  8
_0-0_計極細
  6
CONTINUOUS
 62
    2
 10
421.05047467434269
 20
1188.7684745077609
 11
427.08047467434244
 21
1188.7684745077609
  0
LINE
  8
_0-0_計極細
  6
CONTINUOUS
 62
    2
 10
407.02047467434204
 20
1192.7684745077609
 11
413.05047467434269
 21
1192.7684745077609
  0
LINE
  8
_0-0_計極細
  6
CONTINUOUS
 62
    2
 10
407.02047467434204
 20
1188.7684745077609
 11
413.05047467434269
 21
1188.7684745077609
  0
LINE
  8
_0-0_計極細
  6
CONTINUOUS
 62
    2
 10
392.99047467434229
 20
1192.7684745077609
 11
399.02047467434204
 21
1192.7684745077609
  0
LINE
  8
_0-0_計極細
  6
CONTINUOUS
 62
    2
 10
392.99047467434229
 20
1188.7684745077609
 11
399.02047467434204
 21
1188.7684745077609
  0
LINE
  8
_0-0_計極細
  6
CONTINUOUS
 62
    2
 10
378.96047467434255
 20
1188.7684745077609
 11
384.99047467434229
 21
1188.7684745077609
  0
LINE
  8
_0-0_計極細
  6
CONTINUOUS
 62
    2
 10
378.96047467434255
 20
1192.7684745077609
 11
384.99047467434229
 21
1192.7684745077609
  0
LINE
  8
_0-1_計細線
  6
CONTINUOUS
 62
    3
 10
939.14047467434284
 20
1135.7684745077604
 11
939.14047467434284
 21
1245.7684745077604
  0
LINE
  8
_0-1_計細線
  6
CONTINUOUS
 62
    3
 10
939.14047467434284
 20
1245.7684745077604
 11
947.14047467434284
 21
1245.7684745077604
  0
LINE
  8
_0-1_計細線
  6
CONTINUOUS
 62
    3
 10
947.14047467434284
 20
1245.7684745077604
 11
947.14047467434284
 21
1135.7684745077604
  0
LINE
  8
_0-1_計細線
  6
CONTINUOUS
 62
    3
 10
947.14047467434284
 20
1135.7684745077604
 11
939.14047467434284
 21
1135.7684745077604
  0
LINE
  8
_0-1_計細線
  6
CONTINUOUS
 62
    3
 10
925.11047467434219
 20
1135.7684745077604
 11
925.11047467434219
 21
1245.7684745077604
  0
LINE
  8
_0-1_計細線
  6
CONTINUOUS
 62
    3
 10
925.11047467434219
 20
1245.7684745077604
 11
933.11047467434219
 21
1245.7684745077604
  0
LINE
  8
_0-1_計細線
  6
CONTINUOUS
 62
    3
 10
933.11047467434219
 20
1245.7684745077604
 11
933.11047467434219
 21
1135.7684745077604
  0
LINE
  8
_0-1_計細線
  6
CONTINUOUS
 62
    3
 10
933.11047467434219
 20
1135.7684745077604
 11
925.11047467434219
 21
1135.7684745077604
  0
LINE
  8
_0-1_計細線
  6
CONTINUOUS
 62
    3
 10
911.08047467434244
 20
1135.7684745077604
 11
911.08047467434244
 21
1245.7684745077604
  0
LINE
  8
_0-1_計細線
  6
CONTINUOUS
 62
    3
 10
911.08047467434244
 20
1245.7684745077604
 11
919.08047467434244
 21
1245.7684745077604
  0
LINE
  8
_0-1_計細線
  6
CONTINUOUS
 62
    3
 10
919.08047467434244
 20
1245.7684745077604
 11
919.08047467434244
 21
1135.7684745077604
  0
LINE
  8
_0-1_計細線
  6
CONTINUOUS
 62
    3
 10
919.08047467434244
 20
1135.7684745077604
 11
911.08047467434244
 21
1135.7684745077604
  0
LINE
  8
_0-1_計細線
  6
CONTINUOUS
 62
    3
 10
897.05047467434269
 20
1135.7684745077604
 11
897.05047467434269
 21
1245.7684745077604
  0
LINE
  8
_0-1_計細線
  6
CONTINUOUS
 62
    3
 10
897.05047467434269
 20
1245.7684745077604
 11
905.05047467434269
 21
1245.7684745077604
  0
LINE
  8
_0-1_計細線
  6
CONTINUOUS
 62
    3
 10
905.05047467434269
 20
1245.7684745077604
 11
905.05047467434269
 21
1135.7684745077604
  0
LINE
  8
_0-1_計細線
  6
CONTINUOUS
 62
    3
 10
905.05047467434269
 20
1135.7684745077604
 11
897.05047467434269
 21
1135.7684745077604
  0
LINE
  8
_0-1_計細線
  6
CONTINUOUS
 62
    3
 10
883.02047467434204
 20
1135.7684745077604
 11
883.02047467434204
 21
1245.7684745077604
  0
LINE
  8
_0-1_計細線
  6
CONTINUOUS
 62
    3
 10
883.02047467434204
 20
1245.7684745077604
 11
891.02047467434204
 21
1245.7684745077604
  0
LINE
  8
_0-1_計細線
  6
CONTINUOUS
 62
    3
 10
891.02047467434204
 20
1245.7684745077604
 11
891.02047467434204
 21
1135.7684745077604
  0
LINE
  8
_0-1_計細線
  6
CONTINUOUS
 62
    3
 10
891.02047467434204
 20
1135.7684745077604
 11
883.02047467434204
 21
1135.7684745077604
  0
LINE
  8
_0-1_計細線
  6
CONTINUOUS
 62
    3
 10
868.99047467434229
 20
1135.7684745077604
 11
868.99047467434229
 21
1245.7684745077604
  0
LINE
  8
_0-1_計細線
  6
CONTINUOUS
 62
    3
 10
868.99047467434229
 20
1245.7684745077604
 11
876.99047467434229
 21
1245.7684745077604
  0
LINE
  8
_0-1_計細線
  6
CONTINUOUS
 62
    3
 10
876.99047467434229
 20
1245.7684745077604
 11
876.99047467434229
 21
1135.7684745077604
  0
LINE
  8
_0-1_計細線
  6
CONTINUOUS
 62
    3
 10
876.99047467434229
 20
1135.7684745077604
 11
868.99047467434229
 21
1135.7684745077604
  0
LINE
  8
_0-1_計細線
  6
CONTINUOUS
 62
    3
 10
854.96047467434255
 20
1135.7684745077604
 11
854.96047467434255
 21
1245.7684745077604
  0
LINE
  8
_0-1_計細線
  6
CONTINUOUS
 62
    3
 10
854.96047467434255
 20
1245.7684745077604
 11
862.96047467434255
 21
1245.7684745077604
  0
LINE
  8
_0-1_計細線
  6
CONTINUOUS
 62
    3
 10
862.96047467434255
 20
1245.7684745077604
 11
862.96047467434255
 21
1135.7684745077604
  0
LINE
  8
_0-1_計細線
  6
CONTINUOUS
 62
    3
 10
862.96047467434255
 20
1135.7684745077604
 11
854.96047467434255
 21
1135.7684745077604
  0
LINE
  8
_0-1_計細線
  6
CONTINUOUS
 62
    3
 10
1163.6204746743424
 20
1135.7684745077604
 11
1163.6204746743424
 21
1245.7684745077604
  0
LINE
  8
_0-1_計細線
  6
CONTINUOUS
 62
    3
 10
1163.6204746743424
 20
1245.7684745077604
 11
1171.6204746743424
 21
1245.7684745077604
  0
LINE
  8
_0-1_計細線
  6
CONTINUOUS
 62
    3
 10
1171.6204746743424
 20
1245.7684745077604
 11
1171.6204746743424
 21
1135.7684745077604
  0
LINE
  8
_0-1_計細線
  6
CONTINUOUS
 62
    3
 10
1171.6204746743424
 20
1135.7684745077604
 11
1163.6204746743424
 21
1135.7684745077604
  0
LINE
  8
_0-1_計細線
  6
CONTINUOUS
 62
    3
 10
1149.5904746743417
 20
1135.7684745077604
 11
1149.5904746743417
 21
1245.7684745077604
  0
LINE
  8
_0-1_計細線
  6
CONTINUOUS
 62
    3
 10
1149.5904746743417
 20
1245.7684745077604
 11
1157.5904746743417
 21
1245.7684745077604
  0
LINE
  8
_0-1_計細線
  6
CONTINUOUS
 62
    3
 10
1157.5904746743417
 20
1245.7684745077604
 11
1157.5904746743417
 21
1135.7684745077604
  0
LINE
  8
_0-1_計細線
  6
CONTINUOUS
 62
    3
 10
1157.5904746743417
 20
1135.7684745077604
 11
1149.5904746743417
 21
1135.7684745077604
  0
LINE
  8
_0-1_計細線
  6
CONTINUOUS
 62
    3
 10
1135.560474674342
 20
1135.7684745077604
 11
1135.560474674342
 21
1245.7684745077604
  0
LINE
  8
_0-1_計細線
  6
CONTINUOUS
 62
    3
 10
1135.560474674342
 20
1245.7684745077604
 11
1143.560474674342
 21
1245.7684745077604
  0
LINE
  8
_0-1_計細線
  6
CONTINUOUS
 62
    3
 10
1143.560474674342
 20
1245.7684745077604
 11
1143.560474674342
 21
1135.7684745077604
  0
LINE
  8
_0-1_計細線
  6
CONTINUOUS
 62
    3
 10
1143.560474674342
 20
1135.7684745077604
 11
1135.560474674342
 21
1135.7684745077604
  0
LINE
  8
_0-1_計細線
  6
CONTINUOUS
 62
    3
 10
1121.5304746743423
 20
1135.7684745077604
 11
1121.5304746743423
 21
1245.7684745077604
  0
LINE
  8
_0-1_計細線
  6
CONTINUOUS
 62
    3
 10
1121.5304746743423
 20
1245.7684745077604
 11
1129.5304746743423
 21
1245.7684745077604
  0
LINE
  8
_0-1_計細線
  6
CONTINUOUS
 62
    3
 10
1129.5304746743423
 20
1245.7684745077604
 11
1129.5304746743423
 21
1135.7684745077604
  0
LINE
  8
_0-1_計細線
  6
CONTINUOUS
 62
    3
 10
1129.5304746743423
 20
1135.7684745077604
 11
1121.5304746743423
 21
1135.7684745077604
  0
LINE
  8
_0-1_計細線
  6
CONTINUOUS
 62
    3
 10
1107.5004746743425
 20
1135.7684745077604
 11
1107.5004746743425
 21
1245.7684745077604
  0
LINE
  8
_0-1_計細線
  6
CONTINUOUS
 62
    3
 10
1107.5004746743425
 20
1245.7684745077604
 11
1115.5004746743425
 21
1245.7684745077604
  0
LINE
  8
_0-1_計細線
  6
CONTINUOUS
 62
    3
 10
1115.5004746743425
 20
1245.7684745077604
 11
1115.5004746743425
 21
1135.7684745077604
  0
LINE
  8
_0-1_計細線
  6
CONTINUOUS
 62
    3
 10
1115.5004746743425
 20
1135.7684745077604
 11
1107.5004746743425
 21
1135.7684745077604
  0
LINE
  8
_0-1_計細線
  6
CONTINUOUS
 62
    3
 10
1093.4704746743428
 20
1135.7684745077604
 11
1093.4704746743428
 21
1245.7684745077604
  0
LINE
  8
_0-1_計細線
  6
CONTINUOUS
 62
    3
 10
1093.4704746743428
 20
1245.7684745077604
 11
1101.4704746743428
 21
1245.7684745077604
  0
LINE
  8
_0-1_計細線
  6
CONTINUOUS
 62
    3
 10
1101.4704746743428
 20
1245.7684745077604
 11
1101.4704746743428
 21
1135.7684745077604
  0
LINE
  8
_0-1_計細線
  6
CONTINUOUS
 62
    3
 10
1101.4704746743428
 20
1135.7684745077604
 11
1093.4704746743428
 21
1135.7684745077604
  0
LINE
  8
_0-1_計細線
  6
CONTINUOUS
 62
    3
 10
1079.4404746743421
 20
1135.7684745077604
 11
1079.4404746743421
 21
1245.7684745077604
  0
LINE
  8
_0-1_計細線
  6
CONTINUOUS
 62
    3
 10
1079.4404746743421
 20
1245.7684745077604
 11
1087.4404746743421
 21
1245.7684745077604
  0
LINE
  8
_0-1_計細線
  6
CONTINUOUS
 62
    3
 10
1087.4404746743421
 20
1245.7684745077604
 11
1087.4404746743421
 21
1135.7684745077604
  0
LINE
  8
_0-1_計細線
  6
CONTINUOUS
 62
    3
 10
1087.4404746743421
 20
1135.7684745077604
 11
1079.4404746743421
 21
1135.7684745077604
  0
LINE
  8
_0-1_計細線
  6
CONTINUOUS
 62
    3
 10
1065.4104746743424
 20
1135.7684745077604
 11
1065.4104746743424
 21
1245.7684745077604
  0
LINE
  8
_0-1_計細線
  6
CONTINUOUS
 62
    3
 10
1065.4104746743424
 20
1245.7684745077604
 11
1073.4104746743424
 21
1245.7684745077604
  0
LINE
  8
_0-1_計細線
  6
CONTINUOUS
 62
    3
 10
1073.4104746743424
 20
1245.7684745077604
 11
1073.4104746743424
 21
1135.7684745077604
  0
LINE
  8
_0-1_計細線
  6
CONTINUOUS
 62
    3
 10
1073.4104746743424
 20
1135.7684745077604
 11
1065.4104746743424
 21
1135.7684745077604
  0
LINE
  8
_0-1_計細線
  6
CONTINUOUS
 62
    3
 10
1051.3804746743426
 20
1135.7684745077604
 11
1051.3804746743426
 21
1245.7684745077604
  0
LINE
  8
_0-1_計細線
  6
CONTINUOUS
 62
    3
 10
1051.3804746743426
 20
1245.7684745077604
 11
1059.3804746743426
 21
1245.7684745077604
  0
LINE
  8
_0-1_計細線
  6
CONTINUOUS
 62
    3
 10
1059.3804746743426
 20
1245.7684745077604
 11
1059.3804746743426
 21
1135.7684745077604
  0
LINE
  8
_0-1_計細線
  6
CONTINUOUS
 62
    3
 10
1059.3804746743426
 20
1135.7684745077604
 11
1051.3804746743426
 21
1135.7684745077604
  0
LINE
  8
_0-1_計細線
  6
CONTINUOUS
 62
    3
 10
1037.350474674342
 20
1135.7684745077604
 11
1037.350474674342
 21
1245.7684745077604
  0
LINE
  8
_0-1_計細線
  6
CONTINUOUS
 62
    3
 10
1037.350474674342
 20
1245.7684745077604
 11
1045.350474674342
 21
1245.7684745077604
  0
LINE
  8
_0-1_計細線
  6
CONTINUOUS
 62
    3
 10
1045.350474674342
 20
1245.7684745077604
 11
1045.350474674342
 21
1135.7684745077604
  0
LINE
  8
_0-1_計細線
  6
CONTINUOUS
 62
    3
 10
1045.350474674342
 20
1135.7684745077604
 11
1037.350474674342
 21
1135.7684745077604
  0
LINE
  8
_0-1_計細線
  6
CONTINUOUS
 62
    3
 10
1023.3204746743422
 20
1135.7684745077604
 11
1023.3204746743422
 21
1245.7684745077604
  0
LINE
  8
_0-1_計細線
  6
CONTINUOUS
 62
    3
 10
1023.3204746743422
 20
1245.7684745077604
 11
1031.3204746743422
 21
1245.7684745077604
  0
LINE
  8
_0-1_計細線
  6
CONTINUOUS
 62
    3
 10
1031.3204746743422
 20
1245.7684745077604
 11
1031.3204746743422
 21
1135.7684745077604
  0
LINE
  8
_0-1_計細線
  6
CONTINUOUS
 62
    3
 10
1031.3204746743422
 20
1135.7684745077604
 11
1023.3204746743422
 21
1135.7684745077604
  0
LINE
  8
_0-1_計細線
  6
CONTINUOUS
 62
    3
 10
1009.2904746743425
 20
1135.7684745077604
 11
1009.2904746743425
 21
1245.7684745077604
  0
LINE
  8
_0-1_計細線
  6
CONTINUOUS
 62
    3
 10
1009.2904746743425
 20
1245.7684745077604
 11
1017.2904746743425
 21
1245.7684745077604
  0
LINE
  8
_0-1_計細線
  6
CONTINUOUS
 62
    3
 10
1017.2904746743425
 20
1245.7684745077604
 11
1017.2904746743425
 21
1135.7684745077604
  0
LINE
  8
_0-1_計細線
  6
CONTINUOUS
 62
    3
 10
1017.2904746743425
 20
1135.7684745077604
 11
1009.2904746743425
 21
1135.7684745077604
  0
LINE
  8
_0-1_計細線
  6
CONTINUOUS
 62
    3
 10
995.26047467434182
 20
1135.7684745077604
 11
995.26047467434182
 21
1245.7684745077604
  0
LINE
  8
_0-1_計細線
  6
CONTINUOUS
 62
    3
 10
995.26047467434182
 20
1245.7684745077604
 11
1003.2604746743418
 21
1245.7684745077604
  0
LINE
  8
_0-1_計細線
  6
CONTINUOUS
 62
    3
 10
1003.2604746743418
 20
1245.7684745077604
 11
1003.2604746743418
 21
1135.7684745077604
  0
LINE
  8
_0-1_計細線
  6
CONTINUOUS
 62
    3
 10
1003.2604746743418
 20
1135.7684745077604
 11
995.26047467434182
 21
1135.7684745077604
  0
LINE
  8
_0-1_計細線
  6
CONTINUOUS
 62
    3
 10
981.23047467434208
 20
1135.7684745077604
 11
981.23047467434208
 21
1245.7684745077604
  0
LINE
  8
_0-1_計細線
  6
CONTINUOUS
 62
    3
 10
981.23047467434208
 20
1245.7684745077604
 11
989.23047467434208
 21
1245.7684745077604
  0
LINE
  8
_0-1_計細線
  6
CONTINUOUS
 62
    3
 10
989.23047467434208
 20
1245.7684745077604
 11
989.23047467434208
 21
1135.7684745077604
  0
LINE
  8
_0-1_計細線
  6
CONTINUOUS
 62
    3
 10
989.23047467434208
 20
1135.7684745077604
 11
981.23047467434208
 21
1135.7684745077604
  0
LINE
  8
_0-1_計細線
  6
CONTINUOUS
 62
    3
 10
967.20047467434233
 20
1135.7684745077604
 11
967.20047467434233
 21
1245.7684745077604
  0
LINE
  8
_0-1_計細線
  6
CONTINUOUS
 62
    3
 10
967.20047467434233
 20
1245.7684745077604
 11
975.20047467434233
 21
1245.7684745077604
  0
LINE
  8
_0-1_計細線
  6
CONTINUOUS
 62
    3
 10
975.20047467434233
 20
1245.7684745077604
 11
975.20047467434233
 21
1135.7684745077604
  0
LINE
  8
_0-1_計細線
  6
CONTINUOUS
 62
    3
 10
975.20047467434233
 20
1135.7684745077604
 11
967.20047467434233
 21
1135.7684745077604
  0
LINE
  8
_0-1_計細線
  6
CONTINUOUS
 62
    3
 10
953.17047467434259
 20
1135.7684745077604
 11
953.17047467434259
 21
1245.7684745077604
  0
LINE
  8
_0-1_計細線
  6
CONTINUOUS
 62
    3
 10
953.17047467434259
 20
1245.7684745077604
 11
961.17047467434259
 21
1245.7684745077604
  0
LINE
  8
_0-1_計細線
  6
CONTINUOUS
 62
    3
 10
961.17047467434259
 20
1245.7684745077604
 11
961.17047467434259
 21
1135.7684745077604
  0
LINE
  8
_0-1_計細線
  6
CONTINUOUS
 62
    3
 10
961.17047467434259
 20
1135.7684745077604
 11
953.17047467434259
 21
1135.7684745077604
  0
LINE
  8
_0-0_計極細
  6
CONTINUOUS
 62
    2
 10
1185.6504746743421
 20
1192.7684745077604
 11
1191.6804746743419
 21
1192.7684745077604
  0
LINE
  8
_0-0_計極細
  6
CONTINUOUS
 62
    2
 10
1171.6204746743424
 20
1192.7684745077604
 11
1177.6504746743421
 21
1192.7684745077604
  0
LINE
  8
_0-0_計極細
  6
CONTINUOUS
 62
    2
 10
1171.6204746743424
 20
1188.7684745077604
 11
1177.6504746743421
 21
1188.7684745077604
  0
LINE
  8
_0-0_計極細
  6
CONTINUOUS
 62
    2
 10
1157.5904746743417
 20
1192.7684745077604
 11
1163.6204746743424
 21
1192.7684745077604
  0
LINE
  8
_0-0_計極細
  6
CONTINUOUS
 62
    2
 10
1157.5904746743417
 20
1188.7684745077604
 11
1163.6204746743424
 21
1188.7684745077604
  0
LINE
  8
_0-0_計極細
  6
CONTINUOUS
 62
    2
 10
1143.560474674342
 20
1192.7684745077604
 11
1149.5904746743427
 21
1192.7684745077604
  0
LINE
  8
_0-0_計極細
  6
CONTINUOUS
 62
    2
 10
1143.560474674342
 20
1188.7684745077604
 11
1149.5904746743427
 21
1188.7684745077604
  0
LINE
  8
_0-0_計極細
  6
CONTINUOUS
 62
    2
 10
1129.5304746743423
 20
1192.7684745077604
 11
1135.5604746743429
 21
1192.7684745077604
  0
LINE
  8
_0-0_計極細
  6
CONTINUOUS
 62
    2
 10
1129.5304746743423
 20
1188.7684745077604
 11
1135.5604746743429
 21
1188.7684745077604
  0
LINE
  8
_0-0_計極細
  6
CONTINUOUS
 62
    2
 10
1115.5004746743425
 20
1192.7684745077604
 11
1121.5304746743423
 21
1192.7684745077604
  0
LINE
  8
_0-0_計極細
  6
CONTINUOUS
 62
    2
 10
1115.5004746743425
 20
1188.7684745077604
 11
1121.5304746743423
 21
1188.7684745077604
  0
LINE
  8
_0-0_計極細
  6
CONTINUOUS
 62
    2
 10
1101.4704746743428
 20
1192.7684745077604
 11
1107.5004746743425
 21
1192.7684745077604
  0
LINE
  8
_0-0_計極細
  6
CONTINUOUS
 62
    2
 10
1101.4704746743428
 20
1188.7684745077604
 11
1107.5004746743425
 21
1188.7684745077604
  0
LINE
  8
_0-0_計極細
  6
CONTINUOUS
 62
    2
 10
1087.4404746743421
 20
1192.7684745077604
 11
1093.4704746743428
 21
1192.7684745077604
  0
LINE
  8
_0-0_計極細
  6
CONTINUOUS
 62
    2
 10
1087.4404746743421
 20
1188.7684745077604
 11
1093.4704746743428
 21
1188.7684745077604
  0
LINE
  8
_0-0_計極細
  6
CONTINUOUS
 62
    2
 10
1073.4104746743424
 20
1192.7684745077604
 11
1079.4404746743421
 21
1192.7684745077604
  0
LINE
  8
_0-0_計極細
  6
CONTINUOUS
 62
    2
 10
1073.4104746743424
 20
1188.7684745077604
 11
1079.4404746743421
 21
1188.7684745077604
  0
LINE
  8
_0-0_計極細
  6
CONTINUOUS
 62
    2
 10
1059.3804746743426
 20
1192.7684745077604
 11
1065.4104746743424
 21
1192.7684745077604
  0
LINE
  8
_0-0_計極細
  6
CONTINUOUS
 62
    2
 10
1059.3804746743426
 20
1188.7684745077604
 11
1065.4104746743424
 21
1188.7684745077604
  0
LINE
  8
_0-0_計極細
  6
CONTINUOUS
 62
    2
 10
1045.350474674342
 20
1192.7684745077604
 11
1051.3804746743426
 21
1192.7684745077604
  0
LINE
  8
_0-0_計極細
  6
CONTINUOUS
 62
    2
 10
1045.350474674342
 20
1188.7684745077604
 11
1051.3804746743426
 21
1188.7684745077604
  0
LINE
  8
_0-0_計極細
  6
CONTINUOUS
 62
    2
 10
1031.3204746743422
 20
1192.7684745077604
 11
1037.350474674342
 21
1192.7684745077604
  0
LINE
  8
_0-0_計極細
  6
CONTINUOUS
 62
    2
 10
1031.3204746743422
 20
1188.7684745077604
 11
1037.350474674342
 21
1188.7684745077604
  0
LINE
  8
_0-0_計極細
  6
CONTINUOUS
 62
    2
 10
1017.2904746743425
 20
1192.7684745077604
 11
1023.3204746743422
 21
1192.7684745077604
  0
LINE
  8
_0-0_計極細
  6
CONTINUOUS
 62
    2
 10
1017.2904746743425
 20
1188.7684745077604
 11
1023.3204746743422
 21
1188.7684745077604
  0
LINE
  8
_0-0_計極細
  6
CONTINUOUS
 62
    2
 10
1003.2604746743418
 20
1192.7684745077604
 11
1009.2904746743425
 21
1192.7684745077604
  0
LINE
  8
_0-0_計極細
  6
CONTINUOUS
 62
    2
 10
1003.2604746743418
 20
1188.7684745077604
 11
1009.2904746743425
 21
1188.7684745077604
  0
LINE
  8
_0-0_計極細
  6
CONTINUOUS
 62
    2
 10
989.23047467434208
 20
1192.7684745077604
 11
995.26047467434273
 21
1192.7684745077604
  0
LINE
  8
_0-0_計極細
  6
CONTINUOUS
 62
    2
 10
989.23047467434208
 20
1188.7684745077604
 11
995.26047467434273
 21
1188.7684745077604
  0
LINE
  8
_0-0_計極細
  6
CONTINUOUS
 62
    2
 10
975.20047467434233
 20
1192.7684745077604
 11
981.23047467434299
 21
1192.7684745077604
  0
LINE
  8
_0-0_計極細
  6
CONTINUOUS
 62
    2
 10
975.20047467434233
 20
1188.7684745077604
 11
981.23047467434299
 21
1188.7684745077604
  0
LINE
  8
_0-0_計極細
  6
CONTINUOUS
 62
    2
 10
961.17047467434259
 20
1192.7684745077604
 11
967.20047467434233
 21
1192.7684745077604
  0
LINE
  8
_0-0_計極細
  6
CONTINUOUS
 62
    2
 10
961.17047467434259
 20
1188.7684745077604
 11
967.20047467434233
 21
1188.7684745077604
  0
LINE
  8
_0-0_計極細
  6
CONTINUOUS
 62
    2
 10
947.14047467434284
 20
1192.7684745077604
 11
953.17047467434259
 21
1192.7684745077604
  0
LINE
  8
_0-0_計極細
  6
CONTINUOUS
 62
    2
 10
947.14047467434284
 20
1188.7684745077604
 11
953.17047467434259
 21
1188.7684745077604
  0
LINE
  8
_0-0_計極細
  6
CONTINUOUS
 62
    2
 10
933.11047467434219
 20
1192.7684745077604
 11
939.14047467434284
 21
1192.7684745077604
  0
LINE
  8
_0-0_計極細
  6
CONTINUOUS
 62
    2
 10
933.11047467434219
 20
1188.7684745077604
 11
939.14047467434284
 21
1188.7684745077604
  0
LINE
  8
_0-0_計極細
  6
CONTINUOUS
 62
    2
 10
919.08047467434244
 20
1192.7684745077604
 11
925.11047467434219
 21
1192.7684745077604
  0
LINE
  8
_0-0_計極細
  6
CONTINUOUS
 62
    2
 10
919.08047467434244
 20
1188.7684745077604
 11
925.11047467434219
 21
1188.7684745077604
  0
LINE
  8
_0-0_計極細
  6
CONTINUOUS
 62
    2
 10
905.05047467434269
 20
1192.7684745077604
 11
911.08047467434244
 21
1192.7684745077604
  0
LINE
  8
_0-0_計極細
  6
CONTINUOUS
 62
    2
 10
905.05047467434269
 20
1188.7684745077604
 11
911.08047467434244
 21
1188.7684745077604
  0
LINE
  8
_0-0_計極細
  6
CONTINUOUS
 62
    2
 10
891.02047467434204
 20
1192.7684745077604
 11
897.05047467434269
 21
1192.7684745077604
  0
LINE
  8
_0-0_計極細
  6
CONTINUOUS
 62
    2
 10
891.02047467434204
 20
1188.7684745077604
 11
897.05047467434269
 21
1188.7684745077604
  0
LINE
  8
_0-0_計極細
  6
CONTINUOUS
 62
    2
 10
876.99047467434229
 20
1192.7684745077604
 11
883.02047467434204
 21
1192.7684745077604
  0
LINE
  8
_0-0_計極細
  6
CONTINUOUS
 62
    2
 10
876.99047467434229
 20
1188.7684745077604
 11
883.02047467434204
 21
1188.7684745077604
  0
LINE
  8
_0-0_計極細
  6
CONTINUOUS
 62
    2
 10
862.96047467434255
 20
1188.7684745077604
 11
868.99047467434229
 21
1188.7684745077604
  0
LINE
  8
_0-0_計極細
  6
CONTINUOUS
 62
    2
 10
862.96047467434255
 20
1192.7684745077604
 11
868.99047467434229
 21
1192.7684745077604
  0
LINE
  8
_0-1_計細線
  6
CONTINUOUS
 62
    3
 10
854.96047467434255
 20
1248.7684745077604
 11
1190.6523410055822
 21
1248.7684745077604
  0
LINE
  8
_0-1_計細線
  6
CONTINUOUS
 62
    3
 10
854.96047467434255
 20
1132.7684745077604
 11
1190.6523410058041
 21
1132.7684745077604
  0
LINE
  8
_0-1_計細線
  6
CONTINUOUS
 62
    3
 10
1188.889647742634
 20
1135.7684745077604
 11
854.96047467434255
 21
1135.7684745077604
  0
LINE
  8
_0-1_計細線
  6
CONTINUOUS
 62
    3
 10
854.96047467434255
 20
1135.7684745077604
 11
854.96047467434255
 21
1132.7684745077604
  0
LINE
  8
_0-1_計細線
  6
CONTINUOUS
 62
    3
 10
1192.4150342687533
 20
1245.7684745077604
 11
854.96047467434255
 21
1245.7684745077604
  0
LINE
  8
_0-1_計細線
  6
CONTINUOUS
 62
    3
 10
854.96047467434255
 20
1245.7684745077604
 11
854.96047467434255
 21
1248.7684745077604
  0
LINE
  8
_0-1_計細線
  6
CONTINUOUS
 62
    3
 10
1177.6504746743421
 20
1135.7684745077604
 11
1177.6504746743421
 21
1245.7684745077604
  0
LINE
  8
_0-1_計細線
  6
CONTINUOUS
 62
    3
 10
1177.6504746743421
 20
1245.7684745077604
 11
1185.6504746743421
 21
1245.7684745077604
  0
LINE
  8
_0-1_計細線
  6
CONTINUOUS
 62
    3
 10
1185.6504746743421
 20
1245.7684745077604
 11
1185.6504746743421
 21
1180.6520547541238
  0
LINE
  8
_0-1_計細線
  6
CONTINUOUS
 62
    3
 10
1185.6504746743421
 20
1142.884894261578
 11
1185.6504746743421
 21
1135.7684745077604
  0
LINE
  8
_0-1_計細線
  6
CONTINUOUS
 62
    3
 10
1185.6504746743421
 20
1135.7684745077604
 11
1177.6504746743421
 21
1135.7684745077604
  0
LINE
  8
_0-0_計極細
  6
CONTINUOUS
 62
    2
 10
1185.6504746743421
 20
1188.7684745077604
 11
1189.4486579098809
 21
1188.7684745077604
  0
LINE
  8
_0-1_計細線
  6
CONTINUOUS
 62
    3
 10
1191.6804746743419
 20
1192.4643545450788
 11
1191.6804746743419
 21
1245.7684745077604
  0
LINE
  8
_0-1_計細線
  6
CONTINUOUS
 62
    3
 10
1191.6804746743419
 20
1245.7684745077604
 11
1192.4150342687533
 21
1245.7684745077604
  0
TEXT
  8
_0-7_枠細線
 62
    5
 10
375.15903129086382
 20
130.76532077614843
 40
40
 41
0.8
 50
0
  1
断面詳細図
  0
TEXT
  8
_0-7_枠細線
 62
    5
 10
559.07738288953306
 20
130.76532077614843
 40
32
 41
0.6
 50
0
  1
Ｓ＝１：３
  0
LINE
  8
_1-3_細線3
  6
CONTINUOUS
 62
    4
 10
346.15727067122225
 20
406.55501040048227
 11
342.95727067122061
 21
406.55501040048227
  0
LINE
  8
_1-3_細線3
  6
CONTINUOUS
 62
    4
 10
310.95727067122061
 20
406.55501040048227
 11
314.15727067121998
 21
406.55501040048227
  0
LINE
  8
_1-3_細線3
  6
CONTINUOUS
 62
    4
 10
598.95727067121788
 20
406.55501040048227
 11
602.15727067121816
 21
406.55501040048227
  0
LINE
  8
_1-3_細線3
  6
CONTINUOUS
 62
    4
 10
566.95727067121788
 20
406.55501040048227
 11
570.15727067121998
 21
406.55501040048227
  0
LINE
  8
_1-3_細線3
  6
CONTINUOUS
 62
    4
 10
347.26305942293402
 20
406.55501040048227
 11
347.26305942293402
 21
403.8883437338153
  0
LINE
  8
_1-3_細線3
  6
CONTINUOUS
 62
    4
 10
301.92972608960281
 20
406.55501040048227
 11
301.92972608960281
 21
403.8883437338153
  0
LINE
  8
_1-3_細線3
  6
CONTINUOUS
 62
    4
 10
301.92972608960281
 20
406.55501040048227
 11
347.26305942293402
 21
406.55501040048227
  0
LINE
  8
_1-3_細線3
  6
CONTINUOUS
 62
    4
 10
565.85148191950429
 20
406.55501040048227
 11
565.85148191950429
 21
403.8883437338153
  0
LINE
  8
_1-3_細線3
  6
CONTINUOUS
 62
    4
 10
611.18481525283732
 20
406.55501040048227
 11
611.18481525283732
 21
403.8883437338153
  0
LINE
  8
_1-3_細線3
  6
CONTINUOUS
 62
    4
 10
611.18481525283732
 20
406.55501040048227
 11
565.85148191950429
 21
406.55501040048227
  0
LINE
  8
_1-3_細線3
  6
CONTINUOUS
 62
    4
 10
563.22393733788795
 20
402.55501040048227
 11
564.55727067122143
 21
403.8883437338153
  0
LINE
  8
_1-3_細線3
  6
CONTINUOUS
 62
    4
 10
563.22393733788795
 20
399.8883437338153
 11
563.22393733788795
 21
402.55501040048227
  0
LINE
  8
_1-3_細線3
  6
CONTINUOUS
 62
    4
 10
564.55727067122143
 20
398.55501040048227
 11
563.22393733788795
 21
399.8883437338153
  0
LINE
  8
_1-3_細線3
  6
CONTINUOUS
 62
    4
 10
611.22393733788567
 20
398.55501040048227
 11
564.55727067122143
 21
398.55501040048227
  0
LINE
  8
_1-3_細線3
  6
CONTINUOUS
 62
    4
 10
615.22393733788795
 20
350.55501040048227
 11
616.55727067122143
 21
351.8883437338153
  0
LINE
  8
_1-3_細線3
  6
CONTINUOUS
 62
    4
 10
612.55727067122143
 20
350.55501040048227
 11
615.22393733788795
 21
350.55501040048227
  0
LINE
  8
_1-3_細線3
  6
CONTINUOUS
 62
    4
 10
611.22393733788567
 20
351.8883437338153
 11
612.55727067122143
 21
350.55501040048227
  0
LINE
  8
_1-3_細線3
  6
CONTINUOUS
 62
    4
 10
611.22393733788567
 20
398.55501040048227
 11
611.22393733788567
 21
351.8883437338153
  0
LINE
  8
_1-3_細線3
  6
CONTINUOUS
 62
    4
 10
611.22393733788567
 20
403.8883437338153
 11
564.55727067122143
 21
403.8883437338153
  0
LINE
  8
_1-3_細線3
  6
CONTINUOUS
 62
    4
 10
616.55727067122143
 20
398.55501040048227
 11
616.55727067122143
 21
351.8883437338153
  0
ARC
  8
_1-3_細線3
  6
CONTINUOUS
 62
    4
 10
611.22393733788567
 20
398.55501040048227
 40
5.3333333333333321
 50
0
 51
89.999999999999915
  0
LINE
  8
_1-3_細線3
  6
CONTINUOUS
 62
    4
 10
349.89060400455219
 20
402.55501040048227
 11
348.55727067121916
 21
403.8883437338153
  0
LINE
  8
_1-3_細線3
  6
CONTINUOUS
 62
    4
 10
349.89060400455219
 20
399.8883437338153
 11
349.89060400455219
 21
402.55501040048227
  0
LINE
  8
_1-3_細線3
  6
CONTINUOUS
 62
    4
 10
348.55727067121916
 20
398.55501040048227
 11
349.89060400455219
 21
399.8883437338153
  0
LINE
  8
_1-3_細線3
  6
CONTINUOUS
 62
    4
 10
301.89060400455219
 20
398.55501040048227
 11
348.55727067121916
 21
398.55501040048227
  0
LINE
  8
_1-3_細線3
  6
CONTINUOUS
 62
    4
 10
297.89060400455219
 20
350.55501040048227
 11
296.55727067121916
 21
351.8883437338153
  0
LINE
  8
_1-3_細線3
  6
CONTINUOUS
 62
    4
 10
300.55727067121916
 20
350.55501040048227
 11
297.89060400455219
 21
350.55501040048227
  0
LINE
  8
_1-3_細線3
  6
CONTINUOUS
 62
    4
 10
301.89060400455219
 20
351.8883437338153
 11
300.55727067121916
 21
350.55501040048227
  0
LINE
  8
_1-3_細線3
  6
CONTINUOUS
 62
    4
 10
301.89060400455219
 20
398.55501040048227
 11
301.89060400455219
 21
351.8883437338153
  0
LINE
  8
_1-3_細線3
  6
CONTINUOUS
 62
    4
 10
296.55727067121916
 20
398.55501040048227
 11
296.55727067121916
 21
351.8883437338153
  0
LINE
  8
_1-3_細線3
  6
CONTINUOUS
 62
    4
 10
301.89060400455219
 20
403.8883437338153
 11
348.55727067121916
 21
403.8883437338153
  0
ARC
  8
_1-3_細線3
  6
CONTINUOUS
 62
    4
 10
301.89060400455219
 20
398.55501040048227
 40
5.3333333333333321
 50
89.999999999999915
 51
179.99999999999983
  0
LINE
  8
_1-3_細線3
  6
CONTINUOUS
 62
    4
 10
564.55727067122143
 20
398.55501040048227
 11
572.82393734078005
 21
398.55501040048227
  0
LINE
  8
_1-3_細線3
  6
CONTINUOUS
 62
    4
 10
348.55727067121916
 20
398.55501040048227
 11
340.29060400166054
 21
398.55501040048227
  0
LINE
  8
_1-3_細線3
  6
CONTINUOUS
 62
    4
 10
329.6239373340286
 20
398.55501040048227
 11
320.55727066736017
 21
398.55501040048227
  0
LINE
  8
_1-3_細線3
  6
CONTINUOUS
 62
    4
 10
267.22393733788567
 20
438.55501040048227
 11
264.55727067121916
 21
438.55501040048227
  0
LINE
  8
_1-3_細線3
  6
CONTINUOUS
 62
    4
 10
267.22393733788567
 20
457.22167706714924
 11
267.22393733788567
 21
438.55501040048227
  0
LINE
  8
_1-3_細線3
  6
CONTINUOUS
 62
    4
 10
293.89060400455219
 20
457.22167706714924
 11
267.22393733788567
 21
457.22167706714924
  0
LINE
  8
_1-3_細線3
  6
CONTINUOUS
 62
    4
 10
645.89060400455219
 20
457.22167706714924
 11
619.22393733788567
 21
457.22167706714924
  0
LINE
  8
_1-3_細線3
  6
CONTINUOUS
 62
    4
 10
645.89060400455219
 20
438.55501040048227
 11
645.89060400455219
 21
457.22167706714924
  0
LINE
  8
_1-3_細線3
  6
CONTINUOUS
 62
    4
 10
648.55727067121961
 20
438.55501040048227
 11
645.89060400455219
 21
438.55501040048227
  0
LINE
  8
_1-3_細線3
  6
CONTINUOUS
 62
    4
 10
648.55727067121961
 20
459.8883437338153
 11
648.55727067121961
 21
438.55501040048227
  0
LINE
  8
_1-3_細線3
  6
CONTINUOUS
 62
    4
 10
616.55727067121961
 20
459.8883437338153
 11
648.55727067121961
 21
459.8883437338153
  0
LINE
  8
_1-3_細線3
  6
CONTINUOUS
 62
    4
 10
264.55727067121916
 20
459.8883437338153
 11
296.55727067121916
 21
459.8883437338153
  0
LINE
  8
_1-3_細線3
  6
CONTINUOUS
 62
    4
 10
264.55727067121916
 20
438.55501040048227
 11
264.55727067121916
 21
459.8883437338153
  0
LINE
  8
_1-5_寸法3
  6
CONTINUOUS
 62
    7
 10
664.55727067121961
 20
459.88834373381565
 11
736.55727067121961
 21
459.88834373381729
  0
LINE
  8
_1-5_寸法3
  6
CONTINUOUS
 62
    7
 10
728.55727067121961
 20
459.88834373381712
 11
732.69837539285993
 21
444.43353051319201
  0
LINE
  8
_1-5_寸法3
  6
CONTINUOUS
 62
    7
 10
728.55727067121961
 20
459.88834373381712
 11
724.41616594957929
 21
444.43353051319201
  0
LINE
  8
_1-5_寸法3
  6
CONTINUOUS
 62
    7
 10
664.55727067121961
 20
438.55501040048262
 11
736.55727067121961
 21
438.55501040048426
  0
LINE
  8
_1-5_寸法3
  6
CONTINUOUS
 62
    7
 10
728.55727067121961
 20
438.55501040048409
 11
724.41616594957929
 21
454.00982362110921
  0
LINE
  8
_1-5_寸法3
  6
CONTINUOUS
 62
    7
 10
728.55727067121961
 20
438.55501040048409
 11
732.69837539285993
 21
454.00982362110921
  0
LINE
  8
_1-5_寸法3
  6
CONTINUOUS
 62
    7
 10
728.55727067121961
 20
459.88834373381712
 11
728.55727067121961
 21
438.55501040048409
  0
TEXT
  8
_1-5_寸法3
 62
    7
 10
728.55727067121961
 20
443.22167706715106
 40
24
 41
1
 50
90
  1
8
  0
LINE
  8
_1-5_寸法3
  6
CONTINUOUS
 62
    7
 10
296.55727067121916
 20
335.8883437338153
 11
296.55727067121916
 21
314.55501040048227
  0
LINE
  8
_1-5_寸法3
  6
CONTINUOUS
 62
    7
 10
296.55727067121916
 20
322.55501040048227
 11
312.01208389184421
 21
326.69611512212259
  0
LINE
  8
_1-5_寸法3
  6
CONTINUOUS
 62
    7
 10
296.55727067121916
 20
322.55501040048227
 11
312.01208389184421
 21
318.41390567884196
  0
LINE
  8
_1-5_寸法3
  6
CONTINUOUS
 62
    7
 10
349.89060400455219
 20
381.22167706714833
 11
349.89060400455219
 21
314.55501040048227
  0
LINE
  8
_1-5_寸法3
  6
CONTINUOUS
 62
    7
 10
349.89060400455219
 20
322.55501040048227
 11
334.43579078392713
 21
318.41390567884196
  0
LINE
  8
_1-5_寸法3
  6
CONTINUOUS
 62
    7
 10
349.89060400455219
 20
322.55501040048227
 11
334.43579078392713
 21
326.69611512212259
  0
LINE
  8
_1-5_寸法3
  6
CONTINUOUS
 62
    7
 10
296.55727067121916
 20
322.55501040048227
 11
349.89060400455219
 21
322.55501040048227
  0
TEXT
  8
_1-5_寸法3
 62
    7
 10
311.22393733788613
 20
322.55501040048227
 40
24
 41
1
 50
0
  1
20
  0
LINE
  8
_1-5_寸法3
  6
CONTINUOUS
 62
    7
 10
349.89060400455219
 20
322.55501040048227
 11
365.34541722517724
 21
326.69611512212248
  0
LINE
  8
_1-5_寸法3
  6
CONTINUOUS
 62
    7
 10
349.89060400455219
 20
322.55501040048227
 11
365.34541722517724
 21
318.41390567884184
  0
LINE
  8
_1-5_寸法3
  6
CONTINUOUS
 62
    7
 10
563.22393733788567
 20
381.22167706714833
 11
563.22393733788567
 21
314.55501040048227
  0
LINE
  8
_1-5_寸法3
  6
CONTINUOUS
 62
    7
 10
563.22393733788567
 20
322.55501040048227
 11
547.76912411726062
 21
318.41390567884196
  0
LINE
  8
_1-5_寸法3
  6
CONTINUOUS
 62
    7
 10
563.22393733788567
 20
322.55501040048227
 11
547.76912411726062
 21
326.69611512212259
  0
LINE
  8
_1-5_寸法3
  6
CONTINUOUS
 62
    7
 10
349.89060400455219
 20
322.55501040048227
 11
563.22393733788567
 21
322.55501040048227
  0
TEXT
  8
_1-5_寸法3
 62
    7
 10
444.55727067121916
 20
322.55501040048227
 40
24
 41
1
 50
0
  1
80
  0
LINE
  8
_1-5_寸法3
  6
CONTINUOUS
 62
    7
 10
563.22393733788567
 20
322.55501040048227
 11
578.67875055851084
 21
326.69611512212248
  0
LINE
  8
_1-5_寸法3
  6
CONTINUOUS
 62
    7
 10
563.22393733788567
 20
322.55501040048227
 11
578.67875055851073
 21
318.41390567884184
  0
LINE
  8
_1-5_寸法3
  6
CONTINUOUS
 62
    7
 10
616.55727067121961
 20
335.8883437338153
 11
616.55727067121961
 21
314.55501040048227
  0
LINE
  8
_1-5_寸法3
  6
CONTINUOUS
 62
    7
 10
616.55727067121961
 20
322.55501040048227
 11
601.10245745059456
 21
318.41390567884196
  0
LINE
  8
_1-5_寸法3
  6
CONTINUOUS
 62
    7
 10
616.55727067121961
 20
322.55501040048227
 11
601.10245745059456
 21
326.69611512212259
  0
LINE
  8
_1-5_寸法3
  6
CONTINUOUS
 62
    7
 10
563.22393733788567
 20
322.55501040048227
 11
616.55727067121961
 21
322.55501040048227
  0
TEXT
  8
_1-5_寸法3
 62
    7
 10
577.89060400455219
 20
322.55501040048227
 40
24
 41
1
 50
0
  1
20
  0
LINE
  8
_1-3_細線3
  6
CONTINUOUS
 62
    4
 10
293.89060400455219
 20
193.22167706714833
 11
293.89060400455219
 21
457.22167706714924
  0
LINE
  8
_1-3_細線3
  6
CONTINUOUS
 62
    4
 10
619.22393733788567
 20
193.22167706714833
 11
293.89060400455219
 21
193.22167706714833
  0
LINE
  8
_1-3_細線3
  6
CONTINUOUS
 62
    4
 10
619.22393733788567
 20
457.22167706714924
 11
619.22393733788567
 21
193.22167706714833
  0
LINE
  8
_1-3_細線3
  6
CONTINUOUS
 62
    4
 10
616.55727067121961
 20
195.8883437338153
 11
616.55727067121961
 21
459.8883437338153
  0
LINE
  8
_1-3_細線3
  6
CONTINUOUS
 62
    4
 10
296.55727067121916
 20
195.8883437338153
 11
616.55727067121961
 21
195.8883437338153
  0
LINE
  8
_1-3_細線3
  6
CONTINUOUS
 62
    4
 10
296.55727067121916
 20
459.8883437338153
 11
296.55727067121916
 21
195.8883437338153
  0
LINE
  8
_1-5_寸法3
  6
CONTINUOUS
 62
    7
 10
277.89060400455219
 20
193.22167706714845
 11
176.55727067121916
 21
193.22167706714936
  0
LINE
  8
_1-5_寸法3
  6
CONTINUOUS
 62
    7
 10
184.55727067121916
 20
193.22167706714924
 11
180.41616594957884
 21
208.67649028777441
  0
LINE
  8
_1-5_寸法3
  6
CONTINUOUS
 62
    7
 10
184.55727067121916
 20
193.22167706714924
 11
188.69837539285948
 21
208.6764902877743
  0
LINE
  8
_1-5_寸法3
  6
CONTINUOUS
 62
    7
 10
248.55727067121916
 20
459.88834373381536
 11
176.55727067121916
 21
459.8883437338153
  0
LINE
  8
_1-5_寸法3
  6
CONTINUOUS
 62
    7
 10
184.55727067121916
 20
459.8883437338153
 11
188.69837539285948
 21
444.43353051319019
  0
LINE
  8
_1-5_寸法3
  6
CONTINUOUS
 62
    7
 10
184.55727067121916
 20
459.8883437338153
 11
180.41616594957884
 21
444.43353051319019
  0
LINE
  8
_1-5_寸法3
  6
CONTINUOUS
 62
    7
 10
184.55727067121916
 20
193.22167706714924
 11
184.55727067121916
 21
459.8883437338153
  0
TEXT
  8
_1-5_寸法3
 62
    7
 10
184.55727067121916
 20
284.55501040048227
 40
24
 41
1
 50
90
  1
80～100
  0
LINE
  8
_1-5_寸法3
  6
CONTINUOUS
 62
    7
 10
264.55727067121916
 20
467.8883437338153
 11
264.55727067121916
 21
659.88834373381508
  0
LINE
  8
_1-5_寸法3
  6
CONTINUOUS
 62
    7
 10
264.55727067121916
 20
651.88834373381508
 11
280.01208389184421
 21
656.02944845545539
  0
LINE
  8
_1-5_寸法3
  6
CONTINUOUS
 62
    7
 10
264.55727067121916
 20
651.88834373381508
 11
280.01208389184421
 21
647.74723901217476
  0
LINE
  8
_1-5_寸法3
  6
CONTINUOUS
 62
    7
 10
648.55727067122143
 20
467.8883437338153
 11
648.55727067122143
 21
659.88834373381508
  0
LINE
  8
_1-5_寸法3
  6
CONTINUOUS
 62
    7
 10
648.55727067122143
 20
651.88834373381508
 11
633.10245745059638
 21
647.74723901217476
  0
LINE
  8
_1-5_寸法3
  6
CONTINUOUS
 62
    7
 10
648.55727067122143
 20
651.88834373381508
 11
633.10245745059638
 21
656.02944845545551
  0
LINE
  8
_1-5_寸法3
  6
CONTINUOUS
 62
    7
 10
264.55727067121916
 20
651.88834373381508
 11
648.55727067122143
 21
651.88834373381508
  0
TEXT
  8
_1-5_寸法3
 62
    7
 10
438.55727067122189
 20
651.88834373381508
 40
24
 41
1
 50
0
  1
144
  0
LINE
  8
_1-5_寸法3
  6
CONTINUOUS
 62
    7
 10
264.55727067121916
 20
595.88834373381508
 11
280.01208389184421
 21
600.02944845545539
  0
LINE
  8
_1-5_寸法3
  6
CONTINUOUS
 62
    7
 10
264.55727067121916
 20
595.88834373381508
 11
280.01208389184421
 21
591.74723901217476
  0
LINE
  8
_1-5_寸法3
  6
CONTINUOUS
 62
    7
 10
296.55727067121916
 20
466.55501040048227
 11
296.55727067121916
 21
603.88834373381508
  0
LINE
  8
_1-5_寸法3
  6
CONTINUOUS
 62
    7
 10
296.55727067121916
 20
595.88834373381508
 11
281.1024574505941
 21
591.74723901217476
  0
LINE
  8
_1-5_寸法3
  6
CONTINUOUS
 62
    7
 10
296.55727067121916
 20
595.88834373381508
 11
281.1024574505941
 21
600.02944845545551
  0
LINE
  8
_1-5_寸法3
  6
CONTINUOUS
 62
    7
 10
264.55727067121916
 20
595.88834373381508
 11
296.55727067121916
 21
595.88834373381508
  0
TEXT
  8
_1-5_寸法3
 62
    7
 10
268.31391194463913
 20
595.88834373381508
 40
24
 41
1
 50
0
  1
12
  0
LINE
  8
_1-5_寸法3
  6
CONTINUOUS
 62
    7
 10
301.89060400455219
 20
462.5550077311317
 11
301.89060400455219
 21
603.88834373381508
  0
LINE
  8
_1-5_寸法3
  6
CONTINUOUS
 62
    7
 10
296.55727067121916
 20
595.88834373381508
 11
301.89060400455219
 21
595.88834373381508
  0
TEXT
  8
_1-5_寸法3
 62
    7
 10
306.7050230557511
 20
571.88834373381508
 40
24
 41
1
 50
0
  1
2
  0
LINE
  8
_1-5_寸法3
  6
CONTINUOUS
 62
    7
 10
301.89060400455219
 20
595.88834373381508
 11
317.34541722517724
 21
600.02944845545539
  0
LINE
  8
_1-5_寸法3
  6
CONTINUOUS
 62
    7
 10
301.89060400455219
 20
595.88834373381508
 11
317.34541722517724
 21
591.74723901217476
  0
LINE
  8
_1-5_寸法3
  6
CONTINUOUS
 62
    7
 10
611.22393733788567
 20
462.5550077311317
 11
611.22393733788567
 21
603.88834373381508
  0
LINE
  8
_1-5_寸法3
  6
CONTINUOUS
 62
    7
 10
611.22393733788567
 20
595.88834373381508
 11
595.76912411726062
 21
591.74723901217476
  0
LINE
  8
_1-5_寸法3
  6
CONTINUOUS
 62
    7
 10
611.22393733788567
 20
595.88834373381508
 11
595.76912411726062
 21
600.02944845545551
  0
LINE
  8
_1-5_寸法3
  6
CONTINUOUS
 62
    7
 10
301.89060400455219
 20
595.88834373381508
 11
611.22393733788567
 21
595.88834373381508
  0
TEXT
  8
_1-5_寸法3
 62
    7
 10
438.55727067122143
 20
595.88834373381508
 40
24
 41
1
 50
0
  1
116
  0
LINE
  8
_1-5_寸法3
  6
CONTINUOUS
 62
    7
 10
616.55727067122143
 20
466.55501040048227
 11
616.55727067122143
 21
603.88834373381508
  0
LINE
  8
_1-5_寸法3
  6
CONTINUOUS
 62
    7
 10
611.22393733788567
 20
595.88834373381508
 11
616.55727067122143
 21
595.88834373381508
  0
TEXT
  8
_1-5_寸法3
 62
    7
 10
594.63391194463884
 20
571.88834373381508
 40
24
 41
1
 50
0
  1
2
  0
LINE
  8
_1-5_寸法3
  6
CONTINUOUS
 62
    7
 10
616.55727067122143
 20
595.88834373381508
 11
632.01208389184649
 21
600.02944845545539
  0
LINE
  8
_1-5_寸法3
  6
CONTINUOUS
 62
    7
 10
616.55727067122143
 20
595.88834373381508
 11
632.01208389184649
 21
591.74723901217476
  0
LINE
  8
_1-5_寸法3
  6
CONTINUOUS
 62
    7
 10
648.55727067122143
 20
595.88834373381508
 11
633.10245745059638
 21
591.74723901217476
  0
LINE
  8
_1-5_寸法3
  6
CONTINUOUS
 62
    7
 10
648.55727067122143
 20
595.88834373381508
 11
633.10245745059638
 21
600.02944845545551
  0
LINE
  8
_1-5_寸法3
  6
CONTINUOUS
 62
    7
 10
616.55727067122143
 20
595.88834373381508
 11
648.55727067122143
 21
595.88834373381508
  0
TEXT
  8
_1-5_寸法3
 62
    7
 10
620.71687490760314
 20
595.88834373381508
 40
24
 41
1
 50
0
  1
12
  0
LINE
  8
_1-5_寸法3
  6
CONTINUOUS
 62
    7
 10
301.89060400455264
 20
475.88834373381439
 11
301.89060400455264
 21
547.8883437338153
  0
LINE
  8
_1-5_寸法3
  6
CONTINUOUS
 62
    7
 10
301.89060400455264
 20
539.8883437338153
 11
317.3454172251777
 21
544.02944845545562
  0
LINE
  8
_1-5_寸法3
  6
CONTINUOUS
 62
    7
 10
301.89060400455264
 20
539.8883437338153
 11
317.3454172251777
 21
535.74723901217499
  0
LINE
  8
_1-5_寸法3
  6
CONTINUOUS
 62
    7
 10
456.55727067122029
 20
475.22167706715175
 11
456.55727067122029
 21
547.8883437338153
  0
LINE
  8
_1-5_寸法3
  6
CONTINUOUS
 62
    7
 10
456.55727067122029
 20
539.8883437338153
 11
441.10245745059524
 21
535.74723901217499
  0
LINE
  8
_1-5_寸法3
  6
CONTINUOUS
 62
    7
 10
456.55727067122029
 20
539.8883437338153
 11
441.10245745059524
 21
544.02944845545574
  0
LINE
  8
_1-5_寸法3
  6
CONTINUOUS
 62
    7
 10
301.89060400455264
 20
539.8883437338153
 11
456.55727067122029
 21
539.8883437338153
  0
TEXT
  8
_1-5_寸法3
 62
    7
 10
367.22393733788647
 20
539.8883437338153
 40
24
 41
1
 50
0
  1
58
  0
LINE
  8
_1-5_寸法3
  6
CONTINUOUS
 62
    7
 10
456.55727067122029
 20
539.8883437338153
 11
472.01208389184535
 21
544.02944845545551
  0
LINE
  8
_1-5_寸法3
  6
CONTINUOUS
 62
    7
 10
456.55727067122029
 20
539.8883437338153
 11
472.01208389184535
 21
535.74723901217487
  0
LINE
  8
_1-5_寸法3
  6
CONTINUOUS
 62
    7
 10
611.22393733788704
 20
475.8883437338153
 11
611.22393733788704
 21
547.8883437338153
  0
LINE
  8
_1-5_寸法3
  6
CONTINUOUS
 62
    7
 10
611.22393733788704
 20
539.8883437338153
 11
595.76912411726198
 21
535.74723901217499
  0
LINE
  8
_1-5_寸法3
  6
CONTINUOUS
 62
    7
 10
611.22393733788704
 20
539.8883437338153
 11
595.76912411726198
 21
544.02944845545574
  0
LINE
  8
_1-5_寸法3
  6
CONTINUOUS
 62
    7
 10
456.55727067122029
 20
539.8883437338153
 11
611.22393733788704
 21
539.8883437338153
  0
TEXT
  8
_1-5_寸法3
 62
    7
 10
521.89060400455367
 20
539.88834373381519
 40
24
 41
1
 50
0
  1
58
  0
LINE
  8
_1-2_極細3
  6
CENTER1
 62
    2
 10
628.82407877973537
 20
433.88834373381331
 11
285.91088275995571
 21
433.88834373381331
  0
LINE
  8
_1-3_細線3
  6
CONTINUOUS
 62
    4
 10
303.22255903331165
 20
428.62794445165281
 11
304.55589236664559
 21
427.85814409273252
  0
ARC
  8
_1-3_細線3
  6
CONTINUOUS
 62
    4
 10
304.55589236664377
 20
430.93734552841278
 40
2.6666666666666665
 50
179.99999999999983
 51
239.99999999997968
  0
LINE
  8
_1-3_細線3
  6
CONTINUOUS
 62
    4
 10
301.88922569998135
 20
435.23934193921758
 11
301.88922569998135
 21
430.93734552841278
  0
ARC
  8
_1-3_細線3
  6
CONTINUOUS
 62
    4
 10
304.55589236664377
 20
435.23934193921758
 40
2.6666666666666665
 50
119.99999999998613
 51
179.99999999999983
  0
LINE
  8
_1-3_細線3
  6
CONTINUOUS
 62
    4
 10
304.55589236664559
 20
438.31854337489284
 11
303.22255903331529
 21
437.54874301597528
  0
LINE
  8
_1-3_細線3
  6
CONTINUOUS
 62
    4
 10
309.88922569997953
 20
459.88834373381559
 11
309.88922569998135
 21
406.55501040048216
  0
ARC
  8
_1-3_細線3
  6
CONTINUOUS
 62
    4
 10
309.08922566573779
 20
407.35501042318606
 40
0.800000034239626
 50
270.00000245217564
 51
359.99999999999966
  0
LINE
  8
_1-3_細線3
  6
CONTINUOUS
 62
    4
 10
309.8892256999759
 20
459.08834373381768
 11
309.8892256999759
 21
407.3550104004828
  0
ARC
  8
_1-3_細線3
  6
CONTINUOUS
 62
    4
 10
309.08922569193851
 20
459.08834370785934
 40
0.8000000259586764
 50
0
 51
89.999999424312506
  0
LINE
  8
_1-3_細線3
  6
CONTINUOUS
 62
    4
 10
302.68922569997699
 20
459.88834373381786
 11
309.08922569997662
 21
459.88834373381786
  0
ARC
  8
_1-3_細線3
  6
CONTINUOUS
 62
    4
 10
302.68922573730265
 20
459.08834368343622
 40
0.8000000373270587
 50
90.000002673253533
 51
179.99999999999983
  0
LINE
  8
_1-3_細線3
  6
CONTINUOUS
 62
    4
 10
301.8892256999759
 20
455.35501040048274
 11
301.8892256999759
 21
459.08834373381768
  0
ARC
  8
_1-3_細線3
  6
CONTINUOUS
 62
    4
 10
302.68922573315717
 20
455.35501042224513
 40
0.8000000217604497
 50
179.99999999999983
 51
269.99999762364394
  0
LINE
  8
_1-3_細線3
  6
CONTINUOUS
 62
    4
 10
303.75589236664268
 20
454.55501040048483
 11
302.68922569997699
 21
454.55501040048483
  0
ARC
  8
_1-3_細線3
  6
CONTINUOUS
 62
    4
 10
303.75589235552502
 20
453.75501039628597
 40
0.8000000111193609
 50
0
 51
89.999999203756033
  0
LINE
  8
_1-3_細線3
  6
CONTINUOUS
 62
    4
 10
304.55589236664377
 20
412.68834373381628
 11
304.55589236664377
 21
453.7550104004842
  0
ARC
  8
_1-3_細線3
  6
CONTINUOUS
 62
    4
 10
303.75589234133508
 20
412.68834375174151
 40
0.8000000179235944
 50
270.0000018125229
 51
359.99999999999966
  0
LINE
  8
_1-3_細線3
  6
CONTINUOUS
 62
    4
 10
302.68922569997699
 20
411.88834373381792
 11
303.75589236664268
 21
411.88834373381792
  0
ARC
  8
_1-3_細線3
  6
CONTINUOUS
 62
    4
 10
302.68922570071004
 20
411.08834373330842
 40
0.8000000007317187
 50
90.000000052501036
 51
179.99999999999983
  0
LINE
  8
_1-3_細線3
  6
CONTINUOUS
 62
    4
 10
301.8892256999759
 20
407.3550104004828
 11
301.8892256999759
 21
411.08834373381774
  0
ARC
  8
_1-3_細線3
  6
CONTINUOUS
 62
    4
 10
302.68922574658677
 20
407.35501041568727
 40
0.8000000152023871
 50
179.99999999999983
 51
269.99999666181975
  0
LINE
  8
_1-3_細線3
  6
CONTINUOUS
 62
    4
 10
309.08922569997662
 20
406.55501040048489
 11
302.68922569997699
 21
406.55501040048489
  0
ARC
  8
_1-3_細線3
  6
CONTINUOUS
 62
    4
 10
604.0225590613743
 20
407.35501040746817
 40
0.8000000280644599
 50
179.99999999999983
 51
269.99999799010897
  0
LINE
  8
_1-3_細線3
  6
CONTINUOUS
 62
    4
 10
603.22255903330802
 20
459.08834373381586
 11
603.22255903330802
 21
407.35501040048325
  0
ARC
  8
_1-3_細線3
  6
CONTINUOUS
 62
    4
 10
604.0225590321395
 20
459.08834373345434
 40
0.8000000003642828
 50
89.999999916102567
 51
179.99999999999983
  0
LINE
  8
_1-3_細線3
  6
CONTINUOUS
 62
    4
 10
610.42255903330874
 20
459.88834373381877
 11
604.02255903331093
 21
459.88834373381877
  0
ARC
  8
_1-3_細線3
  6
CONTINUOUS
 62
    4
 10
610.4225590133326
 20
459.08834372551127
 40
0.8000000199784456
 50
0
 51
89.999998569314286
  0
LINE
  8
_1-3_細線3
  6
CONTINUOUS
 62
    4
 10
611.22255903330802
 20
455.3550104004832
 11
611.22255903330802
 21
459.08834373381586
  0
ARC
  8
_1-3_細線3
  6
CONTINUOUS
 62
    4
 10
610.42255903498221
 20
455.35501040779553
 40
0.8000000073103971
 50
269.99999988014616
 51
359.99999999999966
  0
LINE
  8
_1-3_細線3
  6
CONTINUOUS
 62
    4
 10
609.35589236664305
 20
454.55501040048529
 11
610.42255903330874
 21
454.55501040048529
  0
ARC
  8
_1-3_細線3
  6
CONTINUOUS
 62
    4
 10
609.35589238396346
 20
453.75501038113333
 40
0.8000000173178707
 50
90.000001240483471
 51
179.99999999999983
  0
LINE
  8
_1-3_細線3
  6
CONTINUOUS
 62
    4
 10
608.55589236664377
 20
412.68834373381674
 11
608.55589236664377
 21
453.75501040048238
  0
ARC
  8
_1-3_細線3
  6
CONTINUOUS
 62
    4
 10
609.35589239324395
 20
412.68834375228812
 40
0.8000000184692912
 50
179.99999999999983
 51
269.99999809485047
  0
LINE
  8
_1-3_細線3
  6
CONTINUOUS
 62
    4
 10
610.42255903330874
 20
411.88834373381883
 11
609.35589236664305
 21
411.88834373381883
  0
ARC
  8
_1-3_細線3
  6
CONTINUOUS
 62
    4
 10
610.42255905003253
 20
411.08834377562812
 40
0.7999999832773039
 50
0
 51
90.00000119775315
  0
LINE
  8
_1-3_細線3
  6
CONTINUOUS
 62
    4
 10
611.22255903330802
 20
407.35501040048325
 11
611.22255903330802
 21
411.08834373381592
  0
ARC
  8
_1-3_細線3
  6
CONTINUOUS
 62
    4
 10
610.42255902155807
 20
407.35501040123995
 40
0.8000000007547593
 50
270.00000084157949
 51
359.99999999999966
  0
LINE
  8
_1-3_細線3
  6
CONTINUOUS
 62
    4
 10
604.02255903331093
 20
406.55501040048534
 11
610.42255903330874
 21
406.55501040048534
  0
LINE
  8
_1-3_細線3
  6
CONTINUOUS
 62
    4
 10
603.22255903331165
 20
406.55501040048307
 11
309.88922569997953
 21
406.55501040048216
  0
LINE
  8
_1-3_細線3
  6
CONTINUOUS
 62
    4
 10
603.22255903331165
 20
459.88834373381604
 11
603.22255903331165
 21
406.55501040048307
  0
LINE
  8
_1-3_細線3
  6
CONTINUOUS
 62
    4
 10
609.88922569997953
 20
428.62794445165326
 11
608.55589236664377
 21
427.85814409273343
  0
ARC
  8
_1-3_細線3
  6
CONTINUOUS
 62
    4
 10
608.55589236664377
 20
430.93734552841323
 40
2.6666666666666665
 50
299.99999999998579
 51
359.99999999999966
  0
LINE
  8
_1-3_細線3
  6
CONTINUOUS
 62
    4
 10
611.22255903331165
 20
435.23934193921804
 11
611.22255903331165
 21
430.93734552841323
  0
ARC
  8
_1-3_細線3
  6
CONTINUOUS
 62
    4
 10
608.55589236664377
 20
435.23934193921804
 40
2.6666666666666665
 50
0
 51
60.000000000013891
  0
LINE
  8
_1-3_細線3
  6
CONTINUOUS
 62
    4
 10
608.55589236664377
 20
438.3185433748933
 11
609.88922569997953
 21
437.54874301597573
  0
LINE
  8
_1-3_細線3
  6
CONTINUOUS
 62
    4
 10
309.88922569997953
 20
459.88834373381559
 11
603.22255903331165
 21
459.88834373381604
  0
LINE
  8
_1-3_細線3
  6
CONTINUOUS
 62
    4
 10
603.22255903331165
 20
456.15501040048383
 11
309.88922569997953
 21
456.15501040048338
  0
CIRCLE
  8
_1-3_細線3
  6
CONTINUOUS
 62
    4
 10
456.55589236664377
 20
433.88834373381604
 40
5.8666666666661813
  0
CIRCLE
  8
_1-3_細線3
  6
CONTINUOUS
 62
    4
 10
456.55589236664377
 20
433.88834373381604
 40
8
  0
LINE
  8
_1-5_寸法3
  6
CONTINUOUS
 62
    7
 10
442.80970803738433
 20
418.09058549145294
 11
394.01289485805398
 21
459.03597343285475
  0
LINE
  8
_1-5_寸法3
  6
CONTINUOUS
 62
    7
 10
400.14125040300587
 20
453.89367255536251
 11
396.00014568136555
 21
469.34848577598763
  0
LINE
  8
_1-5_寸法3
  6
CONTINUOUS
 62
    7
 10
400.14125040300587
 20
453.89367255536251
 11
404.2823551246463
 21
469.34848577598763
  0
LINE
  8
_1-5_寸法3
  6
CONTINUOUS
 62
    7
 10
442.80970803738433
 20
471.42391882478597
 11
394.01289485805398
 21
512.36930676618783
  0
LINE
  8
_1-5_寸法3
  6
CONTINUOUS
 62
    7
 10
400.14125040300587
 20
507.22700588869554
 11
404.2823551246463
 21
491.77219266807043
  0
LINE
  8
_1-5_寸法3
  6
CONTINUOUS
 62
    7
 10
400.14125040300587
 20
507.22700588869554
 11
396.00014568136555
 21
491.77219266807043
  0
LINE
  8
_1-5_寸法3
  6
CONTINUOUS
 62
    7
 10
400.14125040300587
 20
453.89367255536251
 11
400.14125040300587
 21
507.22700588869554
  0
TEXT
  8
_1-5_寸法3
 62
    7
 10
400.14125040300587
 20
469.05461510952625
 40
24
 41
1
 50
90
  1
20
  0
TEXT
  8
_0-7_枠細線
 62
    5
 10
900.97192549071087
 20
334.9518255449085
 40
40
 41
0.8
 50
0
  1
側面詳細図
  0
TEXT
  8
_0-7_枠細線
 62
    5
 10
1009.1373441074679
 20
297.70853888738907
 40
32
 41
0.6
 50
0
  1
Ｓ＝１：３
  0
LINE
  8
_1-2_極細3
  6
CENTER1
 62
    2
 10
833.08465365506117
 20
433.22167706714868
 11
1110.6930076038984
 21
433.22167706714868
  0
ARC
  8
_1-2_極細3
  6
CONTINUOUS
 62
    2
 10
1061.4505702601878
 20
418.84710822302281
 40
33.712972029084177
 50
330.03871396148293
 51
25.238104023878119
  0
ARC
  8
_1-2_極細3
  6
CONTINUOUS
 62
    2
 10
1122.440282624792
 20
447.59624591127363
 40
33.712972029084177
 50
150.0387139614817
 51
205.23810402387812
  0
ARC
  8
_1-2_極細3
  6
CONTINUOUS
 62
    2
 10
832.02548585290378
 20
418.84710822302281
 40
33.712972029084177
 50
330.03871396148213
 51
25.238104023877458
  0
ARC
  8
_1-2_極細3
  6
CONTINUOUS
 62
    2
 10
893.01519821750799
 20
447.59624591127363
 40
33.712972029084177
 50
150.0387139614825
 51
205.23810402387878
  0
LINE
  8
_1-5_寸法3
  6
CONTINUOUS
 62
    7
 10
996.85571843177377
 20
475.88834373381565
 11
996.85571843177377
 21
547.88834373381565
  0
LINE
  8
_1-5_寸法3
  6
CONTINUOUS
 62
    7
 10
996.85571843177377
 20
539.88834373381565
 11
1012.3105316523988
 21
544.02944845545596
  0
LINE
  8
_1-5_寸法3
  6
CONTINUOUS
 62
    7
 10
996.85571843177377
 20
539.88834373381565
 11
1012.3105316523988
 21
535.74723901217533
  0
LINE
  8
_1-5_寸法3
  6
CONTINUOUS
 62
    7
 10
1034.1890517651077
 20
475.88834373381565
 11
1034.1890517651077
 21
547.88834373381565
  0
LINE
  8
_1-5_寸法3
  6
CONTINUOUS
 62
    7
 10
1034.1890517651077
 20
539.88834373381565
 11
1018.7342385444827
 21
535.74723901217533
  0
LINE
  8
_1-5_寸法3
  6
CONTINUOUS
 62
    7
 10
1034.1890517651077
 20
539.88834373381565
 11
1018.7342385444827
 21
544.02944845545608
  0
LINE
  8
_1-5_寸法3
  6
CONTINUOUS
 62
    7
 10
996.85571843177377
 20
539.88834373381565
 11
1034.1890517651077
 21
539.88834373381565
  0
TEXT
  8
_1-5_寸法3
 62
    7
 10
1003.5223850984398
 20
539.88834373381565
 40
24
 41
1
 50
0
  1
14
  0
LINE
  8
_1-5_寸法3
  6
CONTINUOUS
 62
    7
 10
1034.1890517651077
 20
539.88834373381565
 11
1049.6438649857328
 21
544.02944845545585
  0
LINE
  8
_1-5_寸法3
  6
CONTINUOUS
 62
    7
 10
1034.1890517651077
 20
539.88834373381565
 11
1049.6438649857328
 21
535.74723901217521
  0
LINE
  8
_1-5_寸法3
  6
CONTINUOUS
 62
    7
 10
1071.5223850984416
 20
475.88834373381565
 11
1071.5223850984416
 21
547.88834373381565
  0
LINE
  8
_1-5_寸法3
  6
CONTINUOUS
 62
    7
 10
1071.5223850984416
 20
539.88834373381565
 11
1056.0675718778166
 21
535.74723901217533
  0
LINE
  8
_1-5_寸法3
  6
CONTINUOUS
 62
    7
 10
1071.5223850984416
 20
539.88834373381565
 11
1056.0675718778166
 21
544.02944845545608
  0
LINE
  8
_1-5_寸法3
  6
CONTINUOUS
 62
    7
 10
1034.1890517651077
 20
539.88834373381565
 11
1071.5223850984416
 21
539.88834373381565
  0
TEXT
  8
_1-5_寸法3
 62
    7
 10
1040.8557184317747
 20
539.88834373381565
 40
24
 41
1
 50
0
  1
14
  0
LINE
  8
_1-5_寸法3
  6
CONTINUOUS
 62
    7
 10
874.18905176510771
 20
475.88834373381565
 11
874.18905176510771
 21
547.88834373381565
  0
LINE
  8
_1-5_寸法3
  6
CONTINUOUS
 62
    7
 10
874.18905176510771
 20
539.88834373381565
 11
858.73423854448265
 21
535.74723901217533
  0
LINE
  8
_1-5_寸法3
  6
CONTINUOUS
 62
    7
 10
874.18905176510771
 20
539.88834373381565
 11
858.73423854448265
 21
544.02944845545608
  0
LINE
  8
_1-5_寸法3
  6
CONTINUOUS
 62
    7
 10
895.52238509844165
 20
475.88834373381565
 11
895.52238509844165
 21
547.88834373381565
  0
CIRCLE
  8
_1-5_寸法3
  6
CONTINUOUS
 62
    1
 10
895.52238509844165
 20
539.88834373381565
 40
2.4000000000000004
  0
LINE
  8
_1-5_寸法3
  6
CONTINUOUS
 62
    7
 10
834.18905176510771
 20
539.88834373381565
 11
895.52238509844165
 21
539.88834373381565
  0
TEXT
  8
_1-5_寸法3
 62
    7
 10
846.18035728577843
 20
539.88834373381565
 40
24
 41
1
 50
0
  1
8
  0
LINE
  8
_1-5_寸法3
  6
CONTINUOUS
 62
    7
 10
911.52238509844165
 20
475.88834373381565
 11
911.52238509844165
 21
547.88834373381565
  0
LINE
  8
_1-5_寸法3
  6
CONTINUOUS
 62
    7
 10
911.52238509844165
 20
539.88834373381565
 11
926.97719831906682
 21
544.02944845545585
  0
LINE
  8
_1-5_寸法3
  6
CONTINUOUS
 62
    7
 10
911.52238509844165
 20
539.88834373381565
 11
926.9771983190667
 21
535.74723901217521
  0
LINE
  8
_1-5_寸法3
  6
CONTINUOUS
 62
    7
 10
895.52238509844165
 20
539.88834373381565
 11
951.52238509844165
 21
539.88834373381565
  0
TEXT
  8
_1-5_寸法3
 62
    7
 10
927.07556716232239
 20
539.88834373381565
 40
24
 41
1
 50
0
  1
6
  0
ARC
  8
_1-3_細線3
  6
CONTINUOUS
 62
    4
 10
1080.3223850984828
 20
458.02167706710583
 40
1.8666666667086855
 50
269.99999999999977
 51
89.999999999999545
  0
LINE
  8
_1-3_細線3
  6
CONTINUOUS
 62
    4
 10
1062.7223850984387
 20
459.88834373381695
 11
1080.3223850984396
 21
459.88834373381451
  0
ARC
  8
_1-3_細線3
  6
CONTINUOUS
 62
    4
 10
1062.7223850985972
 20
458.02167706710344
 40
1.8666666666213438
 50
89.999999999999915
 51
269.99999999999977
  0
LINE
  8
_1-3_細線3
  6
CONTINUOUS
 62
    4
 10
1069.655718431773
 20
408.4216770671498
 11
1069.655718431773
 21
456.15501040048213
  0
LINE
  8
_1-3_細線3
  6
CONTINUOUS
 62
    4
 10
1069.655718431773
 20
456.15501040048213
 11
1062.7223850984387
 21
456.15501040048213
  0
ARC
  8
_1-3_細線3
  6
CONTINUOUS
 62
    4
 10
1071.5223850984323
 20
408.42167706714673
 40
1.8666666666729728
 50
179.99999999990578
 51
0.0000000000938484
  0
LINE
  8
_1-3_細線3
  6
CONTINUOUS
 62
    4
 10
1073.3890517651053
 20
456.15501040048213
 11
1073.3890517651053
 21
408.4216770671498
  0
ARC
  8
_1-3_細線3
  6
CONTINUOUS
 62
    4
 10
1066.3668295432774
 20
439.88834373479017
 40
3.9999999989889581
 50
53.130102350277838
 51
89.999999999999915
  0
LINE
  8
_1-3_細線3
  6
CONTINUOUS
 62
    4
 10
1069.6557184317778
 20
442.42167706715219
 11
1068.7668295428873
 21
443.08834373381882
  0
ARC
  8
_1-3_細線3
  6
CONTINUOUS
 62
    4
 10
1066.366829542804
 20
427.88834373397611
 40
4.0000000001770006
 50
269.99999999999977
 51
306.86989764543398
  0
LINE
  8
_1-3_細線3
  6
CONTINUOUS
 62
    4
 10
1069.6557184317778
 20
425.3550104004841
 11
1068.7668295428873
 21
424.68834373381736
  0
LINE
  8
_1-3_細線3
  6
CONTINUOUS
 62
    4
 10
1036.9446073206675
 20
443.08834373381882
 11
1036.055718431777
 21
442.42167706715219
  0
ARC
  8
_1-3_細線3
  6
CONTINUOUS
 62
    4
 10
1039.3446073210887
 20
439.88834373234994
 40
4.0000000014693802
 50
89.999999999999915
 51
126.86989763804931
  0
LINE
  8
_1-3_細線3
  6
CONTINUOUS
 62
    4
 10
1066.3668295428884
 20
443.88834373381934
 11
1039.3446073206667
 21
443.88834373381934
  0
LINE
  8
_1-3_細線3
  6
CONTINUOUS
 62
    4
 10
1036.9446073206675
 20
424.68834373381736
 11
1036.055718431777
 21
425.3550104004841
  0
ARC
  8
_1-3_細線3
  6
CONTINUOUS
 62
    4
 10
1039.3446073205594
 20
427.88834373363807
 40
3.9999999998187383
 50
233.13010235385192
 51
269.99999999999977
  0
LINE
  8
_1-3_細線3
  6
CONTINUOUS
 62
    4
 10
1066.3668295428884
 20
423.88834373381934
 11
1039.3446073206667
 21
423.88834373381934
  0
ARC
  8
_1-3_細線3
  6
CONTINUOUS
 62
    4
 10
1042.9890517650847
 20
458.02167706710583
 40
1.8666666667086855
 50
269.99999999999977
 51
89.999999999999545
  0
LINE
  8
_1-3_細線3
  6
CONTINUOUS
 62
    4
 10
1025.3890517651055
 20
459.88834373381695
 11
1042.9890517651065
 21
459.88834373381451
  0
ARC
  8
_1-3_細線3
  6
CONTINUOUS
 62
    4
 10
1025.3890517652192
 20
458.02167706710344
 40
1.8666666666213438
 50
89.999999999999915
 51
269.99999999999977
  0
LINE
  8
_1-3_細線3
  6
CONTINUOUS
 62
    4
 10
1032.3223850984398
 20
408.4216770671498
 11
1032.3223850984398
 21
456.15501040048213
  0
LINE
  8
_1-3_細線3
  6
CONTINUOUS
 62
    4
 10
1032.3223850984398
 20
456.15501040048213
 11
1025.3890517651055
 21
456.15501040048213
  0
ARC
  8
_1-3_細線3
  6
CONTINUOUS
 62
    4
 10
1034.1890517650343
 20
408.42167706714673
 40
1.8666666667379712
 50
179.99999999990578
 51
0.0000000000938484
  0
LINE
  8
_1-3_細線3
  6
CONTINUOUS
 62
    4
 10
1036.0557184317722
 20
456.15501040048213
 11
1036.0557184317722
 21
408.4216770671498
  0
ARC
  8
_1-3_細線3
  6
CONTINUOUS
 62
    4
 10
1029.0334962093341
 20
439.88834373259652
 40
4.0000000011114274
 50
53.130102362111579
 51
89.999999999999915
  0
LINE
  8
_1-3_細線3
  6
CONTINUOUS
 62
    4
 10
1032.3223850984471
 20
442.42167706715219
 11
1031.4334962095566
 21
443.08834373381882
  0
ARC
  8
_1-3_細線3
  6
CONTINUOUS
 62
    4
 10
1029.0334962096479
 20
427.88834373380178
 40
3.9999999999327946
 50
269.99999999999977
 51
306.86989764493126
  0
LINE
  8
_1-3_細線3
  6
CONTINUOUS
 62
    4
 10
1032.3223850984471
 20
425.3550104004841
 11
1031.4334962095566
 21
424.68834373381736
  0
LINE
  8
_1-3_細線3
  6
CONTINUOUS
 62
    4
 10
999.61127398733402
 20
443.08834373381882
 11
998.72238509844351
 21
442.42167706715219
  0
ARC
  8
_1-3_細線3
  6
CONTINUOUS
 62
    4
 10
1002.0112739871404
 20
439.88834373454148
 40
3.9999999992778918
 50
89.999999999999915
 51
126.8698976498347
  0
LINE
  8
_1-3_細線3
  6
CONTINUOUS
 62
    4
 10
999.61127398733402
 20
424.68834373381736
 11
998.72238509844351
 21
425.3550104004841
  0
ARC
  8
_1-3_細線3
  6
CONTINUOUS
 62
    4
 10
1002.0112739874005
 20
427.88834373381025
 40
3.9999999999909059
 50
233.13010235332905
 51
269.99999999999977
  0
ARC
  8
_1-3_細線3
  6
CONTINUOUS
 62
    4
 10
1005.6557184316846
 20
458.02167706710583
 40
1.8666666667086855
 50
269.99999999999977
 51
89.999999999999545
  0
LINE
  8
_1-3_細線3
  6
CONTINUOUS
 62
    4
 10
988.05571843177199
 20
459.88834373381695
 11
1005.6557184317728
 21
459.88834373381451
  0
ARC
  8
_1-3_細線3
  6
CONTINUOUS
 62
    4
 10
988.05571843183748
 20
458.02167706710344
 40
1.8666666666213438
 50
89.999999999999915
 51
269.99999999999977
  0
LINE
  8
_1-3_細線3
  6
CONTINUOUS
 62
    4
 10
994.9890517651063
 20
408.4216770671498
 11
994.9890517651063
 21
456.15501040048213
  0
LINE
  8
_1-3_細線3
  6
CONTINUOUS
 62
    4
 10
994.9890517651063
 20
456.15501040048213
 11
988.05571843177199
 21
456.15501040048213
  0
ARC
  8
_1-3_細線3
  6
CONTINUOUS
 62
    4
 10
996.85571843177581
 20
408.42167706700485
 40
1.8666666666627865
 50
179.99999999555087
 51
0.0000000044487933
  0
LINE
  8
_1-3_細線3
  6
CONTINUOUS
 62
    4
 10
998.72238509843851
 20
456.15501040048213
 11
998.72238509843851
 21
408.4216770671498
  0
ARC
  8
_1-3_細線3
  6
CONTINUOUS
 62
    4
 10
991.70016287641215
 20
439.88834373414608
 40
3.9999999996247064
 50
53.130102353510139
 51
89.999999999999915
  0
LINE
  8
_1-3_細線3
  6
CONTINUOUS
 62
    4
 10
994.98905176511357
 20
442.42167706715219
 11
994.10016287622307
 21
443.08834373381882
  0
ARC
  8
_1-3_細線3
  6
CONTINUOUS
 62
    4
 10
991.70016287588237
 20
427.88834373478591
 40
4.0000000009791261
 50
269.99999999999977
 51
306.86989764142373
  0
LINE
  8
_1-3_細線3
  6
CONTINUOUS
 62
    4
 10
994.98905176511357
 20
425.3550104004841
 11
994.10016287622307
 21
424.68834373381736
  0
LINE
  8
_1-3_細線3
  6
CONTINUOUS
 62
    4
 10
1029.0334962095576
 20
443.88834373381934
 11
1002.011273987333
 21
443.88834373381934
  0
LINE
  8
_1-3_細線3
  6
CONTINUOUS
 62
    4
 10
1029.0334962095576
 20
423.88834373381934
 11
1002.011273987333
 21
423.88834373381934
  0
LINE
  8
_1-3_細線3
  6
CONTINUOUS
 62
    4
 10
962.27794065400076
 20
443.08834373381882
 11
961.38905176511025
 21
442.42167706715219
  0
ARC
  8
_1-3_細線3
  6
CONTINUOUS
 62
    4
 10
964.67794065421958
 20
439.88834373299187
 40
4.000000000827459
 50
89.999999999999915
 51
126.8698976412458
  0
LINE
  8
_1-3_細線3
  6
CONTINUOUS
 62
    4
 10
962.27794065400076
 20
424.68834373381736
 11
961.38905176511025
 21
425.3550104004841
  0
ARC
  8
_1-3_細線3
  6
CONTINUOUS
 62
    4
 10
964.67794065445139
 20
427.88834373527476
 40
4.0000000014554349
 50
233.13010236151524
 51
269.99999999999977
  0
ARC
  8
_1-3_細線3
  6
CONTINUOUS
 62
    4
 10
968.32238509856779
 20
458.02167706710583
 40
1.8666666667086855
 50
269.99999999999977
 51
89.999999999999545
  0
LINE
  8
_1-3_細線3
  6
CONTINUOUS
 62
    4
 10
950.72238509843874
 20
459.88834373381695
 11
968.32238509843967
 21
459.88834373381451
  0
ARC
  8
_1-3_細線3
  6
CONTINUOUS
 62
    4
 10
950.7223850984567
 20
458.02167706710344
 40
1.8666666666213438
 50
89.999999999999915
 51
269.99999999999977
  0
LINE
  8
_1-3_細線3
  6
CONTINUOUS
 62
    4
 10
957.65571843177304
 20
408.4216770671498
 11
957.65571843177304
 21
456.15501040048213
  0
LINE
  8
_1-3_細線3
  6
CONTINUOUS
 62
    4
 10
957.65571843177304
 20
456.15501040048213
 11
950.72238509843874
 21
456.15501040048213
  0
ARC
  8
_1-3_細線3
  6
CONTINUOUS
 62
    4
 10
959.52238509837525
 20
408.42167706728861
 40
1.8666666667302103
 50
180.00000000426033
 51
359.9999999957389
  0
LINE
  8
_1-3_細線3
  6
CONTINUOUS
 62
    4
 10
961.38905176510536
 20
456.15501040048213
 11
961.38905176510536
 21
408.4216770671498
  0
LINE
  8
_1-3_細線3
  6
CONTINUOUS
 62
    4
 10
991.70016287622389
 20
443.88834373381934
 11
964.67794065399983
 21
443.88834373381934
  0
LINE
  8
_1-3_細線3
  6
CONTINUOUS
 62
    4
 10
991.70016287622389
 20
423.88834373381934
 11
964.67794065399983
 21
423.88834373381934
  0
LINE
  8
_1-3_細線3
  6
CONTINUOUS
 62
    4
 10
968.32238509843967
 20
456.15501040048213
 11
961.38905176510525
 21
456.15501040048213
  0
LINE
  8
_1-3_細線3
  6
CONTINUOUS
 62
    4
 10
1005.6557184317728
 20
456.15501040048213
 11
998.72238509843851
 21
456.15501040048213
  0
LINE
  8
_1-3_細線3
  6
CONTINUOUS
 62
    4
 10
1042.9890517651065
 20
456.15501040048213
 11
1036.0557184317722
 21
456.15501040048213
  0
LINE
  8
_1-3_細線3
  6
CONTINUOUS
 62
    4
 10
1080.3223850984396
 20
456.15501040048213
 11
1073.3890517651053
 21
456.15501040048213
  0
ARC
  8
_1-3_細線3
  6
CONTINUOUS
 62
    4
 10
954.36682954266746
 20
439.88834373259527
 40
4.0000000011114274
 50
53.130102362111579
 51
89.999999999999915
  0
LINE
  8
_1-3_細線3
  6
CONTINUOUS
 62
    4
 10
957.65571843178043
 20
442.42167706715094
 11
956.76682954288992
 21
443.08834373381757
  0
ARC
  8
_1-3_細線3
  6
CONTINUOUS
 62
    4
 10
954.36682954298124
 20
427.88834373380053
 40
3.9999999999327946
 50
269.99999999999977
 51
306.86989764493126
  0
LINE
  8
_1-3_細線3
  6
CONTINUOUS
 62
    4
 10
957.65571843178043
 20
425.35501040048285
 11
956.76682954288992
 21
424.68834373381611
  0
LINE
  8
_1-3_細線3
  6
CONTINUOUS
 62
    4
 10
924.94460732066739
 20
443.08834373381757
 11
924.05571843177688
 21
442.42167706715094
  0
ARC
  8
_1-3_細線3
  6
CONTINUOUS
 62
    4
 10
927.34460732047376
 20
439.88834373454023
 40
3.9999999992778918
 50
89.999999999999915
 51
126.8698976498347
  0
LINE
  8
_1-3_細線3
  6
CONTINUOUS
 62
    4
 10
924.94460732066739
 20
424.68834373381611
 11
924.05571843177688
 21
425.35501040048285
  0
ARC
  8
_1-3_細線3
  6
CONTINUOUS
 62
    4
 10
927.34460732073387
 20
427.88834373380899
 40
3.9999999999909059
 50
233.13010235332905
 51
269.99999999999977
  0
ARC
  8
_1-3_細線3
  6
CONTINUOUS
 62
    4
 10
930.98905176501796
 20
458.02167706710458
 40
1.8666666667086855
 50
269.99999999999977
 51
89.999999999999545
  0
LINE
  8
_1-3_細線3
  6
CONTINUOUS
 62
    4
 10
913.38905176510536
 20
459.8883437338157
 11
930.98905176510618
 21
459.88834373381326
  0
ARC
  8
_1-3_細線3
  6
CONTINUOUS
 62
    4
 10
913.38905176517085
 20
458.02167706710219
 40
1.8666666666213438
 50
89.999999999999915
 51
269.99999999999977
  0
LINE
  8
_1-3_細線3
  6
CONTINUOUS
 62
    4
 10
920.32238509843967
 20
408.42167706714855
 11
920.32238509843967
 21
456.15501040048088
  0
LINE
  8
_1-3_細線3
  6
CONTINUOUS
 62
    4
 10
920.32238509843967
 20
456.15501040048088
 11
913.38905176510536
 21
456.15501040048088
  0
ARC
  8
_1-3_細線3
  6
CONTINUOUS
 62
    4
 10
922.18905176510918
 20
408.4216770670036
 40
1.8666666666627865
 50
179.99999999555087
 51
0.0000000044487933
  0
LINE
  8
_1-3_細線3
  6
CONTINUOUS
 62
    4
 10
924.05571843177188
 20
456.15501040048088
 11
924.05571843177188
 21
408.42167706714855
  0
ARC
  8
_1-3_細線3
  6
CONTINUOUS
 62
    4
 10
917.03349620974552
 20
439.88834373414483
 40
3.9999999996247064
 50
53.130102353510139
 51
89.999999999999915
  0
LINE
  8
_1-3_細線3
  6
CONTINUOUS
 62
    4
 10
920.32238509844694
 20
442.42167706715094
 11
919.43349620955644
 21
443.08834373381757
  0
ARC
  8
_1-3_細線3
  6
CONTINUOUS
 62
    4
 10
917.03349620921574
 20
427.88834373478466
 40
4.0000000009791261
 50
269.99999999999977
 51
306.86989764142373
  0
LINE
  8
_1-3_細線3
  6
CONTINUOUS
 62
    4
 10
920.32238509844694
 20
425.35501040048285
 11
919.43349620955644
 21
424.68834373381611
  0
LINE
  8
_1-3_細線3
  6
CONTINUOUS
 62
    4
 10
954.36682954289097
 20
443.88834373381809
 11
927.34460732066634
 21
443.88834373381809
  0
LINE
  8
_1-3_細線3
  6
CONTINUOUS
 62
    4
 10
954.36682954289097
 20
423.88834373381809
 11
927.34460732066634
 21
423.88834373381809
  0
LINE
  8
_1-3_細線3
  6
CONTINUOUS
 62
    4
 10
887.61127398733413
 20
443.08834373381757
 11
886.72238509844362
 21
442.42167706715094
  0
ARC
  8
_1-3_細線3
  6
CONTINUOUS
 62
    4
 10
890.01127398755295
 20
439.88834373299062
 40
4.000000000827459
 50
89.999999999999915
 51
126.8698976412458
  0
LINE
  8
_1-3_細線3
  6
CONTINUOUS
 62
    4
 10
887.61127398733413
 20
424.68834373381611
 11
886.72238509844362
 21
425.35501040048285
  0
ARC
  8
_1-3_細線3
  6
CONTINUOUS
 62
    4
 10
890.01127398778476
 20
427.88834373527351
 40
4.0000000014554349
 50
233.13010236151524
 51
269.99999999999977
  0
ARC
  8
_1-3_細線3
  6
CONTINUOUS
 62
    4
 10
893.65571843190116
 20
458.02167706710458
 40
1.8666666667086855
 50
269.99999999999977
 51
89.999999999999545
  0
LINE
  8
_1-3_細線3
  6
CONTINUOUS
 62
    4
 10
876.05571843177211
 20
459.8883437338157
 11
893.65571843177304
 21
459.88834373381326
  0
ARC
  8
_1-3_細線3
  6
CONTINUOUS
 62
    4
 10
876.05571843179007
 20
458.02167706710219
 40
1.8666666666213438
 50
89.999999999999915
 51
269.99999999999977
  0
LINE
  8
_1-3_細線3
  6
CONTINUOUS
 62
    4
 10
882.98905176510641
 20
408.42167706714855
 11
882.98905176510641
 21
456.15501040048088
  0
LINE
  8
_1-3_細線3
  6
CONTINUOUS
 62
    4
 10
882.98905176510641
 20
456.15501040048088
 11
876.05571843177211
 21
456.15501040048088
  0
ARC
  8
_1-3_細線3
  6
CONTINUOUS
 62
    4
 10
884.85571843170862
 20
408.42167706728736
 40
1.8666666667302103
 50
180.00000000426033
 51
359.9999999957389
  0
LINE
  8
_1-3_細線3
  6
CONTINUOUS
 62
    4
 10
886.72238509843874
 20
456.15501040048088
 11
886.72238509843874
 21
408.42167706714855
  0
LINE
  8
_1-3_細線3
  6
CONTINUOUS
 62
    4
 10
917.03349620955726
 20
443.88834373381809
 11
890.0112739873332
 21
443.88834373381809
  0
LINE
  8
_1-3_細線3
  6
CONTINUOUS
 62
    4
 10
917.03349620955726
 20
423.88834373381809
 11
890.0112739873332
 21
423.88834373381809
  0
LINE
  8
_1-3_細線3
  6
CONTINUOUS
 62
    4
 10
893.65571843177304
 20
456.15501040048088
 11
886.72238509843862
 21
456.15501040048088
  0
LINE
  8
_1-3_細線3
  6
CONTINUOUS
 62
    4
 10
930.98905176510618
 20
456.15501040048088
 11
924.05571843177188
 21
456.15501040048088
  0
LINE
  8
_1-3_細線3
  6
CONTINUOUS
 62
    4
 10
1074.2779406540005
 20
443.08834373381882
 11
1073.38905176511
 21
442.42167706715219
  0
ARC
  8
_1-3_細線3
  6
CONTINUOUS
 62
    4
 10
1076.6779406544217
 20
439.88834373234994
 40
4.0000000014693802
 50
89.999999999999915
 51
126.86989763804931
  0
LINE
  8
_1-3_細線3
  6
CONTINUOUS
 62
    4
 10
1074.2779406540005
 20
424.68834373381736
 11
1073.38905176511
 21
425.3550104004841
  0
ARC
  8
_1-3_細線3
  6
CONTINUOUS
 62
    4
 10
1076.6779406538924
 20
427.88834373363807
 40
3.9999999998187383
 50
233.13010235385192
 51
269.99999999999977
  0
LINE
  8
_1-3_細線3
  6
CONTINUOUS
 62
    4
 10
1088.9318367569776
 20
443.88834373381934
 11
1076.6779406539997
 21
443.88834373381934
  0
LINE
  8
_1-3_細線3
  6
CONTINUOUS
 62
    4
 10
1094.784493335015
 20
423.88834373381934
 11
1076.6779406539997
 21
423.88834373381934
  0
ARC
  8
_1-3_細線3
  6
CONTINUOUS
 62
    4
 10
879.70016287641226
 20
439.88834373414483
 40
3.9999999996247064
 50
53.130102353510139
 51
89.999999999999915
  0
LINE
  8
_1-3_細線3
  6
CONTINUOUS
 62
    4
 10
882.98905176511369
 20
442.42167706715094
 11
882.10016287622318
 21
443.08834373381757
  0
ARC
  8
_1-3_細線3
  6
CONTINUOUS
 62
    4
 10
879.70016287588248
 20
427.88834373478466
 40
4.0000000009791261
 50
269.99999999999977
 51
306.86989764142373
  0
LINE
  8
_1-3_細線3
  6
CONTINUOUS
 62
    4
 10
882.98905176511369
 20
425.35501040048285
 11
882.10016287622318
 21
424.68834373381611
  0
LINE
  8
_1-3_細線3
  6
CONTINUOUS
 62
    4
 10
879.700162876224
 20
443.88834373381809
 11
859.50675234969378
 21
443.88834373381809
  0
LINE
  8
_1-3_細線3
  6
CONTINUOUS
 62
    4
 10
879.700162876224
 20
423.88834373381809
 11
865.35940892773112
 21
423.88834373381809
  0
LINE
  8
_1-3_細線3
  6
CONTINUOUS
 62
    4
 10
1091.0481050298108
 20
459.88834373381695
 11
861.62302062252684
 21
459.88834373381695
  0
LINE
  8
_1-3_細線3
  6
CONTINUOUS
 62
    4
 10
863.41766344788618
 20
406.55501040048267
 11
1092.8427478551703
 21
406.55501040048267
  0
LINE
  8
_1-5_寸法3
  6
CONTINUOUS
 62
    7
 10
846.10002500754626
 20
459.8883437338157
 11
773.62302062252695
 21
459.88834373381565
  0
LINE
  8
_1-5_寸法3
  6
CONTINUOUS
 62
    7
 10
781.62302062252695
 20
459.88834373381565
 11
785.76412534416727
 21
444.43353051319053
  0
LINE
  8
_1-5_寸法3
  6
CONTINUOUS
 62
    7
 10
781.62302062252695
 20
459.88834373381565
 11
777.48191590088663
 21
444.43353051319053
  0
LINE
  8
_1-5_寸法3
  6
CONTINUOUS
 62
    7
 10
846.10002500754626
 20
406.55501040048267
 11
773.62302062252695
 21
406.55501040048262
  0
LINE
  8
_1-5_寸法3
  6
CONTINUOUS
 62
    7
 10
781.62302062252695
 20
406.55501040048262
 11
777.48191590088663
 21
422.00982362110773
  0
LINE
  8
_1-5_寸法3
  6
CONTINUOUS
 62
    7
 10
781.62302062252695
 20
406.55501040048262
 11
785.76412534416727
 21
422.00982362110773
  0
LINE
  8
_1-5_寸法3
  6
CONTINUOUS
 62
    7
 10
781.62302062252695
 20
459.88834373381565
 11
781.62302062252695
 21
406.55501040048262
  0
TEXT
  8
_1-5_寸法3
 62
    7
 10
781.62302062252695
 20
421.22167706714959
 40
24
 41
1
 50
90
  1
20
  0
LINE
  8
_1-2_極細3
  6
CENTER1
 62
    2
 10
456.55727067121916
 20
473.19375359752303
 11
456.55727067121916
 21
389.40872401780439
  0
LINE
  8
_0-0_計極細
  6
CENTER1
 62
    2
 10
1271.4604746743425
 20
1288.6305250950513
 11
1271.4604746743425
 21
580.49412075571422
  0
ENDSEC
  0
EOF
