  0
SECTION
  2
HEADER
  9
$ACADVER
  1
AC1009
  9
$INSBASE
 10
0
 20
0
 30
0
  9
$EXTMIN
 10
0
 20
0
  9
$EXTMAX
 10
2376
 20
1680
  9
$LIMMIN
 10
0
 20
0
  9
$LIMMAX
 10
2376
 20
1680
  9
$LTSCALE
 40
8
  0
ENDSEC
  0
SECTION
  2
TABLES
  0
TABLE
  2
LTYPE
 70
     9
  0
LTYPE
  2
CONTINUOUS
 70
    64
  3
実線
 72
    65
 73
     0
 40
0.0
  0
LTYPE
  2
DASHED1
 70
    64
  3
--  --  --  --  --  --  --  --  
 72
    65
 73
     2
 40
2.5
 49
1.25
 49
-1.25
  0
LTYPE
  2
DASHED2
 70
    64
  3
----    ----    ----    ----    
 72
    65
 73
     2
 40
5.0
 49
2.5
 49
-2.5
  0
LTYPE
  2
DASHED3
 70
    64
  3
------  ------  ------  ------  
 72
    65
 73
     2
 40
5.0
 49
3.75
 49
-1.25
  0
LTYPE
  2
CENTER1
 70
    64
  3
----- - ----- - ----- - ----- - 
 72
    65
 73
     4
 40
10.0
 49
6.25
 49
-1.25
 49
1.25
 49
-1.25
  0
LTYPE
  2
CENTER2
 70
    64
  3
----------  --  ----------  --  
 72
    65
 73
     4
 40
20.0
 49
12.5
 49
-2.5
 49
2.5
 49
-2.5
  0
LTYPE
  2
PHANTOM1
 70
    64
  3
--- - - --- - - --- - - --- - - 
 72
    65
 73
     6
 40
10.0
 49
3.25
 49
-1.25
 49
1.25
 49
-1.25
 49
1.25
 49
-1.25
  0
LTYPE
  2
PHANTOM2
 70
    64
  3
--------  -  -  --------  -  -  
 72
    65
 73
     6
 40
20.0
 49
10.0
 49
-2.5
 49
1.25
 49
-2.5
 49
1.25
 49
-2.5
  0
LTYPE
  2
DOT
 70
    64
  3
-   -   -   -   -   -   -   -   
 72
    65
 73
     2
 40
2.5
 49
0.625
 49
-1.875
  0
LTYPE
  2
DUMMY
 70
    64
  3
ダミー
 72
    65
 73
     0
 40
0.0
  0
LTYPE
  2
RAND1
 70
    64
  3
ランダム線1
 72
    65
 73
     4
 40
10.0
 49
1.0
 49
-2.0
 49
3.0
 49
-4.0
  0
LTYPE
  2
RAND2
 70
    64
  3
ランダム線2
 72
    65
 73
     4
 40
14.0
 49
2.0
 49
-3.0
 49
4.0
 49
-5.0
  0
LTYPE
  2
RAND3
 70
    64
  3
ランダム線3
 72
    65
 73
     4
 40
18.0
 49
3.0
 49
-4.0
 49
5.0
 49
-6.0
  0
LTYPE
  2
RAND4
 70
    64
  3
ランダム線4
 72
    65
 73
     4
 40
22.0
 49
4.0
 49
-5.0
 49
6.0
 49
-7.0
  0
LTYPE
  2
RAND5
 70
    64
  3
ランダム線5
 72
    65
 73
     4
 40
26.0
 49
5.0
 49
-6.0
 49
7.0
 49
-8.0
  0
LTYPE
  2
LONG1
 70
    64
  3
----------  --  ----------  --  
 72
    65
 73
     4
 40
40.0
 49
32.5
 49
-2.5
 49
2.5
 49
-2.5
  0
LTYPE
  2
LONG2
 70
    64
  3
--------  -  -  --------  -  -  
 72
    65
 73
     6
 40
40.0
 49
30.0
 49
-2.5
 49
1.25
 49
-2.5
 49
1.25
 49
-2.5
  0
LTYPE
  2
LONG3
 70
    64
  3
+++++++++++++++..+++++++++++++++
 72
    65
 73
     2
 40
40.0
 49
37.5
 49
-2.5
  0
LTYPE
  2
LONG4
 70
    64
  3
+++++++++++++++..+++++++++++++++
 72
    65
 73
     2
 40
80.0
 49
75.0
 49
-5.0
  0
LTYPE
  2
LONG5
 70
    64
  3
----------  --  ----------  --  
 72
    65
 73
     4
 40
60.0
 49
37.5
 49
-7.5
 49
7.5
 49
-7.5
  0
LTYPE
  2
dashed
 70
   64
  3
-------   -------------   ------
 72
   65
 73
    2
 40
7.5
 49
6
 49
-1.5
  0
LTYPE
  2
dashed_spaced
 70
   64
  3
----        --------        ----
 72
   65
 73
    2
 40
12
 49
6
 49
-6
  0
LTYPE
  2
long_dashed_dotted
 70
   64
  3
------------- --- --------------
 72
   65
 73
    4
 40
15.25
 49
12
 49
-1.5
 49
0.25
 49
-1.5
  0
LTYPE
  2
long_dashed_double-dotted
 70
   64
  3
----------- --- --- ------------
 72
   65
 73
    6
 40
17
 49
12
 49
-1.5
 49
0.25
 49
-1.5
 49
0.25
 49
-1.5
  0
LTYPE
  2
long_dashed_triplicate-dotted
 70
   64
  3
--------- --- --- --- ----------
 72
   65
 73
    8
 40
18.75
 49
12
 49
-1.5
 49
0.25
 49
-1.5
 49
0.25
 49
-1.5
 49
0.25
 49
-1.5
  0
LTYPE
  2
dotted
 70
   64
  3
   -       -       -       -    
 72
   65
 73
    2
 40
1.75
 49
0.25
 49
-1.5
  0
LTYPE
  2
chain
 70
   64
  3
-------------- -- --------------
 72
   65
 73
    4
 40
18.5
 49
12
 49
-1.5
 49
3.5
 49
-1.5
  0
LTYPE
  2
chain_double_dash
 70
   64
  3
------------ -- -- -------------
 72
   65
 73
    6
 40
23.5
 49
12
 49
-1.5
 49
3.5
 49
-1.5
 49
3.5
 49
-1.5
  0
LTYPE
  2
dashed_dotted
 70
   64
  3
-----------     -     ----------
 72
   65
 73
    4
 40
9.25
 49
6
 49
-1.5
 49
0.25
 49
-1.5
  0
LTYPE
  2
double-dashed_dotted
 70
   64
  3
------   -----------   -   -----
 72
   65
 73
    6
 40
16.75
 49
6
 49
-1.5
 49
6
 49
-1.5
 49
0.25
 49
-1.5
  0
LTYPE
  2
dashed_double-dotted
 70
   64
  3
---------    -    -    ---------
 72
   65
 73
    6
 40
11
 49
6
 49
-1.5
 49
0.25
 49
-1.5
 49
0.25
 49
-1.5
  0
LTYPE
  2
double-dashed_double-dotted
 70
   64
  3
-----   ---------   -   -   ----
 72
   65
 73
    8
 40
18.5
 49
6
 49
-1.5
 49
6
 49
-1.5
 49
0.25
 49
-1.5
 49
0.25
 49
-1.5
  0
LTYPE
  2
dashed_triplicate-dotted
 70
   64
  3
-------    -    -    -    ------
 72
   65
 73
    8
 40
12.75
 49
6
 49
-1.5
 49
0.25
 49
-1.5
 49
0.25
 49
-1.5
 49
0.25
 49
-1.5
  0
LTYPE
  2
double-dashed_triplicate-dotted
 70
   64
  3
-----  ---------  -  -  -  -----
 72
   65
 73
   10
 40
20.25
 49
6
 49
-1.5
 49
6
 49
-1.5
 49
0.25
 49
-1.5
 49
0.25
 49
-1.5
 49
0.25
 49
-1.5
  0
LTYPE
  2
undefined
 70
   64
  3
--------------------------------
 72
   65
 73
    0
 40
0
  0
ENDTAB
  0
TABLE
  2
STYLE
  5
3
100
AcDbSymbolTable
 70
     1
  0
STYLE
  5
10
100
AcDbSymbolTableRecord
100
AcDbTextStyleTableRecord
  2
STANDARD
 70
     0
 40
0.0
 41
1.0
 50
0.0
 71
     0
 42
0.2
  3
txt
  4
bigfont.shx
  0
STYLE
  5
26
100
AcDbSymbolTableRecord
100
AcDbTextStyleTableRecord
  2
TATEGAKI
 70
    68
 40
0.0
 41
1.0
 50
0.0
 71
     0
 42
1.0
  3
txt
  4
bigfont.shx
  0
ENDTAB
  0
TABLE
  2
LAYER
 70
   14
  0
LAYER
  2
_0-0_計極細
 70
   64
 62
    7
  6
CONTINUOUS
  0
LAYER
  2
_0-1_計細線
 70
   64
 62
    7
  6
CONTINUOUS
  0
LAYER
  2
_0-5_寸法線
 70
   64
 62
    7
  6
CONTINUOUS
  0
LAYER
  2
_0-7_枠細線
 70
   64
 62
    7
  6
CONTINUOUS
  0
LAYER
  2
_0-8_枠中線
 70
   64
 62
    7
  6
CONTINUOUS
  0
LAYER
  2
_0-a_極細1
 70
   64
 62
    7
  6
CONTINUOUS
  0
LAYER
  2
_0-b_細線1
 70
   64
 62
    7
  6
CONTINUOUS
  0
LAYER
  2
_0-d_寸法1
 70
   64
 62
    7
  6
CONTINUOUS
  0
LAYER
  2
_0-e_極細4
 70
   64
 62
    7
  6
CONTINUOUS
  0
LAYER
  2
_1-1_寸法4
 70
   64
 62
    7
  6
CONTINUOUS
  0
LAYER
  2
_1-2_極細3
 70
   64
 62
    7
  6
CONTINUOUS
  0
LAYER
  2
_1-3_細線3
 70
   64
 62
    7
  6
CONTINUOUS
  0
LAYER
  2
_1-5_寸法3
 70
   64
 62
    7
  6
CONTINUOUS
  0
LAYER
  2
ADD_LINE
 70
   64
 62
    7
  6
CONTINUOUS
  0
ENDTAB
  0
ENDSEC
  0
SECTION
  2
BLOCKS
  0
ENDSEC
  0
SECTION
  2
ENTITIES
  0
LINE
  8
_0-8_枠中線
  6
CONTINUOUS
 62
    5
 10
96
 20
96
 11
96
 21
1536
  0
LINE
  8
_0-8_枠中線
  6
CONTINUOUS
 62
    5
 10
96
 20
1536
 11
2280
 21
1536
  0
LINE
  8
_0-8_枠中線
  6
CONTINUOUS
 62
    5
 10
2280
 20
1536
 11
2280
 21
96
  0
LINE
  8
_0-8_枠中線
  6
CONTINUOUS
 62
    5
 10
2280
 20
96
 11
96
 21
96
  0
LINE
  8
_0-7_枠細線
  6
CONTINUOUS
 62
    5
 10
1896
 20
288
 11
1896
 21
160
  0
TEXT
  8
_0-7_枠細線
 62
    5
 10
1500
 20
156
 40
28
 41
1
 50
0
  1
備考
  7
TATEGAKI
  0
TEXT
  8
_0-7_枠細線
 62
    5
 10
1500
 20
220
 40
28
 41
1
 50
0
  1
品番
  7
TATEGAKI
  0
TEXT
  8
_0-7_枠細線
 62
    5
 10
1500
 20
284
 40
28
 41
1
 50
0
  1
品名
  7
TATEGAKI
  0
LINE
  8
_0-7_枠細線
  6
CONTINUOUS
 62
    5
 10
1896
 20
224
 11
1480
 21
224
  0
LINE
  8
_0-7_枠細線
  6
CONTINUOUS
 62
    5
 10
1520
 20
288
 11
1520
 21
96
  0
LINE
  8
_0-8_枠中線
  6
CONTINUOUS
 62
    5
 10
2280
 20
288
 11
1480
 21
288
  0
LINE
  8
_0-8_枠中線
  6
CONTINUOUS
 62
    5
 10
1480
 20
288
 11
1480
 21
96
  0
LINE
  8
_0-7_枠細線
  6
CONTINUOUS
 62
    5
 10
1992
 20
288
 11
1992
 21
96
  0
TEXT
  8
_0-7_枠細線
 62
    5
 10
1908
 20
256
 40
24
 41
1
 50
0
  1
縮　尺
  0
LINE
  8
_0-7_枠細線
  6
CONTINUOUS
 62
    5
 10
1896
 20
248
 11
1992
 21
248
  0
LINE
  8
_0-7_枠細線
  6
CONTINUOUS
 62
    5
 10
1992
 20
160
 11
1480
 21
160
  0
LINE
  8
_0-7_枠細線
  6
CONTINUOUS
 62
    5
 10
2280
 20
144
 11
1992
 21
144
  0
LINE
  8
_0-7_枠細線
  6
CONTINUOUS
 62
    5
 10
1992
 20
192
 11
2280
 21
192
  0
LINE
  8
_0-7_枠細線
  6
CONTINUOUS
 62
    5
 10
2280
 20
224
 11
1992
 21
224
  0
TEXT
  8
_0-7_枠細線
 62
    5
 10
2008
 20
236
 40
40
 41
0.8
 50
0
  1
株式会社シマブン
  0
TEXT
  8
_0-7_枠細線
 62
    5
 10
2004
 20
96
 40
24
 41
1
 50
0
  1
年月日
  0
TEXT
  8
_0-7_枠細線
 62
    5
 10
2004
 20
120
 40
24
 41
1
 50
0
  1
作　成
  0
TEXT
  8
_0-7_枠細線
 62
    5
 10
2010
 20
196
 40
24
 41
1
 50
0
  1
承 認
  0
LINE
  8
_0-7_枠細線
  6
CONTINUOUS
 62
    5
 10
2088
 20
224
 11
2088
 21
96
  0
TEXT
  8
_0-7_枠細線
 62
    5
 10
2106
 20
196
 40
24
 41
1
 50
0
  1
検 図
  0
LINE
  8
_0-7_枠細線
  6
CONTINUOUS
 62
    5
 10
2184
 20
224
 11
2184
 21
144
  0
TEXT
  8
_0-7_枠細線
 62
    5
 10
2202
 20
196
 40
24
 41
1
 50
0
  1
設 計
  0
TEXT
  8
_0-7_枠細線
 62
    5
 10
1910.4000000000001
 20
188
 40
32
 41
0.6999999999999998
 50
0
  1
１：８
  0
LINE
  8
_0-7_枠細線
  6
CONTINUOUS
 62
    5
 10
2280
 20
1508
 11
1424
 21
1508
  0
TEXT
  8
_0-7_枠細線
 62
    5
 10
1432
 20
1511.9999999999993
 40
20
 41
1
 50
0
  1
記号
  0
TEXT
  8
_0-7_枠細線
 62
    5
 10
1595
 20
1512
 40
20
 41
1
 50
0
  1
訂　 正　 記　 事
  0
TEXT
  8
_0-7_枠細線
 62
    5
 10
1890
 20
1512
 40
20
 41
1
 50
0
  1
訂 正 年 月 日
  0
TEXT
  8
_0-7_枠細線
 62
    5
 10
2090
 20
1512
 40
20
 41
1
 50
0
  1
備　　　　　考
  0
LINE
  8
_0-7_枠細線
  6
CONTINUOUS
 62
    5
 10
1424
 20
1508
 11
1424
 21
1535.9999999999991
  0
LINE
  8
_0-7_枠細線
  6
CONTINUOUS
 62
    5
 10
1480
 20
1508
 11
1480
 21
1535.9999999999991
  0
LINE
  8
_0-7_枠細線
  6
CONTINUOUS
 62
    5
 10
1880
 20
1508
 11
1880
 21
1536
  0
LINE
  8
_0-7_枠細線
  6
CONTINUOUS
 62
    5
 10
2040
 20
1508
 11
2040
 21
1535.9999999999991
  0
TEXT
  8
_0-7_枠細線
 62
    5
 10
2008
 20
152
 40
32
 41
1
 50
0
  1
大野
  0
TEXT
  8
_0-7_枠細線
 62
    5
 10
2104
 20
152
 40
32
 41
1
 50
0
  1
深川
  0
TEXT
  8
_0-7_枠細線
 62
    5
 10
2200
 20
152
 40
32
 41
1
 50
0
  1
久野
  0
TEXT
  8
_0-7_枠細線
 62
    5
 10
1079.06662595134
 20
114.84526555100319
 40
40
 41
0.8
 50
0
  1
断面詳細図
  0
TEXT
  8
_0-7_枠細線
 62
    5
 10
1262.9849775500097
 20
114.84526555100319
 40
32
 41
0.6
 50
0
  1
Ｓ＝１：３
  0
LINE
  8
_1-2_極細3
  6
CONTINUOUS
 62
    2
 10
990.68444079055325
 20
188.84247738216743
 11
990.68444079055325
 21
244.30914404883379
  0
LINE
  8
_1-2_極細3
  6
CONTINUOUS
 62
    2
 10
992.55110745721868
 20
190.70914404883456
 11
992.55110745721868
 21
246.17581071550092
  0
LINE
  8
_1-2_極細3
  6
CONTINUOUS
 62
    2
 10
967.21777412388565
 20
224.84247738216766
 11
967.21777412388565
 21
246.17581071550092
  0
LINE
  8
_1-2_極細3
  6
CONTINUOUS
 62
    2
 10
969.08444079055243
 20
224.84247738216732
 11
969.08444079055107
 21
244.30914404883424
  0
LINE
  8
_1-2_極細3
  6
CONTINUOUS
 62
    2
 10
967.21777412388565
 20
224.84247738216766
 11
969.08444079055243
 21
224.84247738216766
  0
LINE
  8
_1-2_極細3
  6
CONTINUOUS
 62
    2
 10
969.08444079055243
 20
244.30914404883379
 11
990.68444079055325
 21
244.30914404883379
  0
LINE
  8
_1-2_極細3
  6
CONTINUOUS
 62
    2
 10
967.21777412388565
 20
246.17581071550092
 11
992.55110745721868
 21
246.17581071550092
  0
LINE
  8
_1-2_極細3
  6
CONTINUOUS
 62
    2
 10
1325.8844407905526
 20
190.70914404883456
 11
1325.8844407905526
 21
246.17581071550092
  0
LINE
  8
_1-2_極細3
  6
CONTINUOUS
 62
    2
 10
1327.7511074572176
 20
188.84247738216743
 11
1327.7511074572176
 21
244.30914404883379
  0
LINE
  8
_1-2_極細3
  6
CONTINUOUS
 62
    2
 10
992.55110745721868
 20
190.70914404883456
 11
1325.8844407905526
 21
190.70914404883456
  0
LINE
  8
_1-2_極細3
  6
CONTINUOUS
 62
    2
 10
1327.7511074572176
 20
188.84247738216743
 11
990.68444079055325
 21
188.84247738216743
  0
LINE
  8
_1-2_極細3
  6
CONTINUOUS
 62
    2
 10
1349.3511074572184
 20
224.84247738216732
 11
1349.3511074572184
 21
244.30914404883379
  0
LINE
  8
_1-2_極細3
  6
CONTINUOUS
 62
    2
 10
1351.2177741238852
 20
224.84247738216732
 11
1351.2177741238856
 21
246.17581071550092
  0
LINE
  8
_1-2_極細3
  6
CONTINUOUS
 62
    2
 10
1349.3511074572184
 20
224.84247738216732
 11
1351.2177741238852
 21
224.84247738216732
  0
LINE
  8
_1-2_極細3
  6
CONTINUOUS
 62
    2
 10
1325.8844407905526
 20
246.17581071550092
 11
1351.2177741238856
 21
246.17581071550092
  0
LINE
  8
_1-2_極細3
  6
CONTINUOUS
 62
    2
 10
1327.7511074572176
 20
244.30914404883379
 11
1349.3511074572184
 21
244.30914404883379
  0
ARC
  8
_1-3_細線3
  6
CONTINUOUS
 62
    4
 10
1017.0844407905533
 20
264.3304831286448
 40
52.555815658248846
 50
259.17925751977776
 51
280.82074248022252
  0
ARC
  8
_1-3_細線3
  6
CONTINUOUS
 62
    4
 10
1017.0844407905533
 20
181.0878049690225
 40
52.55581565825014
 50
79.179257519777337
 51
100.82074248022219
  0
ARC
  8
_1-3_細線3
  6
CONTINUOUS
 62
    4
 10
1047.2177741238879
 20
77.329185184253902
 40
156.3144354430184
 50
83.731857045477739
 51
96.268142954523427
  0
ARC
  8
_1-3_細線3
  6
CONTINUOUS
 62
    4
 10
1047.2177741238879
 20
368.0891029134134
 40
156.3144354430184
 50
263.73185704547626
 51
276.26814295452186
  0
ARC
  8
_1-3_細線3
  6
CONTINUOUS
 62
    4
 10
1084.55110745722
 20
77.329185184253902
 40
156.3144354430184
 50
83.731857045477398
 51
96.268142954522602
  0
ARC
  8
_1-3_細線3
  6
CONTINUOUS
 62
    4
 10
1084.55110745722
 20
368.0891029134134
 40
156.3144354430184
 50
263.73185704547706
 51
276.2681429545222
  0
ARC
  8
_1-3_細線3
  6
CONTINUOUS
 62
    4
 10
1121.8844407905526
 20
77.329185184253902
 40
156.3144354430184
 50
83.731857045476744
 51
96.268142954522276
  0
ARC
  8
_1-3_細線3
  6
CONTINUOUS
 62
    4
 10
1121.8844407905526
 20
368.0891029134134
 40
156.3144354430184
 50
263.73185704547745
 51
276.26814295452289
  0
ARC
  8
_1-3_細線3
  6
CONTINUOUS
 62
    4
 10
1159.2177741238879
 20
77.329185184253902
 40
156.3144354430184
 50
83.731857045477739
 51
96.268142954523427
  0
ARC
  8
_1-3_細線3
  6
CONTINUOUS
 62
    4
 10
1159.2177741238879
 20
368.0891029134134
 40
156.3144354430184
 50
263.73185704547626
 51
276.26814295452186
  0
ARC
  8
_1-3_細線3
  6
CONTINUOUS
 62
    4
 10
1196.5511074572214
 20
77.329185184253902
 40
156.3144354430184
 50
83.731857045477909
 51
96.2681429545231
  0
ARC
  8
_1-3_細線3
  6
CONTINUOUS
 62
    4
 10
1196.5511074572214
 20
368.0891029134134
 40
156.3144354430184
 50
263.73185704547654
 51
276.26814295452169
  0
ARC
  8
_1-3_細線3
  6
CONTINUOUS
 62
    4
 10
1233.8844407905526
 20
77.329185184253902
 40
156.3144354430184
 50
83.731857045476744
 51
96.268142954522105
  0
ARC
  8
_1-3_細線3
  6
CONTINUOUS
 62
    4
 10
1233.8844407905526
 20
368.0891029134134
 40
156.3144354430184
 50
263.73185704547757
 51
276.26814295452289
  0
ARC
  8
_1-3_細線3
  6
CONTINUOUS
 62
    4
 10
1271.2177741238879
 20
77.329185184253902
 40
156.3144354430184
 50
83.731857045477909
 51
96.268142954523427
  0
ARC
  8
_1-3_細線3
  6
CONTINUOUS
 62
    4
 10
1271.2177741238879
 20
368.0891029134134
 40
156.3144354430184
 50
263.73185704547626
 51
276.26814295452169
  0
ARC
  8
_1-3_細線3
  6
CONTINUOUS
 62
    4
 10
1301.3511074572179
 20
264.3304831286448
 40
52.555815658248846
 50
259.17925751977731
 51
280.82074248022201
  0
ARC
  8
_1-3_細線3
  6
CONTINUOUS
 62
    4
 10
1301.3511074572179
 20
181.0878049690225
 40
52.55581565825014
 50
79.179257519777821
 51
100.82074248022219
  0
LINE
  8
_1-3_細線3
  6
CONTINUOUS
 62
    4
 10
1321.8844407905526
 20
244.04247738216668
 11
1321.8844407905526
 21
190.70914404883456
  0
LINE
  8
_1-3_細線3
  6
CONTINUOUS
 62
    4
 10
1321.8844407905526
 20
190.70914404883456
 11
1311.2177741238856
 21
190.70914404883456
  0
LINE
  8
_1-3_細線3
  6
CONTINUOUS
 62
    4
 10
1311.2177741238856
 20
190.70914404883456
 11
1311.2177741238856
 21
244.04247738216668
  0
LINE
  8
_1-3_細線3
  6
CONTINUOUS
 62
    4
 10
1311.2177741238856
 20
244.04247738216668
 11
1321.8844407905526
 21
244.04247738216668
  0
LINE
  8
_1-3_細線3
  6
CONTINUOUS
 62
    4
 10
996.55110745721868
 20
244.04247738216668
 11
996.55110745721868
 21
190.70914404883456
  0
LINE
  8
_1-3_細線3
  6
CONTINUOUS
 62
    4
 10
996.55110745721868
 20
190.70914404883456
 11
1007.2177741238856
 21
190.70914404883456
  0
LINE
  8
_1-3_細線3
  6
CONTINUOUS
 62
    4
 10
1007.2177741238856
 20
190.70914404883456
 11
1007.2177741238856
 21
244.04247738216668
  0
LINE
  8
_1-3_細線3
  6
CONTINUOUS
 62
    4
 10
1007.2177741238856
 20
244.04247738216668
 11
996.55110745721868
 21
244.04247738216668
  0
LINE
  8
_1-3_細線3
  6
CONTINUOUS
 62
    4
 10
1300.5511074572187
 20
244.04247738216668
 11
1279.2177741238856
 21
244.04247738216668
  0
LINE
  8
_1-3_細線3
  6
CONTINUOUS
 62
    4
 10
1279.2177741238856
 20
244.04247738216668
 11
1279.2177741238856
 21
240.84247738216686
  0
LINE
  8
_1-3_細線3
  6
CONTINUOUS
 62
    4
 10
1279.2177741238856
 20
240.84247738216686
 11
1288.2844407905536
 21
240.84247738216686
  0
LINE
  8
_1-3_細線3
  6
CONTINUOUS
 62
    4
 10
1288.2844407905536
 20
240.84247738216686
 11
1288.2844407905536
 21
204.04247738216668
  0
LINE
  8
_1-3_細線3
  6
CONTINUOUS
 62
    4
 10
1288.2844407905536
 20
204.04247738216668
 11
1291.484440790553
 21
204.04247738216668
  0
LINE
  8
_1-3_細線3
  6
CONTINUOUS
 62
    4
 10
1291.484440790553
 20
204.04247738216668
 11
1291.484440790553
 21
240.84247738216686
  0
LINE
  8
_1-3_細線3
  6
CONTINUOUS
 62
    4
 10
1291.484440790553
 20
240.84247738216686
 11
1300.5511074572187
 21
240.84247738216686
  0
LINE
  8
_1-3_細線3
  6
CONTINUOUS
 62
    4
 10
1300.5511074572187
 20
240.84247738216686
 11
1300.5511074572187
 21
244.04247738216668
  0
LINE
  8
_1-3_細線3
  6
CONTINUOUS
 62
    4
 10
1263.2177741238879
 20
244.04247738216668
 11
1241.8844407905526
 21
244.04247738216668
  0
LINE
  8
_1-3_細線3
  6
CONTINUOUS
 62
    4
 10
1241.8844407905526
 20
244.04247738216668
 11
1241.8844407905526
 21
240.84247738216686
  0
LINE
  8
_1-3_細線3
  6
CONTINUOUS
 62
    4
 10
1241.8844407905526
 20
240.84247738216686
 11
1250.9511074572201
 21
240.84247738216686
  0
LINE
  8
_1-3_細線3
  6
CONTINUOUS
 62
    4
 10
1250.9511074572201
 20
240.84247738216686
 11
1250.9511074572201
 21
204.04247738216668
  0
LINE
  8
_1-3_細線3
  6
CONTINUOUS
 62
    4
 10
1250.9511074572201
 20
204.04247738216668
 11
1254.1511074572186
 21
204.04247738216668
  0
LINE
  8
_1-3_細線3
  6
CONTINUOUS
 62
    4
 10
1254.1511074572186
 20
204.04247738216668
 11
1254.1511074572186
 21
240.84247738216686
  0
LINE
  8
_1-3_細線3
  6
CONTINUOUS
 62
    4
 10
1254.1511074572186
 20
240.84247738216686
 11
1263.2177741238879
 21
240.84247738216686
  0
LINE
  8
_1-3_細線3
  6
CONTINUOUS
 62
    4
 10
1263.2177741238879
 20
240.84247738216686
 11
1263.2177741238879
 21
244.04247738216668
  0
LINE
  8
_1-3_細線3
  6
CONTINUOUS
 62
    4
 10
1225.8844407905544
 20
244.04247738216668
 11
1204.5511074572214
 21
244.04247738216668
  0
LINE
  8
_1-3_細線3
  6
CONTINUOUS
 62
    4
 10
1204.5511074572214
 20
244.04247738216668
 11
1204.5511074572214
 21
240.84247738216686
  0
LINE
  8
_1-3_細線3
  6
CONTINUOUS
 62
    4
 10
1204.5511074572214
 20
240.84247738216686
 11
1213.6177741238871
 21
240.84247738216686
  0
LINE
  8
_1-3_細線3
  6
CONTINUOUS
 62
    4
 10
1213.6177741238871
 20
240.84247738216686
 11
1213.6177741238871
 21
204.04247738216668
  0
LINE
  8
_1-3_細線3
  6
CONTINUOUS
 62
    4
 10
1213.6177741238871
 20
204.04247738216668
 11
1216.8177741238869
 21
204.04247738216668
  0
LINE
  8
_1-3_細線3
  6
CONTINUOUS
 62
    4
 10
1216.8177741238869
 20
204.04247738216668
 11
1216.8177741238869
 21
240.84247738216686
  0
LINE
  8
_1-3_細線3
  6
CONTINUOUS
 62
    4
 10
1216.8177741238869
 20
240.84247738216686
 11
1225.8844407905544
 21
240.84247738216686
  0
LINE
  8
_1-3_細線3
  6
CONTINUOUS
 62
    4
 10
1225.8844407905544
 20
240.84247738216686
 11
1225.8844407905544
 21
244.04247738216668
  0
LINE
  8
_1-3_細線3
  6
CONTINUOUS
 62
    4
 10
1188.5511074572214
 20
244.04247738216668
 11
1167.2177741238879
 21
244.04247738216668
  0
LINE
  8
_1-3_細線3
  6
CONTINUOUS
 62
    4
 10
1167.2177741238879
 20
244.04247738216668
 11
1167.2177741238879
 21
240.84247738216686
  0
LINE
  8
_1-3_細線3
  6
CONTINUOUS
 62
    4
 10
1167.2177741238879
 20
240.84247738216686
 11
1176.2844407905541
 21
240.84247738216686
  0
LINE
  8
_1-3_細線3
  6
CONTINUOUS
 62
    4
 10
1176.2844407905541
 20
240.84247738216686
 11
1176.2844407905541
 21
204.04247738216668
  0
LINE
  8
_1-3_細線3
  6
CONTINUOUS
 62
    4
 10
1176.2844407905541
 20
204.04247738216668
 11
1179.4844407905543
 21
204.04247738216668
  0
LINE
  8
_1-3_細線3
  6
CONTINUOUS
 62
    4
 10
1179.4844407905543
 20
204.04247738216668
 11
1179.4844407905543
 21
240.84247738216686
  0
LINE
  8
_1-3_細線3
  6
CONTINUOUS
 62
    4
 10
1179.4844407905543
 20
240.84247738216686
 11
1188.5511074572214
 21
240.84247738216686
  0
LINE
  8
_1-3_細線3
  6
CONTINUOUS
 62
    4
 10
1188.5511074572214
 20
240.84247738216686
 11
1188.5511074572214
 21
244.04247738216668
  0
LINE
  8
_1-3_細線3
  6
CONTINUOUS
 62
    4
 10
1151.2177741238879
 20
244.04247738216668
 11
1129.8844407905526
 21
244.04247738216668
  0
LINE
  8
_1-3_細線3
  6
CONTINUOUS
 62
    4
 10
1129.8844407905526
 20
244.04247738216668
 11
1129.8844407905526
 21
240.84247738216686
  0
LINE
  8
_1-3_細線3
  6
CONTINUOUS
 62
    4
 10
1129.8844407905526
 20
240.84247738216686
 11
1138.9511074572215
 21
240.84247738216686
  0
LINE
  8
_1-3_細線3
  6
CONTINUOUS
 62
    4
 10
1138.9511074572215
 20
240.84247738216686
 11
1138.9511074572215
 21
204.04247738216668
  0
LINE
  8
_1-3_細線3
  6
CONTINUOUS
 62
    4
 10
1138.9511074572215
 20
204.04247738216668
 11
1142.1511074572222
 21
204.04247738216668
  0
LINE
  8
_1-3_細線3
  6
CONTINUOUS
 62
    4
 10
1142.1511074572222
 20
204.04247738216668
 11
1142.1511074572222
 21
240.84247738216686
  0
LINE
  8
_1-3_細線3
  6
CONTINUOUS
 62
    4
 10
1142.1511074572222
 20
240.84247738216686
 11
1151.2177741238879
 21
240.84247738216686
  0
LINE
  8
_1-3_細線3
  6
CONTINUOUS
 62
    4
 10
1151.2177741238879
 20
240.84247738216686
 11
1151.2177741238879
 21
244.04247738216668
  0
LINE
  8
_1-3_細線3
  6
CONTINUOUS
 62
    4
 10
1113.8844407905526
 20
244.04247738216668
 11
1092.55110745722
 21
244.04247738216668
  0
LINE
  8
_1-3_細線3
  6
CONTINUOUS
 62
    4
 10
1092.55110745722
 20
244.04247738216668
 11
1092.55110745722
 21
240.84247738216686
  0
LINE
  8
_1-3_細線3
  6
CONTINUOUS
 62
    4
 10
1092.55110745722
 20
240.84247738216686
 11
1101.6177741238871
 21
240.84247738216686
  0
LINE
  8
_1-3_細線3
  6
CONTINUOUS
 62
    4
 10
1101.6177741238871
 20
240.84247738216686
 11
1101.6177741238871
 21
204.04247738216668
  0
LINE
  8
_1-3_細線3
  6
CONTINUOUS
 62
    4
 10
1101.6177741238871
 20
204.04247738216668
 11
1104.8177741238869
 21
204.04247738216668
  0
LINE
  8
_1-3_細線3
  6
CONTINUOUS
 62
    4
 10
1104.8177741238869
 20
204.04247738216668
 11
1104.8177741238869
 21
240.84247738216686
  0
LINE
  8
_1-3_細線3
  6
CONTINUOUS
 62
    4
 10
1104.8177741238869
 20
240.84247738216686
 11
1113.8844407905526
 21
240.84247738216686
  0
LINE
  8
_1-3_細線3
  6
CONTINUOUS
 62
    4
 10
1113.8844407905526
 20
240.84247738216686
 11
1113.8844407905526
 21
244.04247738216668
  0
LINE
  8
_1-3_細線3
  6
CONTINUOUS
 62
    4
 10
1076.55110745722
 20
244.04247738216668
 11
1055.2177741238879
 21
244.04247738216668
  0
LINE
  8
_1-3_細線3
  6
CONTINUOUS
 62
    4
 10
1055.2177741238879
 20
244.04247738216668
 11
1055.2177741238879
 21
240.84247738216686
  0
LINE
  8
_1-3_細線3
  6
CONTINUOUS
 62
    4
 10
1055.2177741238879
 20
240.84247738216686
 11
1064.2844407905536
 21
240.84247738216686
  0
LINE
  8
_1-3_細線3
  6
CONTINUOUS
 62
    4
 10
1064.2844407905536
 20
240.84247738216686
 11
1064.2844407905536
 21
204.04247738216668
  0
LINE
  8
_1-3_細線3
  6
CONTINUOUS
 62
    4
 10
1064.2844407905536
 20
204.04247738216668
 11
1067.484440790553
 21
204.04247738216668
  0
LINE
  8
_1-3_細線3
  6
CONTINUOUS
 62
    4
 10
1067.484440790553
 20
204.04247738216668
 11
1067.484440790553
 21
240.84247738216686
  0
LINE
  8
_1-3_細線3
  6
CONTINUOUS
 62
    4
 10
1067.484440790553
 20
240.84247738216686
 11
1076.55110745722
 21
240.84247738216686
  0
LINE
  8
_1-3_細線3
  6
CONTINUOUS
 62
    4
 10
1076.55110745722
 20
240.84247738216686
 11
1076.55110745722
 21
244.04247738216668
  0
LINE
  8
_1-3_細線3
  6
CONTINUOUS
 62
    4
 10
1039.2177741238879
 20
244.04247738216668
 11
1017.8844407905526
 21
244.04247738216668
  0
LINE
  8
_1-3_細線3
  6
CONTINUOUS
 62
    4
 10
1017.8844407905526
 20
244.04247738216668
 11
1017.8844407905526
 21
240.84247738216686
  0
LINE
  8
_1-3_細線3
  6
CONTINUOUS
 62
    4
 10
1017.8844407905526
 20
240.84247738216686
 11
1026.9511074572215
 21
240.84247738216686
  0
LINE
  8
_1-3_細線3
  6
CONTINUOUS
 62
    4
 10
1026.9511074572215
 20
240.84247738216686
 11
1026.9511074572215
 21
204.04247738216668
  0
LINE
  8
_1-3_細線3
  6
CONTINUOUS
 62
    4
 10
1026.9511074572215
 20
204.04247738216668
 11
1030.1511074572222
 21
204.04247738216668
  0
LINE
  8
_1-3_細線3
  6
CONTINUOUS
 62
    4
 10
1030.1511074572222
 20
204.04247738216668
 11
1030.1511074572222
 21
240.84247738216686
  0
LINE
  8
_1-3_細線3
  6
CONTINUOUS
 62
    4
 10
1030.1511074572222
 20
240.84247738216686
 11
1039.2177741238879
 21
240.84247738216686
  0
LINE
  8
_1-3_細線3
  6
CONTINUOUS
 62
    4
 10
1039.2177741238879
 20
240.84247738216686
 11
1039.2177741238879
 21
244.04247738216668
  0
LINE
  8
_1-2_極細3
  6
CENTER1
 62
    2
 10
1159.2177741238856
 20
178.14515020544764
 11
1159.2177741238856
 21
266.33181687212414
  0
LINE
  8
_1-2_極細3
  6
CENTER1
 62
    2
 10
1330.2405731978047
 20
222.70914404883456
 11
986.95735598717511
 21
222.70914404883456
  0
LINE
  8
_1-5_寸法3
  6
CONTINUOUS
 62
    7
 10
967.21777412388565
 20
262.17581071550092
 11
967.21777412388565
 21
446.17581071550092
  0
LINE
  8
_1-5_寸法3
  6
CONTINUOUS
 62
    7
 10
967.21777412388565
 20
438.17581071550092
 11
982.6725873445107
 21
442.31691543714123
  0
LINE
  8
_1-5_寸法3
  6
CONTINUOUS
 62
    7
 10
967.21777412388565
 20
438.17581071550092
 11
982.6725873445107
 21
434.0347059938606
  0
LINE
  8
_1-5_寸法3
  6
CONTINUOUS
 62
    7
 10
1351.2177741238856
 20
262.17581071550092
 11
1351.2177741238863
 21
446.17581071550092
  0
LINE
  8
_1-5_寸法3
  6
CONTINUOUS
 62
    7
 10
1351.2177741238863
 20
438.17581071550092
 11
1335.7629609032613
 21
434.03470599386065
  0
LINE
  8
_1-5_寸法3
  6
CONTINUOUS
 62
    7
 10
1351.2177741238863
 20
438.17581071550092
 11
1335.7629609032613
 21
442.31691543714129
  0
LINE
  8
_1-5_寸法3
  6
CONTINUOUS
 62
    7
 10
967.21777412388565
 20
438.17581071550092
 11
1351.2177741238863
 21
438.17581071550092
  0
TEXT
  8
_1-5_寸法3
 62
    7
 10
1141.2177741238861
 20
438.17581071550092
 40
24
 41
1
 50
0
  1
144
  0
LINE
  8
_1-5_寸法3
  6
CONTINUOUS
 62
    7
 10
996.55110745721879
 20
262.17581071550092
 11
996.55110745721936
 21
390.17581071550092
  0
LINE
  8
_1-5_寸法3
  6
CONTINUOUS
 62
    7
 10
996.55110745721936
 20
382.17581071550092
 11
1012.0059206778444
 21
386.31691543714123
  0
LINE
  8
_1-5_寸法3
  6
CONTINUOUS
 62
    7
 10
996.55110745721936
 20
382.17581071550092
 11
1012.0059206778444
 21
378.0347059938606
  0
LINE
  8
_1-5_寸法3
  6
CONTINUOUS
 62
    7
 10
1321.8844407905526
 20
262.17581071550092
 11
1321.8844407905526
 21
390.17581071550092
  0
LINE
  8
_1-5_寸法3
  6
CONTINUOUS
 62
    7
 10
1321.8844407905526
 20
382.17581071550092
 11
1306.4296275699276
 21
378.03470599386065
  0
LINE
  8
_1-5_寸法3
  6
CONTINUOUS
 62
    7
 10
1321.8844407905526
 20
382.17581071550092
 11
1306.4296275699276
 21
386.31691543714129
  0
LINE
  8
_1-5_寸法3
  6
CONTINUOUS
 62
    7
 10
996.55110745721936
 20
382.17581071550092
 11
1321.8844407905526
 21
382.17581071550092
  0
TEXT
  8
_1-5_寸法3
 62
    7
 10
1141.2177741238859
 20
382.17581071550092
 40
24
 41
1
 50
0
  1
122
  0
LINE
  8
_1-5_寸法3
  6
CONTINUOUS
 62
    7
 10
1325.8844407905526
 20
262.17581071550092
 11
1325.8844407905528
 21
390.17581071550092
  0
LINE
  8
_1-5_寸法3
  6
CONTINUOUS
 62
    7
 10
1325.8844407905528
 20
382.17581071550092
 11
1341.3392540111779
 21
386.31691543714123
  0
LINE
  8
_1-5_寸法3
  6
CONTINUOUS
 62
    7
 10
1325.8844407905528
 20
382.17581071550092
 11
1341.3392540111779
 21
378.0347059938606
  0
LINE
  8
_1-5_寸法3
  6
CONTINUOUS
 62
    7
 10
1351.2177741238856
 20
262.17581071550092
 11
1351.2177741238859
 21
390.17581071550092
  0
LINE
  8
_1-5_寸法3
  6
CONTINUOUS
 62
    7
 10
1351.2177741238859
 20
382.17581071550092
 11
1335.7629609032608
 21
378.03470599386065
  0
LINE
  8
_1-5_寸法3
  6
CONTINUOUS
 62
    7
 10
1351.2177741238859
 20
382.17581071550092
 11
1335.7629609032608
 21
386.31691543714129
  0
LINE
  8
_1-5_寸法3
  6
CONTINUOUS
 62
    7
 10
1325.8844407905528
 20
382.17581071550092
 11
1351.2177741238859
 21
382.17581071550092
  0
TEXT
  8
_1-5_寸法3
 62
    7
 10
1314.9098928411368
 20
382.17581071550092
 40
24
 41
1
 50
0
  1
9.5
  0
LINE
  8
_1-5_寸法3
  6
CONTINUOUS
 62
    7
 10
967.21777412388565
 20
262.17581071550092
 11
967.21777412388587
 21
390.17581071550092
  0
LINE
  8
_1-5_寸法3
  6
CONTINUOUS
 62
    7
 10
967.21777412388587
 20
382.17581071550092
 11
982.67258734451093
 21
386.31691543714123
  0
LINE
  8
_1-5_寸法3
  6
CONTINUOUS
 62
    7
 10
967.21777412388587
 20
382.17581071550092
 11
982.67258734451093
 21
378.0347059938606
  0
LINE
  8
_1-5_寸法3
  6
CONTINUOUS
 62
    7
 10
992.55110745721868
 20
262.17581071550092
 11
992.5511074572189
 21
390.17581071550092
  0
LINE
  8
_1-5_寸法3
  6
CONTINUOUS
 62
    7
 10
992.5511074572189
 20
382.17581071550092
 11
977.09629423659385
 21
378.03470599386065
  0
LINE
  8
_1-5_寸法3
  6
CONTINUOUS
 62
    7
 10
992.5511074572189
 20
382.17581071550092
 11
977.09629423659385
 21
386.31691543714129
  0
LINE
  8
_1-5_寸法3
  6
CONTINUOUS
 62
    7
 10
967.21777412388587
 20
382.17581071550092
 11
992.5511074572189
 21
382.17581071550092
  0
TEXT
  8
_1-5_寸法3
 62
    7
 10
968.36383082752889
 20
382.1758107155008
 40
24
 41
1
 50
0
  1
9.5
  0
LINE
  8
_1-5_寸法3
  6
CONTINUOUS
 62
    7
 10
1113.8844407905528
 20
260.04247738216668
 11
1113.8844407905533
 21
334.17581071550092
  0
LINE
  8
_1-5_寸法3
  6
CONTINUOUS
 62
    7
 10
1113.8844407905533
 20
326.17581071550092
 11
1098.4296275699282
 21
322.0347059938606
  0
LINE
  8
_1-5_寸法3
  6
CONTINUOUS
 62
    7
 10
1113.8844407905533
 20
326.17581071550092
 11
1098.4296275699282
 21
330.31691543714129
  0
LINE
  8
_1-5_寸法3
  6
CONTINUOUS
 62
    7
 10
1129.8844407905528
 20
260.04247738216668
 11
1129.8844407905533
 21
334.17581071550092
  0
LINE
  8
_1-5_寸法3
  6
CONTINUOUS
 62
    7
 10
1073.8844407905533
 20
326.17581071550092
 11
1129.8844407905533
 21
326.17581071550092
  0
TEXT
  8
_1-5_寸法3
 62
    7
 10
1084.4516783534557
 20
326.17581071550092
 40
24
 41
1
 50
0
  1
6
  0
LINE
  8
_1-5_寸法3
  6
CONTINUOUS
 62
    7
 10
1129.8844407905533
 20
326.17581071550092
 11
1145.3392540111784
 21
330.31691543714112
  0
LINE
  8
_1-5_寸法3
  6
CONTINUOUS
 62
    7
 10
1129.8844407905533
 20
326.17581071550092
 11
1145.3392540111784
 21
322.03470599386048
  0
LINE
  8
_1-5_寸法3
  6
CONTINUOUS
 62
    7
 10
1151.2177741238879
 20
260.04247738216668
 11
1151.2177741238879
 21
334.17581071550092
  0
LINE
  8
_1-5_寸法3
  6
CONTINUOUS
 62
    7
 10
1151.2177741238879
 20
326.17581071550092
 11
1135.7629609032629
 21
322.0347059938606
  0
LINE
  8
_1-5_寸法3
  6
CONTINUOUS
 62
    7
 10
1151.2177741238879
 20
326.17581071550092
 11
1135.7629609032629
 21
330.31691543714129
  0
LINE
  8
_1-5_寸法3
  6
CONTINUOUS
 62
    7
 10
1129.8844407905533
 20
326.17581071550092
 11
1151.2177741238879
 21
326.17581071550092
  0
TEXT
  8
_1-5_寸法3
 62
    7
 10
1134.5511074572207
 20
326.17581071550092
 40
24
 41
1
 50
0
  1
8
  0
LINE
  8
_1-5_寸法3
  6
CONTINUOUS
 62
    7
 10
1367.2177741238856
 20
246.17581071550069
 11
1439.2177741238854
 21
246.17581071550001
  0
LINE
  8
_1-5_寸法3
  6
CONTINUOUS
 62
    7
 10
1431.2177741238854
 20
246.17581071550012
 11
1435.3588788455259
 21
230.72099749487495
  0
LINE
  8
_1-5_寸法3
  6
CONTINUOUS
 62
    7
 10
1431.2177741238854
 20
246.17581071550012
 11
1427.0766694022452
 21
230.72099749487495
  0
LINE
  8
_1-5_寸法3
  6
CONTINUOUS
 62
    7
 10
1367.2177741238856
 20
224.84247738216709
 11
1439.2177741238854
 21
224.84247738216641
  0
LINE
  8
_1-5_寸法3
  6
CONTINUOUS
 62
    7
 10
1431.2177741238854
 20
224.84247738216641
 11
1427.0766694022452
 21
240.29729060279158
  0
LINE
  8
_1-5_寸法3
  6
CONTINUOUS
 62
    7
 10
1431.2177741238854
 20
224.84247738216641
 11
1435.3588788455259
 21
240.29729060279146
  0
LINE
  8
_1-5_寸法3
  6
CONTINUOUS
 62
    7
 10
1431.2177741238854
 20
246.17581071550012
 11
1431.2177741238854
 21
224.84247738216641
  0
TEXT
  8
_1-5_寸法3
 62
    7
 10
1431.2177741238854
 20
229.50914404883326
 40
24
 41
1
 50
90
  1
8
  0
LINE
  8
_1-5_寸法3
  6
CONTINUOUS
 62
    7
 10
951.21777412388565
 20
246.17581071550092
 11
879.21777412388565
 21
246.17581071550126
  0
LINE
  8
_1-5_寸法3
  6
CONTINUOUS
 62
    7
 10
887.21777412388565
 20
246.17581071550114
 11
891.35887884552596
 21
230.72099749487609
  0
LINE
  8
_1-5_寸法3
  6
CONTINUOUS
 62
    7
 10
887.21777412388565
 20
246.17581071550114
 11
883.07666940224533
 21
230.72099749487609
  0
LINE
  8
_1-5_寸法3
  6
CONTINUOUS
 62
    7
 10
974.68444079055325
 20
188.84247738216754
 11
879.21777412388565
 21
188.84247738216777
  0
LINE
  8
_1-5_寸法3
  6
CONTINUOUS
 62
    7
 10
887.21777412388565
 20
188.84247738216777
 11
883.07666940224533
 21
204.29729060279283
  0
LINE
  8
_1-5_寸法3
  6
CONTINUOUS
 62
    7
 10
887.21777412388565
 20
188.84247738216777
 11
891.35887884552596
 21
204.29729060279294
  0
LINE
  8
_1-5_寸法3
  6
CONTINUOUS
 62
    7
 10
887.21777412388565
 20
246.17581071550114
 11
887.21777412388565
 21
188.84247738216777
  0
TEXT
  8
_1-5_寸法3
 62
    7
 10
887.21777412388565
 20
193.50914404883451
 40
24
 41
1
 50
90
  1
21.5
  0
LINE
  8
_0-1_計細線
  6
CONTINUOUS
 62
    3
 10
1405.9792205215026
 20
1086.3642826045293
 11
1405.9792205215026
 21
1211.3642826045293
  0
LINE
  8
_0-1_計細線
  6
CONTINUOUS
 62
    3
 10
819.47922052150307
 20
1076.8642826045293
 11
819.47922052150307
 21
1220.8642826045293
  0
LINE
  8
_0-1_計細線
  6
CONTINUOUS
 62
    3
 10
819.47922052150307
 20
1220.8642826045293
 11
1415.4792205215026
 21
1220.8642826045293
  0
LINE
  8
_0-1_計細線
  6
CONTINUOUS
 62
    3
 10
1415.4792205215026
 20
1220.8642826045293
 11
1415.4792205215026
 21
1076.8642826045293
  0
LINE
  8
_0-1_計細線
  6
CONTINUOUS
 62
    3
 10
1415.4792205215026
 20
1076.8642826045293
 11
819.47922052150307
 21
1076.8642826045293
  0
LINE
  8
_0-1_計細線
  6
CONTINUOUS
 62
    3
 10
1405.9792205215026
 20
1211.3642826045293
 11
828.97922052150307
 21
1211.3642826045293
  0
LINE
  8
_0-1_計細線
  6
CONTINUOUS
 62
    3
 10
828.97922052150307
 20
1086.3642826045293
 11
1405.9792205215026
 21
1086.3642826045293
  0
LINE
  8
_0-1_計細線
  6
CONTINUOUS
 62
    3
 10
828.97922052150307
 20
1211.3642826045293
 11
828.97922052150307
 21
1086.3642826045293
  0
LINE
  8
_0-1_計細線
  6
CONTINUOUS
 62
    3
 10
1116.9792205215031
 20
1209.8642826045293
 11
1113.9792205215031
 21
1209.8642826045293
  0
LINE
  8
_0-1_計細線
  6
CONTINUOUS
 62
    3
 10
1113.9792205215031
 20
1209.8642826045293
 11
1113.9792205215031
 21
1087.8642826045293
  0
LINE
  8
_0-1_計細線
  6
CONTINUOUS
 62
    3
 10
1113.9792205215031
 20
1087.8642826045293
 11
1116.9792205215031
 21
1087.8642826045293
  0
LINE
  8
_0-1_計細線
  6
CONTINUOUS
 62
    3
 10
1116.9792205215031
 20
1087.8642826045293
 11
1116.9792205215031
 21
1209.8642826045293
  0
LINE
  8
_0-1_計細線
  6
CONTINUOUS
 62
    3
 10
1120.9792205215031
 20
1209.8642826045293
 11
1117.9792205215031
 21
1209.8642826045293
  0
LINE
  8
_0-1_計細線
  6
CONTINUOUS
 62
    3
 10
1117.9792205215031
 20
1209.8642826045293
 11
1117.9792205215031
 21
1087.8642826045293
  0
LINE
  8
_0-1_計細線
  6
CONTINUOUS
 62
    3
 10
1117.9792205215031
 20
1087.8642826045293
 11
1120.9792205215031
 21
1087.8642826045293
  0
LINE
  8
_0-1_計細線
  6
CONTINUOUS
 62
    3
 10
1120.9792205215031
 20
1087.8642826045293
 11
1120.9792205215031
 21
1209.8642826045293
  0
LINE
  8
_0-5_寸法線
  6
CONTINUOUS
 62
    7
 10
1415.4792205215026
 20
1236.8642826045293
 11
1415.4792205215035
 21
1476.8642826045293
  0
LINE
  8
_0-5_寸法線
  6
CONTINUOUS
 62
    7
 10
1415.4792205215035
 20
1468.8642826045293
 11
1400.0244073008785
 21
1464.7231778828891
  0
LINE
  8
_0-5_寸法線
  6
CONTINUOUS
 62
    7
 10
1415.4792205215035
 20
1468.8642826045293
 11
1400.0244073008785
 21
1473.0053873261697
  0
LINE
  8
_0-5_寸法線
  6
CONTINUOUS
 62
    7
 10
819.47922052150307
 20
1236.8642826045293
 11
819.47922052150352
 21
1476.8642826045293
  0
LINE
  8
_0-5_寸法線
  6
CONTINUOUS
 62
    7
 10
819.47922052150352
 20
1468.8642826045293
 11
834.93403374212858
 21
1473.0053873261697
  0
LINE
  8
_0-5_寸法線
  6
CONTINUOUS
 62
    7
 10
819.47922052150352
 20
1468.8642826045293
 11
834.93403374212858
 21
1464.7231778828889
  0
LINE
  8
_0-5_寸法線
  6
CONTINUOUS
 62
    7
 10
1415.4792205215035
 20
1468.8642826045293
 11
819.47922052150352
 21
1468.8642826045293
  0
TEXT
  8
_0-5_寸法線
 62
    7
 10
1099.4792205215035
 20
1468.8642826045293
 40
24
 41
1
 50
0
  1
596
  0
LINE
  8
_0-5_寸法線
  6
CONTINUOUS
 62
    7
 10
819.47922052150307
 20
1236.8642826045293
 11
819.47922052150307
 21
1420.8642826045293
  0
LINE
  8
_0-5_寸法線
  6
CONTINUOUS
 62
    7
 10
819.47922052150307
 20
1412.8642826045293
 11
804.02440730087801
 21
1408.7231778828891
  0
LINE
  8
_0-5_寸法線
  6
CONTINUOUS
 62
    7
 10
819.47922052150307
 20
1412.8642826045293
 11
804.02440730087801
 21
1417.0053873261697
  0
LINE
  8
_0-5_寸法線
  6
CONTINUOUS
 62
    7
 10
828.97922052150307
 20
1236.8642826045293
 11
828.97922052150307
 21
1420.8642826045293
  0
LINE
  8
_0-5_寸法線
  6
CONTINUOUS
 62
    7
 10
764.32674568721541
 20
1412.8642826045293
 11
828.97922052150307
 21
1412.8642826045293
  0
TEXT
  8
_0-5_寸法線
 62
    7
 10
764.32674568721541
 20
1412.8642826045293
 40
24
 41
1
 50
0
  1
9.5
  0
LINE
  8
_0-5_寸法線
  6
CONTINUOUS
 62
    7
 10
828.97922052150307
 20
1412.8642826045293
 11
844.43403374212824
 21
1417.0053873261695
  0
LINE
  8
_0-5_寸法線
  6
CONTINUOUS
 62
    7
 10
828.97922052150307
 20
1412.8642826045293
 11
844.43403374212812
 21
1408.7231778828889
  0
LINE
  8
_0-5_寸法線
  6
CONTINUOUS
 62
    7
 10
1405.9792205215026
 20
1236.8642826045293
 11
1405.9792205215035
 21
1420.8642826045293
  0
LINE
  8
_0-5_寸法線
  6
CONTINUOUS
 62
    7
 10
1405.9792205215035
 20
1412.8642826045293
 11
1390.5244073008785
 21
1408.7231778828891
  0
LINE
  8
_0-5_寸法線
  6
CONTINUOUS
 62
    7
 10
1405.9792205215035
 20
1412.8642826045293
 11
1390.5244073008785
 21
1417.0053873261697
  0
LINE
  8
_0-5_寸法線
  6
CONTINUOUS
 62
    7
 10
828.97922052150307
 20
1412.8642826045293
 11
1405.9792205215035
 21
1412.8642826045293
  0
TEXT
  8
_0-5_寸法線
 62
    7
 10
1099.4792205215031
 20
1412.8642826045293
 40
24
 41
1
 50
0
  1
577
  0
LINE
  8
_0-5_寸法線
  6
CONTINUOUS
 62
    7
 10
1415.4792205215026
 20
1236.8642826045293
 11
1415.4792205215035
 21
1420.8642826045293
  0
LINE
  8
_0-5_寸法線
  6
CONTINUOUS
 62
    7
 10
1415.4792205215035
 20
1412.8642826045293
 11
1430.9340337421286
 21
1417.0053873261695
  0
LINE
  8
_0-5_寸法線
  6
CONTINUOUS
 62
    7
 10
1415.4792205215035
 20
1412.8642826045293
 11
1430.9340337421286
 21
1408.7231778828889
  0
LINE
  8
_0-5_寸法線
  6
CONTINUOUS
 62
    7
 10
1405.9792205215035
 20
1412.8642826045293
 11
1466.6401493732601
 21
1412.8642826045293
  0
TEXT
  8
_0-5_寸法線
 62
    7
 10
1430.6401493732601
 20
1412.8642826045293
 40
24
 41
1
 50
0
  1
9.5
  0
LINE
  8
_0-5_寸法線
  6
CONTINUOUS
 62
    7
 10
803.47922052150307
 20
1076.8642826045293
 11
675.47922052150307
 21
1076.8642826045298
  0
LINE
  8
_0-5_寸法線
  6
CONTINUOUS
 62
    7
 10
683.47922052150307
 20
1076.8642826045298
 11
679.33811579986275
 21
1092.3190958251548
  0
LINE
  8
_0-5_寸法線
  6
CONTINUOUS
 62
    7
 10
683.47922052150307
 20
1076.8642826045298
 11
687.62032524314338
 21
1092.3190958251548
  0
LINE
  8
_0-5_寸法線
  6
CONTINUOUS
 62
    7
 10
803.47922052150307
 20
1220.8642826045293
 11
675.47922052150307
 21
1220.8642826045298
  0
LINE
  8
_0-5_寸法線
  6
CONTINUOUS
 62
    7
 10
683.47922052150307
 20
1220.8642826045298
 11
687.62032524314338
 21
1205.4094693839047
  0
LINE
  8
_0-5_寸法線
  6
CONTINUOUS
 62
    7
 10
683.47922052150307
 20
1220.8642826045298
 11
679.33811579986275
 21
1205.4094693839047
  0
LINE
  8
_0-5_寸法線
  6
CONTINUOUS
 62
    7
 10
683.47922052150307
 20
1076.8642826045298
 11
683.47922052150307
 21
1220.8642826045298
  0
TEXT
  8
_0-5_寸法線
 62
    7
 10
683.47922052150307
 20
1130.8642826045295
 40
24
 41
1
 50
90
  1
144
  0
LINE
  8
_0-5_寸法線
  6
CONTINUOUS
 62
    7
 10
803.47922052150307
 20
1220.8642826045293
 11
731.47922052150261
 21
1220.8642826045293
  0
LINE
  8
_0-5_寸法線
  6
CONTINUOUS
 62
    7
 10
739.47922052150261
 20
1220.8642826045293
 11
735.33811579986229
 21
1236.3190958251544
  0
LINE
  8
_0-5_寸法線
  6
CONTINUOUS
 62
    7
 10
739.47922052150261
 20
1220.8642826045293
 11
743.62032524314293
 21
1236.3190958251544
  0
LINE
  8
_0-5_寸法線
  6
CONTINUOUS
 62
    7
 10
803.47922052150307
 20
1211.3642826045291
 11
731.47922052150261
 21
1211.3642826045291
  0
LINE
  8
_0-5_寸法線
  6
CONTINUOUS
 62
    7
 10
739.47922052150261
 20
1277.7514608999352
 11
739.47922052150261
 21
1211.3642826045291
  0
TEXT
  8
_0-5_寸法線
 62
    7
 10
739.47922052150261
 20
1241.7514608999352
 40
24
 41
1
 50
89.999999999999815
  1
9.5
  0
LINE
  8
_0-5_寸法線
  6
CONTINUOUS
 62
    7
 10
739.47922052150261
 20
1211.3642826045291
 11
743.62032524314282
 21
1195.909469383904
  0
LINE
  8
_0-5_寸法線
  6
CONTINUOUS
 62
    7
 10
739.47922052150261
 20
1211.3642826045291
 11
735.33811579986218
 21
1195.909469383904
  0
LINE
  8
_0-5_寸法線
  6
CONTINUOUS
 62
    7
 10
803.47922052150307
 20
1086.3642826045293
 11
731.47922052150261
 21
1086.3642826045293
  0
LINE
  8
_0-5_寸法線
  6
CONTINUOUS
 62
    7
 10
739.47922052150261
 20
1086.3642826045293
 11
735.33811579986229
 21
1101.8190958251544
  0
LINE
  8
_0-5_寸法線
  6
CONTINUOUS
 62
    7
 10
739.47922052150261
 20
1086.3642826045293
 11
743.62032524314293
 21
1101.8190958251544
  0
LINE
  8
_0-5_寸法線
  6
CONTINUOUS
 62
    7
 10
739.47922052150261
 20
1211.3642826045291
 11
739.47922052150261
 21
1086.3642826045293
  0
TEXT
  8
_0-5_寸法線
 62
    7
 10
739.47922052150261
 20
1130.8642826045291
 40
24
 41
1
 50
90
  1
125
  0
LINE
  8
_0-5_寸法線
  6
CONTINUOUS
 62
    7
 10
803.47922052150307
 20
1076.8642826045293
 11
731.47922052150307
 21
1076.8642826045293
  0
LINE
  8
_0-5_寸法線
  6
CONTINUOUS
 62
    7
 10
739.47922052150307
 20
1076.8642826045293
 11
743.62032524314327
 21
1061.4094693839043
  0
LINE
  8
_0-5_寸法線
  6
CONTINUOUS
 62
    7
 10
739.47922052150307
 20
1076.8642826045293
 11
735.33811579986263
 21
1061.4094693839043
  0
LINE
  8
_0-5_寸法線
  6
CONTINUOUS
 62
    7
 10
739.47922052150261
 20
1086.3642826045293
 11
739.47922052150568
 21
1022.4811136182941
  0
TEXT
  8
_0-5_寸法線
 62
    7
 10
739.47922052150295
 20
1022.4811136182941
 40
24
 41
1
 50
89.999999999999815
  1
9.5
  0
ARC
  8
_0-1_計細線
  6
CONTINUOUS
 62
    3
 10
1374.0939821431193
 20
1163.0640874925348
 40
0.501740082747087
 50
330.00000000003996
 51
20.189990999990084
  0
ARC
  8
_0-1_計細線
  6
CONTINUOUS
 62
    3
 10
1374.0939821431193
 20
1134.6644777165257
 40
0.501740082747087
 50
339.81000900000919
 51
29.999999999959307
  0
LINE
  8
_0-1_計細線
  6
CONTINUOUS
 62
    3
 10
1336.782788616918
 20
1151.1221220082493
 11
1335.4792205215026
 21
1153.3799614119685
  0
LINE
  8
_0-1_計細線
  6
CONTINUOUS
 62
    3
 10
1336.782788616918
 20
1151.1221220082493
 11
1316.6428972611711
 21
1186.005433729556
  0
LINE
  8
_0-1_計細線
  6
CONTINUOUS
 62
    3
 10
1336.782788616918
 20
1151.1221220082493
 11
1339.3899187868446
 21
1151.1221220082493
  0
LINE
  8
_0-1_計細線
  6
CONTINUOUS
 62
    3
 10
1332.8720963724818
 20
1148.8642826045293
 11
1312.7322050167313
 21
1183.7475943258382
  0
ARC
  8
_0-1_計細線
  6
CONTINUOUS
 62
    3
 10
1303.874448157927
 20
1122.5228228944693
 40
0.501740082747087
 50
219.81000899998574
 51
269.99999999999977
  0
LINE
  8
_0-1_計細線
  6
CONTINUOUS
 62
    3
 10
1336.782788616918
 20
1146.6064432008102
 11
1316.6428972611711
 21
1111.7231314795031
  0
LINE
  8
_0-1_計細線
  6
CONTINUOUS
 62
    3
 10
1332.8720963724818
 20
1148.8642826045293
 11
1312.7322050167313
 21
1113.9809708832222
  0
ARC
  8
_0-1_計細線
  6
CONTINUOUS
 62
    3
 10
1335.4792205215026
 20
1148.8642826045293
 40
46.4111412917104
 50
89.999999999999915
 51
269.99999999999977
  0
ARC
  8
_0-1_計細線
  6
CONTINUOUS
 62
    3
 10
1335.4792205215026
 20
1148.8642826045293
 40
57.198598227560829
 50
89.999999999999915
 51
269.99999999999977
  0
CIRCLE
  8
_0-1_計細線
  6
CONTINUOUS
 62
    3
 10
1335.4792205215026
 20
1148.8642826045293
 40
58.202084413960065
  0
LINE
  8
_0-1_計細線
  6
CONTINUOUS
 62
    3
 10
1336.782788616918
 20
1151.1221220082493
 11
1377.0625653075085
 21
1151.1221220082493
  0
LINE
  8
_0-1_計細線
  6
CONTINUOUS
 62
    3
 10
1336.782788616918
 20
1146.6064432008102
 11
1377.0625653075085
 21
1146.6064432008102
  0
ARC
  8
_0-1_計細線
  6
CONTINUOUS
 62
    3
 10
1335.4792205215026
 20
1148.8642826045293
 40
46.4111412917104
 50
269.99999999999977
 51
89.999999999999545
  0
ARC
  8
_0-1_計細線
  6
CONTINUOUS
 62
    3
 10
1335.4792205215026
 20
1148.8642826045293
 40
57.198598227560829
 50
269.99999999999977
 51
89.999999999999545
  0
ARC
  8
_0-1_計細線
  6
CONTINUOUS
 62
    3
 10
1335.4792205215026
 20
1148.8642826045293
 40
41.644595453350369
 50
89.999999999999915
 51
116.89207624474167
  0
ARC
  8
_0-1_計細線
  6
CONTINUOUS
 62
    3
 10
1335.4792205215026
 20
1148.8642826045293
 40
41.644595453350369
 50
123.10791868694014
 51
236.89208131305782
  0
ARC
  8
_0-1_計細線
  6
CONTINUOUS
 62
    3
 10
1335.4792205215026
 20
1148.8642826045293
 40
41.644595453350369
 50
243.10792375525659
 51
269.99999999999977
  0
ARC
  8
_0-1_計細線
  6
CONTINUOUS
 62
    3
 10
1335.4792205215026
 20
1148.8642826045293
 40
41.644595453350369
 50
269.99999999999977
 51
356.8920785890931
  0
ARC
  8
_0-1_計細線
  6
CONTINUOUS
 62
    3
 10
1335.4792205215026
 20
1148.8642826045293
 40
41.644595453350369
 50
3.1079214109077964
 51
89.999999999999915
  0
ARC
  8
_0-0_計極細
  6
CONTINUOUS
 62
    2
 10
1335.4792205215026
 20
1148.8642826045293
 40
50.153133796808191
 50
269.99999999999977
 51
89.999999999999545
  0
ARC
  8
_0-0_計極細
  6
CONTINUOUS
 62
    2
 10
1335.4792205215026
 20
1148.8642826045293
 40
50.153133796808191
 50
89.999999999999915
 51
269.99999999999977
  0
ARC
  8
_0-0_計極細
  6
CONTINUOUS
 62
    2
 10
1321.8642194769955
 20
1119.7632403749381
 40
0.501740082747087
 50
149.99997568607938
 51
210.00002243784951
  0
ARC
  8
_0-0_計極細
  6
CONTINUOUS
 62
    2
 10
1335.7689043274513
 20
1142.8433775279432
 40
1.0034861863992508
 50
29.999999999951111
 51
149.99999999997101
  0
ARC
  8
_0-0_計極細
  6
CONTINUOUS
 62
    2
 10
1335.7689043274513
 20
1142.8433775279432
 40
1.0034861863992508
 50
29.999999999951111
 51
106.77865499997519
  0
ARC
  8
_0-0_計極細
  6
CONTINUOUS
 62
    2
 10
1330.1201273100305
 20
1146.1047031180628
 40
1.0034861863992508
 50
329.99999999995163
 51
89.999999999999545
  0
ARC
  8
_0-0_計極細
  6
CONTINUOUS
 62
    2
 10
1294.9840042214646
 20
1156.1430434036224
 40
0.501740082747087
 50
89.993779916795503
 51
169.8086801233749
  0
ARC
  8
_0-0_計極細
  6
CONTINUOUS
 62
    2
 10
1294.9824385160318
 20
1141.592520070868
 40
0.501740082747087
 50
190.17882981053808
 51
269.99383436904543
  0
ARC
  8
_0-0_計極細
  6
CONTINUOUS
 62
    2
 10
1294.9307062254256
 20
1151.6273690011635
 40
1.0034861863992508
 50
176.10042624738318
 51
269.99385985774035
  0
ARC
  8
_0-0_計極細
  6
CONTINUOUS
 62
    2
 10
1335.4792205215026
 20
1148.8642826045293
 40
37.630656728658437
 50
317.45760300000074
 51
327.38710799999916
  0
ARC
  8
_0-0_計極細
  6
CONTINUOUS
 62
    2
 10
1335.4792205215026
 20
1148.8642826045293
 40
37.630656728658437
 50
32.612892000001082
 51
42.54239699999939
  0
LINE
  8
_0-0_計極細
  6
CONTINUOUS
 62
    2
 10
1370.6534382924901
 20
1129.585344549304
 11
1361.6953490714895
 21
1145.1012169316655
  0
LINE
  8
_0-0_計極細
  6
CONTINUOUS
 62
    2
 10
1369.2466116750111
 20
1124.9976496962431
 11
1356.9156114301059
 21
1146.3555701489836
  0
LINE
  8
_0-0_計極細
  6
CONTINUOUS
 62
    2
 10
1364.6246759347796
 20
1120.9612650374256
 11
1350.6874728216908
 21
1145.1012169316655
  0
LINE
  8
_0-0_計極細
  6
CONTINUOUS
 62
    2
 10
1370.6534382924901
 20
1168.143220659756
 11
1361.6953490714895
 21
1152.6273482773954
  0
LINE
  8
_0-0_計極細
  6
CONTINUOUS
 62
    2
 10
1369.2466116750111
 20
1172.7309155128164
 11
1356.9156114301059
 21
1151.3729950600755
  0
LINE
  8
_0-0_計極細
  6
CONTINUOUS
 62
    2
 10
1364.6246759347796
 20
1176.7672941507299
 11
1350.6874728216908
 21
1152.6273482773954
  0
LINE
  8
_0-0_計極細
  6
CONTINUOUS
 62
    2
 10
1333.4722541696092
 20
1121.844646209358
 11
1333.4722541696092
 21
1129.7620581133019
  0
LINE
  8
_0-0_計極細
  6
CONTINUOUS
 62
    2
 10
1333.9739942523565
 20
1121.8120550501781
 11
1333.9739942523565
 21
1128.893018737263
  0
ARC
  8
_0-0_計極細
  6
CONTINUOUS
 62
    2
 10
1335.4792205215026
 20
1148.8642826045293
 40
37.630656728658437
 50
213.59599499999973
 51
225.50677599999941
  0
LINE
  8
_0-0_計極細
  6
CONTINUOUS
 62
    2
 10
1362.4615574097252
 20
1117.6835144182596
 11
1345.9077351803071
 21
1146.3555701489836
  0
LINE
  8
_0-0_計極細
  6
CONTINUOUS
 62
    2
 10
1357.2737047595365
 20
1114.6273270850038
 11
1339.6795965718911
 21
1145.1012169316655
  0
LINE
  8
_0-0_計極細
  6
CONTINUOUS
 62
    2
 10
1339.264635794013
 20
1107.68754760106
 11
1326.9336355491077
 21
1129.045468053801
  0
LINE
  8
_0-0_計極細
  6
CONTINUOUS
 62
    2
 10
1345.071214712586
 20
1109.6720680188278
 11
1331.1340115994963
 21
1133.8120199130667
  0
LINE
  8
_0-0_計極細
  6
CONTINUOUS
 62
    2
 10
1348.9913959034266
 20
1109.9065100207017
 11
1332.4375736740085
 21
1138.578571772332
  0
LINE
  8
_0-0_計極細
  6
CONTINUOUS
 62
    2
 10
1354.2320518911374
 20
1112.871233784937
 11
1336.637949724397
 21
1143.3451176106919
  0
LINE
  8
_0-0_計極細
  6
CONTINUOUS
 62
    2
 10
1303.874448157927
 20
1122.0210828117224
 11
1317.0844824812984
 21
1122.0210828117224
  0
ARC
  8
_0-0_計極細
  6
CONTINUOUS
 62
    2
 10
1313.608312935331
 20
1117.5054040042828
 40
1.0034861863992508
 50
329.99999999997061
 51
89.999999999999545
  0
ARC
  8
_0-0_計極細
  6
CONTINUOUS
 62
    2
 10
1335.4792205215026
 20
1148.8642826045293
 40
37.630656728658437
 50
233.77152299999938
 51
236.31964599999873
  0
ARC
  8
_0-0_計極細
  6
CONTINUOUS
 62
    2
 10
1309.6273326450291
 20
1117.5054040042828
 40
1.0034861863992508
 50
89.999999999999915
 51
230.49822999997428
  0
LINE
  8
_0-0_計極細
  6
CONTINUOUS
 62
    2
 10
1309.6273326450291
 20
1118.508884169777
 11
1313.608312935331
 21
1118.508884169777
  0
ARC
  8
_0-0_計極細
  6
CONTINUOUS
 62
    2
 10
1335.4792205215026
 20
1148.8642826045293
 40
37.630656728658437
 50
272.61289199999942
 51
282.54239699999982
  0
ARC
  8
_0-0_計極細
  6
CONTINUOUS
 62
    2
 10
1339.6991584924845
 20
1107.9384206528857
 40
0.501740082747087
 50
210.00000000000426
 51
275.88706199997517
  0
LINE
  8
_0-0_計極細
  6
CONTINUOUS
 62
    2
 10
1334.5881626955979
 20
1108.7630438121764
 11
1325.6300734745973
 21
1124.278922215442
  0
LINE
  8
_0-0_計極細
  6
CONTINUOUS
 62
    2
 10
1328.0347145858932
 20
1108.0721449546395
 11
1321.4296974242088
 21
1119.5123703561771
  0
ARC
  8
_0-0_計極細
  6
CONTINUOUS
 62
    2
 10
1335.4792205215026
 20
1148.8642826045293
 40
37.630656728658437
 50
254.49322399999932
 51
266.40400499999907
  0
ARC
  8
_0-0_計極細
  6
CONTINUOUS
 62
    2
 10
1317.0844824812984
 20
1122.5228228944693
 40
0.501740082747087
 50
269.99999999999977
 51
329.99999999989114
  0
ARC
  8
_0-0_計極細
  6
CONTINUOUS
 62
    2
 10
1321.2475831083566
 20
1110.7964479582611
 40
1.0034861863992508
 50
249.50177000005806
 51
29.999999999976708
  0
LINE
  8
_0-0_計極細
  6
CONTINUOUS
 62
    2
 10
1322.1166224843973
 20
1111.2981880410084
 11
1320.1261353496984
 21
1114.74581849691
  0
ARC
  8
_0-0_計極細
  6
CONTINUOUS
 62
    2
 10
1324.7610280776526
 20
1123.7771761117906
 40
1.0034861863992508
 50
29.999999999977071
 51
149.99999999999699
  0
ARC
  8
_0-0_計極細
  6
CONTINUOUS
 62
    2
 10
1335.4792205215026
 20
1148.8642826045293
 40
27.094072844634088
 50
244.78019200000111
 51
249.77896100000117
  0
ARC
  8
_0-0_計極細
  6
CONTINUOUS
 62
    2
 10
1335.4792205215026
 20
1148.8642826045293
 40
37.630656728658437
 50
243.68035399999945
 51
246.22847699999838
  0
ARC
  8
_0-0_計極細
  6
CONTINUOUS
 62
    2
 10
1319.2570899527536
 20
1114.244078414165
 40
1.0034861863992508
 50
29.999999999977071
 51
150.00000000002294
  0
ARC
  8
_0-0_計極細
  6
CONTINUOUS
 62
    2
 10
1333.7191233195599
 20
1108.2613037294309
 40
1.0034861863992508
 50
267.5178359999677
 51
30.000000000002665
  0
ARC
  8
_0-0_計極細
  6
CONTINUOUS
 62
    2
 10
1328.4692372843647
 20
1108.3230180064652
 40
0.501740082747087
 50
210.00000000010814
 51
260.18999100005101
  0
ARC
  8
_0-0_計極細
  6
CONTINUOUS
 62
    2
 10
1335.4792205215026
 20
1148.8642826045293
 40
27.094072844634088
 50
260.29098299999907
 51
275.37568199999987
  0
ARC
  8
_0-0_計極細
  6
CONTINUOUS
 62
    2
 10
1335.4792205215026
 20
1148.8642826045293
 40
37.630656728658437
 50
288.07291800000053
 51
297.3252259999997
  0
ARC
  8
_0-0_計極細
  6
CONTINUOUS
 62
    2
 10
1335.4792205215026
 20
1148.8642826045293
 40
27.094072844634088
 50
283.31934900000118
 51
296.2837799999993
  0
ARC
  8
_0-0_計極細
  6
CONTINUOUS
 62
    2
 10
1349.4259125809922
 20
1110.1573830725279
 40
0.501740082747087
 50
210.00000000010814
 51
289.81487200010849
  0
ARC
  8
_0-0_計極細
  6
CONTINUOUS
 62
    2
 10
1344.2021693156421
 20
1109.1703279360813
 40
1.0034861863992508
 50
282.39403400005705
 51
30.000000000002665
  0
ARC
  8
_0-0_計極細
  6
CONTINUOUS
 62
    2
 10
1335.4792205215026
 20
1148.8642826045293
 40
37.630656728658437
 50
302.67477399999865
 51
311.92708199999919
  0
ARC
  8
_0-0_計極細
  6
CONTINUOUS
 62
    2
 10
1358.1427441355745
 20
1115.1290731886565
 40
1.0034861863992508
 50
210.00000000002515
 51
303.89345000001418
  0
ARC
  8
_0-0_計極細
  6
CONTINUOUS
 62
    2
 10
1362.0270347112528
 20
1117.4326413664339
 40
0.501740082747087
 50
310.18512800003361
 51
29.999999999907399
  0
ARC
  8
_0-0_計極細
  6
CONTINUOUS
 62
    2
 10
1353.3630125150985
 20
1112.3694876812842
 40
1.0034861863992508
 50
296.10655000002453
 51
29.999999999999204
  0
LINE
  8
_0-0_計極細
  6
CONTINUOUS
 62
    2
 10
1301.1960605764198
 20
1128.0419878883081
 11
1319.1122510602299
 21
1128.0419878883081
  0
ARC
  8
_0-0_計極細
  6
CONTINUOUS
 62
    2
 10
1313.608312935331
 20
1180.2231612047776
 40
1.0034861863992508
 50
269.99999999999977
 51
30.000000000051159
  0
LINE
  8
_0-0_計極細
  6
CONTINUOUS
 62
    2
 10
1303.874448157927
 20
1175.707482397338
 11
1317.0844824812984
 21
1175.707482397338
  0
LINE
  8
_0-0_計極細
  6
CONTINUOUS
 62
    2
 10
1301.1960605764198
 20
1169.6865773207514
 11
1319.1122510602299
 21
1169.6865773207514
  0
LINE
  8
_0-0_計極細
  6
CONTINUOUS
 62
    2
 10
1297.9264201163905
 20
1166.1743846997128
 11
1322.5884206061974
 21
1166.1743846997128
  0
LINE
  8
_0-0_計極細
  6
CONTINUOUS
 62
    2
 10
1296.7417769380463
 20
1160.1534796231276
 11
1324.6161891851307
 21
1160.1534796231276
  0
LINE
  8
_0-0_計極細
  6
CONTINUOUS
 62
    2
 10
1294.984720293166
 20
1156.6412870020872
 11
1328.0923587310963
 21
1156.6412870020872
  0
LINE
  8
_0-0_計極細
  6
CONTINUOUS
 62
    2
 10
1294.9319109347389
 20
1150.620381925502
 11
1330.1201273100305
 21
1150.620381925502
  0
LINE
  8
_0-0_計極細
  6
CONTINUOUS
 62
    2
 10
1297.9264201163905
 20
1131.5541805093476
 11
1322.5884206061974
 21
1131.5541805093476
  0
LINE
  8
_0-0_計極細
  6
CONTINUOUS
 62
    2
 10
1296.7417769380463
 20
1137.5750855859333
 11
1324.6161891851307
 21
1137.5750855859333
  0
LINE
  8
_0-0_計極細
  6
CONTINUOUS
 62
    2
 10
1294.984720293166
 20
1141.0872782069732
 11
1328.0923587310963
 21
1141.0872782069732
  0
LINE
  8
_0-0_計極細
  6
CONTINUOUS
 62
    2
 10
1294.9319109347389
 20
1147.1081832835571
 11
1330.1201273100305
 21
1147.1081832835571
  0
ARC
  8
_0-0_計極細
  6
CONTINUOUS
 62
    2
 10
1335.4792205215026
 20
1148.8642826045293
 40
27.094072844634088
 50
140.2909829999995
 51
155.37568200000004
  0
ARC
  8
_0-0_計極細
  6
CONTINUOUS
 62
    2
 10
1335.4792205215026
 20
1148.8642826045293
 40
37.630656728658437
 50
152.61289200000007
 51
162.54239699999968
  0
ARC
  8
_0-0_計極細
  6
CONTINUOUS
 62
    2
 10
1296.7417769380463
 20
1161.1569658095282
 40
1.0034861863992508
 50
162.39403400002107
 51
269.99999999999977
  0
ARC
  8
_0-0_計極細
  6
CONTINUOUS
 62
    2
 10
1301.1960605764198
 20
1127.0385017019075
 40
1.0034861863992508
 50
89.999999999999915
 51
212.4821639999854
  0
ARC
  8
_0-0_計極細
  6
CONTINUOUS
 62
    2
 10
1335.4792205215026
 20
1148.8642826045293
 40
37.630656728658437
 50
168.07291799999925
 51
177.32522600000016
  0
ARC
  8
_0-0_計極細
  6
CONTINUOUS
 62
    2
 10
1335.4792205215026
 20
1148.8642826045293
 40
37.630656728658437
 50
182.67477399999882
 51
191.9270819999997
  0
ARC
  8
_0-0_計極細
  6
CONTINUOUS
 62
    2
 10
1335.4792205215026
 20
1148.8642826045293
 40
37.630656728658437
 50
197.4576029999993
 51
207.38710799999896
  0
ARC
  8
_0-0_計極細
  6
CONTINUOUS
 62
    2
 10
1294.9319109347389
 20
1146.1047031180638
 40
1.0034861863992508
 50
89.999999999999915
 51
183.89344999999844
  0
ARC
  8
_0-0_計極細
  6
CONTINUOUS
 62
    2
 10
1296.7417769380463
 20
1136.5715993995341
 40
1.0034861863992508
 50
89.999999999999915
 51
197.60596600000332
  0
ARC
  8
_0-0_計極細
  6
CONTINUOUS
 62
    2
 10
1297.9264201163905
 20
1132.0559205920936
 40
0.501740082747087
 50
204.11293800002809
 51
269.99999999999977
  0
ARC
  8
_0-0_計極細
  6
CONTINUOUS
 62
    2
 10
1335.4792205215026
 20
1148.8642826045293
 40
27.094072844634088
 50
163.31934899999951
 51
176.28377999999955
  0
ARC
  8
_0-0_計極細
  6
CONTINUOUS
 62
    2
 10
1335.4792205215026
 20
1148.8642826045293
 40
27.094072844634088
 50
183.71621999999911
 51
196.68065099999922
  0
ARC
  8
_0-0_計極細
  6
CONTINUOUS
 62
    2
 10
1335.4792205215026
 20
1148.8642826045293
 40
27.094072844634088
 50
204.62431799999874
 51
219.70901699999865
  0
ARC
  8
_0-0_計極細
  6
CONTINUOUS
 62
    2
 10
1297.9264201163905
 20
1165.6726446169669
 40
0.501740082747087
 50
89.999999999999915
 51
155.88706199997156
  0
ARC
  8
_0-0_計極細
  6
CONTINUOUS
 62
    2
 10
1301.1960605764198
 20
1170.6900635071524
 40
1.0034861863992508
 50
147.5178360000142
 51
269.99999999999977
  0
ARC
  8
_0-0_計極細
  6
CONTINUOUS
 62
    2
 10
1335.4792205215026
 20
1148.8642826045293
 40
37.630656728658437
 50
123.68035400000058
 51
126.22847700000025
  0
ARC
  8
_0-0_計極細
  6
CONTINUOUS
 62
    2
 10
1335.4792205215026
 20
1148.8642826045293
 40
37.630656728658437
 50
134.49322399999971
 51
146.40400499999933
  0
ARC
  8
_0-0_計極細
  6
CONTINUOUS
 62
    2
 10
1303.874448157927
 20
1175.2057423145916
 40
0.501740082747087
 50
89.999999999999915
 51
140.18999100005377
  0
ARC
  8
_0-0_計極細
  6
CONTINUOUS
 62
    2
 10
1309.6273326450291
 20
1180.2231612047776
 40
1.0034861863992508
 50
129.50177000002535
 51
269.99999999999977
  0
LINE
  8
_0-0_計極細
  6
CONTINUOUS
 62
    2
 10
1309.6273326450291
 20
1179.2196810392834
 11
1313.608312935331
 21
1179.2196810392834
  0
ARC
  8
_0-0_計極細
  6
CONTINUOUS
 62
    2
 10
1335.4792205215026
 20
1148.8642826045293
 40
37.630656728658437
 50
77.457603000000148
 51
87.387108000000282
  0
ARC
  8
_0-0_計極細
  6
CONTINUOUS
 62
    2
 10
1335.4792205215026
 20
1148.8642826045293
 40
37.630656728658437
 50
77.457603000000148
 51
87.387108000000282
  0
ARC
  8
_0-0_計極細
  6
CONTINUOUS
 62
    2
 10
1340.5486419688359
 20
1145.6029570144119
 40
1.0034861863992508
 50
89.999999999999915
 51
209.9999999999992
  0
ARC
  8
_0-0_計極細
  6
CONTINUOUS
 62
    2
 10
1340.5486419688359
 20
1152.1256081946499
 40
1.0034861863992508
 50
150.00000000000043
 51
269.99999999999977
  0
ARC
  8
_0-0_計極細
  6
CONTINUOUS
 62
    2
 10
1339.6991584924845
 20
1189.790144556172
 40
0.501740082747087
 50
84.112938000024442
 51
150.00000000004033
  0
LINE
  8
_0-0_計極細
  6
CONTINUOUS
 62
    2
 10
1345.071214712586
 20
1188.0564911693255
 11
1331.1340115994963
 21
1163.9165452959937
  0
LINE
  8
_0-0_計極細
  6
CONTINUOUS
 62
    2
 10
1348.9913959034266
 20
1187.8220491674542
 11
1332.4375736740085
 21
1159.1499934367284
  0
LINE
  8
_0-0_計極細
  6
CONTINUOUS
 62
    2
 10
1354.2320518911374
 20
1184.8573314241235
 11
1336.637949724397
 21
1154.3834475983685
  0
LINE
  8
_0-0_計極細
  6
CONTINUOUS
 62
    2
 10
1333.4722541696092
 20
1156.856130957935
 11
1333.4722541696092
 21
1160.9421158327737
  0
LINE
  8
_0-0_計極細
  6
CONTINUOUS
 62
    2
 10
1333.9739942523565
 20
1155.987091581896
 11
1333.9739942523565
 21
1161.8111612297166
  0
ARC
  8
_0-0_計極細
  6
CONTINUOUS
 62
    2
 10
1324.6161891851307
 20
1161.1569658095282
 40
1.0034861863992508
 50
269.99999999999977
 51
29.999999999999204
  0
LINE
  8
_0-0_計極細
  6
CONTINUOUS
 62
    2
 10
1336.9844467906496
 20
1154.9836053954982
 11
1336.9844467906496
 21
1167.0254155486678
  0
LINE
  8
_0-0_計極細
  6
CONTINUOUS
 62
    2
 10
1337.486192894301
 20
1155.8526507924407
 11
1337.486192894301
 21
1167.894460945613
  0
ARC
  8
_0-0_計極細
  6
CONTINUOUS
 62
    2
 10
1324.6161891851307
 20
1136.5715993995341
 40
1.0034861863992508
 50
329.9999999999776
 51
89.999999999999545
  0
ARC
  8
_0-0_計極細
  6
CONTINUOUS
 62
    2
 10
1322.5884206061974
 20
1132.0559205920936
 40
0.501740082747087
 50
269.99999999999977
 51
329.999999999995
  0
ARC
  8
_0-0_計極細
  6
CONTINUOUS
 62
    2
 10
1335.4792205215026
 20
1148.8642826045293
 40
27.094072844634088
 50
230.22103899999877
 51
235.21980799999864
  0
ARC
  8
_0-0_計極細
  6
CONTINUOUS
 62
    2
 10
1319.1122510602299
 20
1127.0385017019075
 40
1.0034861863992508
 50
330.00000000000011
 51
89.999999999999545
  0
ARC
  8
_0-0_計極細
  6
CONTINUOUS
 62
    2
 10
1327.3681582475801
 20
1129.296341105628
 40
0.501740082747087
 50
149.9999999999884
 51
210.00000000005619
  0
LINE
  8
_0-0_計極細
  6
CONTINUOUS
 62
    2
 10
1333.4722541696092
 20
1136.7864493762868
 11
1333.4722541696092
 21
1140.8724342511255
  0
LINE
  8
_0-0_計極細
  6
CONTINUOUS
 62
    2
 10
1333.9739942523565
 20
1135.917403979342
 11
1333.9739942523565
 21
1141.7414736271639
  0
ARC
  8
_0-0_計極細
  6
CONTINUOUS
 62
    2
 10
1328.0923587310963
 20
1141.5890243106246
 40
0.501740082747087
 50
269.99999999999977
 51
330.00000000003996
  0
ARC
  8
_0-0_計極細
  6
CONTINUOUS
 62
    2
 10
1332.8720963724818
 20
1138.8294388032523
 40
0.501740082747087
 50
150.00000000009922
 51
209.99999999985545
  0
ARC
  8
_0-0_計極細
  6
CONTINUOUS
 62
    2
 10
1330.2649662025515
 20
1133.3102798303194
 40
1.0034861863992508
 50
29.999999999999559
 51
150.00000000000043
  0
ARC
  8
_0-0_計極細
  6
CONTINUOUS
 62
    2
 10
1332.8720963724818
 20
1158.8991264058072
 40
0.501740082747087
 50
150.00000000009922
 51
209.99999999985545
  0
ARC
  8
_0-0_計極細
  6
CONTINUOUS
 62
    2
 10
1335.7689043274513
 20
1154.8851876811159
 40
1.0034861863992508
 50
210.00000000005113
 51
330.00000000002603
  0
ARC
  8
_0-0_計極細
  6
CONTINUOUS
 62
    2
 10
1328.0923587310963
 20
1156.1395408984345
 40
0.501740082747087
 50
29.99999999995967
 51
89.999999999999901
  0
ARC
  8
_0-0_計極細
  6
CONTINUOUS
 62
    2
 10
1330.1201273100305
 20
1151.6238620909967
 40
1.0034861863992508
 50
269.99999999999977
 51
30.000000000002665
  0
LINE
  8
_0-0_計極細
  6
CONTINUOUS
 62
    2
 10
1336.9844467906496
 20
1130.7031496603918
 11
1336.9844467906496
 21
1142.7449598135636
  0
LINE
  8
_0-0_計極細
  6
CONTINUOUS
 62
    2
 10
1337.486192894301
 20
1129.8341042634488
 11
1337.486192894301
 21
1141.8759144166188
  0
ARC
  8
_0-0_計極細
  6
CONTINUOUS
 62
    2
 10
1335.7689043274513
 20
1154.8851876811159
 40
1.0034861863992508
 50
253.22134500003193
 51
330.00000000002603
  0
LINE
  8
_0-0_計極細
  6
CONTINUOUS
 62
    2
 10
1334.5881626955979
 20
1188.9655153759791
 11
1325.6300734745973
 21
1173.449642993618
  0
ARC
  8
_0-0_計極細
  6
CONTINUOUS
 62
    2
 10
1335.4792205215026
 20
1148.8642826045293
 40
37.630656728658437
 50
93.595995000000485
 51
105.50677600000017
  0
LINE
  8
_0-0_計極細
  6
CONTINUOUS
 62
    2
 10
1328.0347145858932
 20
1189.6564202544232
 11
1321.4296974242088
 21
1178.2161948528828
  0
LINE
  8
_0-0_計極細
  6
CONTINUOUS
 62
    2
 10
1339.264635794013
 20
1190.041017607999
 11
1326.9336355491077
 21
1168.6830971552577
  0
ARC
  8
_0-0_計極細
  6
CONTINUOUS
 62
    2
 10
1327.3681582475801
 20
1168.4322241034324
 40
0.501740082747087
 50
149.9999999999884
 51
210.00000000001123
  0
ARC
  8
_0-0_計極細
  6
CONTINUOUS
 62
    2
 10
1335.4792205215026
 20
1148.8642826045293
 40
27.094072844634088
 50
110.2210389999981
 51
115.21980799999808
  0
ARC
  8
_0-0_計極細
  6
CONTINUOUS
 62
    2
 10
1324.7610280776526
 20
1173.9513890972712
 40
1.0034861863992508
 50
210.00000000000267
 51
330.00000000002257
  0
ARC
  8
_0-0_計極細
  6
CONTINUOUS
 62
    2
 10
1321.8642201226803
 20
1177.9653218010567
 40
0.501740082747087
 50
149.99999999999537
 51
209.9999999999593
  0
ARC
  8
_0-0_計極細
  6
CONTINUOUS
 62
    2
 10
1335.4792205215026
 20
1148.8642826045293
 40
37.630656728658437
 50
113.77152300000098
 51
116.31964599999986
  0
ARC
  8
_0-0_計極細
  6
CONTINUOUS
 62
    2
 10
1321.2475831083566
 20
1186.9321172507994
 40
1.0034861863992508
 50
330.00000000002257
 51
110.49822999994124
  0
ARC
  8
_0-0_計極細
  6
CONTINUOUS
 62
    2
 10
1319.2570899527536
 20
1183.4844867948946
 40
1.0034861863992508
 50
209.9999999999992
 51
330.00000000000011
  0
LINE
  8
_0-0_計極細
  6
CONTINUOUS
 62
    2
 10
1322.1166224843973
 20
1186.430377168052
 11
1320.1261353496984
 21
1182.9827467121499
  0
ARC
  8
_0-0_計極細
  6
CONTINUOUS
 62
    2
 10
1335.4792205215026
 20
1148.8642826045293
 40
27.094072844634088
 50
124.78019199999984
 51
129.77896100000024
  0
ARC
  8
_0-0_計極細
  6
CONTINUOUS
 62
    2
 10
1317.0844824812984
 20
1175.2057423145916
 40
0.501740082747087
 50
30.000000000063526
 51
89.999999999999915
  0
ARC
  8
_0-0_計極細
  6
CONTINUOUS
 62
    2
 10
1319.1122510602299
 20
1170.6900635071524
 40
1.0034861863992508
 50
269.99999999999977
 51
29.999999999999204
  0
ARC
  8
_0-0_計極細
  6
CONTINUOUS
 62
    2
 10
1322.5884206061974
 20
1165.6726446169669
 40
0.501740082747087
 50
29.99999999995967
 51
89.999999999999901
  0
LINE
  8
_0-0_計極細
  6
CONTINUOUS
 62
    2
 10
1333.9739942523565
 20
1168.8355464717974
 11
1333.9739942523565
 21
1175.9165101588824
  0
LINE
  8
_0-0_計極細
  6
CONTINUOUS
 62
    2
 10
1333.4722541696092
 20
1167.966507095759
 11
1333.4722541696092
 21
1175.8839189997025
  0
ARC
  8
_0-0_計極細
  6
CONTINUOUS
 62
    2
 10
1333.7191233195599
 20
1189.4672614796327
 40
1.0034861863992508
 50
329.99999999997414
 51
92.482164000031602
  0
ARC
  8
_0-0_計極細
  6
CONTINUOUS
 62
    2
 10
1335.4792205215026
 20
1148.8642826045293
 40
27.094072844634088
 50
84.624317999999832
 51
99.709017000000401
  0
ARC
  8
_0-0_計極細
  6
CONTINUOUS
 62
    2
 10
1328.4692372843647
 20
1189.405547202598
 40
0.501740082747087
 50
99.810008999948636
 51
149.99999999993648
  0
ARC
  8
_0-0_計極細
  6
CONTINUOUS
 62
    2
 10
1330.2649662025515
 20
1164.4182853787397
 40
1.0034861863992508
 50
209.9999999999992
 51
330.00000000000011
  0
ARC
  8
_0-0_計極細
  6
CONTINUOUS
 62
    2
 10
1335.4792205215026
 20
1148.8642826045293
 40
27.094072844634088
 50
84.624317999999832
 51
89.999999999999915
  0
ARC
  8
_0-0_計極細
  6
CONTINUOUS
 62
    2
 10
1335.4792205215026
 20
1148.8642826045293
 40
27.094072844634088
 50
20.290983000001571
 51
35.37568200000068
  0
LINE
  8
_0-0_計極細
  6
CONTINUOUS
 62
    2
 10
1362.4615574097252
 20
1180.0450507908022
 11
1345.9077351803071
 21
1151.3729950600755
  0
LINE
  8
_0-0_計極細
  6
CONTINUOUS
 62
    2
 10
1357.2737047595365
 20
1183.1012381240562
 11
1339.6795965718911
 21
1152.6273482773954
  0
ARC
  8
_0-0_計極細
  6
CONTINUOUS
 62
    2
 10
1335.4792205215026
 20
1148.8642826045293
 40
27.094072844634088
 50
303.71622000000156
 51
316.68065099999922
  0
ARC
  8
_0-0_計極細
  6
CONTINUOUS
 62
    2
 10
1351.5565121977279
 20
1145.6029570144119
 40
1.0034861863992508
 50
89.999999999999915
 51
210.00000000002515
  0
ARC
  8
_0-0_計極細
  6
CONTINUOUS
 62
    2
 10
1345.4732124818356
 20
1146.1047031180638
 40
0.501740082747087
 50
30.0000000001085
 51
89.999999999999915
  0
ARC
  8
_0-0_計極細
  6
CONTINUOUS
 62
    2
 10
1351.5565121977279
 20
1152.1256081946499
 40
1.0034861863992508
 50
149.99999999997448
 51
269.99999999999977
  0
ARC
  8
_0-0_計極細
  6
CONTINUOUS
 62
    2
 10
1345.4732124818356
 20
1151.6238620909967
 40
0.501740082747087
 50
269.99999999999977
 51
329.99999999989114
  0
ARC
  8
_0-0_計極細
  6
CONTINUOUS
 62
    2
 10
1335.4792205215026
 20
1148.8642826045293
 40
27.094072844634088
 50
324.62431799999973
 51
339.7090169999999
  0
ARC
  8
_0-0_計極細
  6
CONTINUOUS
 62
    2
 10
1335.4792205215026
 20
1148.8642826045293
 40
27.094072844634088
 50
350.22103899999934
 51
355.21980800000068
  0
ARC
  8
_0-0_計極細
  6
CONTINUOUS
 62
    2
 10
1335.4792205215026
 20
1148.8642826045293
 40
27.094072844634088
 50
4.7801919999998796
 51
9.778961000001221
  0
ARC
  8
_0-0_計極細
  6
CONTINUOUS
 62
    2
 10
1362.5643884475276
 20
1145.6029570144119
 40
1.0034861863992508
 50
89.999999999999915
 51
210.00000000002515
  0
ARC
  8
_0-0_計極細
  6
CONTINUOUS
 62
    2
 10
1356.4810887316344
 20
1146.1047031180638
 40
0.501740082747087
 50
30.000000000056566
 51
89.999999999999915
  0
ARC
  8
_0-0_計極細
  6
CONTINUOUS
 62
    2
 10
1362.5643884475276
 20
1152.1256081946499
 40
1.0034861863992508
 50
149.99999999997448
 51
269.99999999999977
  0
ARC
  8
_0-0_計極細
  6
CONTINUOUS
 62
    2
 10
1356.4810887316344
 20
1151.6238620909967
 40
0.501740082747087
 50
269.99999999999977
 51
329.9999999999431
  0
ARC
  8
_0-0_計極細
  6
CONTINUOUS
 62
    2
 10
1335.4792205215026
 20
1148.8642826045293
 40
27.094072844634088
 50
43.319349000001104
 51
56.28377999999919
  0
ARC
  8
_0-0_計極細
  6
CONTINUOUS
 62
    2
 10
1335.4792205215026
 20
1148.8642826045293
 40
37.630656728658437
 50
62.674774000000312
 51
71.927081999999317
  0
ARC
  8
_0-0_計極細
  6
CONTINUOUS
 62
    2
 10
1335.4792205215026
 20
1148.8642826045293
 40
27.094072844634088
 50
63.716220000000746
 51
76.680650999998889
  0
ARC
  8
_0-0_計極細
  6
CONTINUOUS
 62
    2
 10
1349.4259125809922
 20
1187.5711821365321
 40
0.501740082747087
 50
70.185127999891137
 51
149.99999999993648
  0
ARC
  8
_0-0_計極細
  6
CONTINUOUS
 62
    2
 10
1344.2021693156421
 20
1188.5582372729791
 40
1.0034861863992508
 50
329.99999999999665
 51
77.605965999942228
  0
ARC
  8
_0-0_計極細
  6
CONTINUOUS
 62
    2
 10
1335.4792205215026
 20
1148.8642826045293
 40
37.630656728658437
 50
48.072918000001373
 51
57.325226000001372
  0
ARC
  8
_0-0_計極細
  6
CONTINUOUS
 62
    2
 10
1358.1427441355745
 20
1182.5994920204043
 40
1.0034861863992508
 50
56.106549999971008
 51
149.99999999999699
  0
ARC
  8
_0-0_計極細
  6
CONTINUOUS
 62
    2
 10
1362.0270347112528
 20
1180.2959178217225
 40
0.501740082747087
 50
330.00000000009186
 51
49.814871999965682
  0
ARC
  8
_0-0_計極細
  6
CONTINUOUS
 62
    2
 10
1353.3630125150985
 20
1185.3590775277748
 40
1.0034861863992508
 50
330.00000000000011
 51
63.893449999974756
  0
ARC
  8
_0-0_計極細
  6
CONTINUOUS
 62
    2
 10
1365.4937213317226
 20
1121.4630111410784
 40
1.0034861863992508
 50
210.00000000002515
 51
317.6059660000256
  0
ARC
  8
_0-0_計極細
  6
CONTINUOUS
 62
    2
 10
1368.8120949974427
 20
1124.7467766444174
 40
0.501740082747087
 50
324.11293799996702
 51
29.999999999959307
  0
ARC
  8
_0-0_計極細
  6
CONTINUOUS
 62
    2
 10
1335.4792205215026
 20
1148.8642826045293
 40
37.630656728658437
 50
14.493223999999607
 51
26.404005000000534
  0
LINE
  8
_0-0_計極細
  6
CONTINUOUS
 62
    2
 10
1374.5285048415908
 20
1162.8132204616145
 11
1367.9234876799055
 21
1151.3729950600755
  0
ARC
  8
_0-0_計極細
  6
CONTINUOUS
 62
    2
 10
1375.562757852932
 20
1142.1553265585076
 40
1.0034861863992508
 50
209.99999999997672
 51
350.4982300000064
  0
ARC
  8
_0-0_計極細
  6
CONTINUOUS
 62
    2
 10
1375.562757852932
 20
1155.5732386505529
 40
1.0034861863992508
 50
9.5017699999932326
 51
150.00000000000043
  0
ARC
  8
_0-0_計極細
  6
CONTINUOUS
 62
    2
 10
1335.4792205215026
 20
1148.8642826045293
 40
37.630656728658437
 50
3.6803540000001762
 51
6.228477000000372
  0
ARC
  8
_0-0_計極細
  6
CONTINUOUS
 62
    2
 10
1335.4792205215026
 20
1148.8642826045293
 40
37.630656728658437
 50
353.77152300000063
 51
356.31964600000015
  0
ARC
  8
_0-0_計極細
  6
CONTINUOUS
 62
    2
 10
1335.4792205215026
 20
1148.8642826045293
 40
37.630656728658437
 50
333.59599499999973
 51
345.50677600000074
  0
ARC
  8
_0-0_計極細
  6
CONTINUOUS
 62
    2
 10
1371.5224836894349
 20
1130.0870846320508
 40
1.0034861863992508
 50
209.99999999997672
 51
332.48216400001218
  0
ARC
  8
_0-0_計極細
  6
CONTINUOUS
 62
    2
 10
1373.5722646973263
 20
1145.6029570144119
 40
1.0034861863992508
 50
89.999999999999915
 51
210.00000000002515
  0
ARC
  8
_0-0_計極細
  6
CONTINUOUS
 62
    2
 10
1367.4889649814331
 20
1146.1047031180638
 40
0.501740082747087
 50
30.000000000004636
 51
89.999999999999915
  0
LINE
  8
_0-0_計極細
  6
CONTINUOUS
 62
    2
 10
1374.6937124559872
 20
1141.6535864757611
 11
1372.7032253212883
 21
1145.1012169316655
  0
LINE
  8
_0-0_計極細
  6
CONTINUOUS
 62
    2
 10
1374.5285048415908
 20
1134.9153447474469
 11
1367.9234876799055
 21
1146.3555701489836
  0
ARC
  8
_0-0_計極細
  6
CONTINUOUS
 62
    2
 10
1373.5722646973263
 20
1152.1256081946499
 40
1.0034861863992508
 50
149.99999999997448
 51
269.99999999999977
  0
ARC
  8
_0-0_計極細
  6
CONTINUOUS
 62
    2
 10
1367.4889649814331
 20
1151.6238620909967
 40
0.501740082747087
 50
269.99999999999977
 51
329.999999999995
  0
LINE
  8
_0-0_計極細
  6
CONTINUOUS
 62
    2
 10
1374.6937124559872
 20
1156.0749787332993
 11
1372.7032253212883
 21
1152.6273482773954
  0
ARC
  8
_0-0_計極細
  6
CONTINUOUS
 62
    2
 10
1365.4937213317226
 20
1176.2655540679821
 40
1.0034861863992508
 50
42.394033999974049
 51
149.99999999997448
  0
ARC
  8
_0-0_計極細
  6
CONTINUOUS
 62
    2
 10
1368.8120949974427
 20
1172.9817885646426
 40
0.501740082747087
 50
330.00000000003996
 51
35.887062000032259
  0
ARC
  8
_0-0_計極細
  6
CONTINUOUS
 62
    2
 10
1371.5224836894349
 20
1167.6414805770096
 40
1.0034861863992508
 50
27.517836000010465
 51
150.00000000000043
  0
LINE
  8
_0-0_計極細
  6
CONTINUOUS
 62
    2
 10
1336.9844467906496
 20
1121.8120539128117
 11
1336.9844467906496
 21
1123.678765562905
  0
LINE
  8
_0-0_計極細
  6
CONTINUOUS
 62
    2
 10
1337.486192894301
 20
1121.8446444647402
 11
1337.486192894301
 21
1122.8097155313467
  0
LINE
  8
_0-0_計極細
  6
CONTINUOUS
 62
    2
 10
1336.9844467906496
 20
1174.0497971187528
 11
1336.9844467906496
 21
1175.9165112962473
  0
LINE
  8
_0-0_計極細
  6
CONTINUOUS
 62
    2
 10
1337.486192894301
 20
1174.9188469335554
 11
1337.486192894301
 21
1175.8839207443189
  0
ARC
  8
_0-0_計極細
  6
CONTINUOUS
 62
    2
 10
1209.0561915253984
 20
1177.8642826044445
 40
54.312365187078854
 50
327.72737804884275
 51
36.099154316385302
  0
ARC
  8
_0-0_計極細
  6
CONTINUOUS
 62
    2
 10
1300.9002552904503
 20
1119.8642826046207
 40
54.312365187078854
 50
147.72737804884292
 51
216.09915431639362
  0
LINE
  8
_0-1_計細線
  6
CONTINUOUS
 62
    3
 10
1120.9792205215031
 20
1201.8642826045293
 11
1120.9792205215031
 21
1193.8642826045293
  0
LINE
  8
_0-1_計細線
  6
CONTINUOUS
 62
    3
 10
1120.9792205215031
 20
1187.8642826045293
 11
1120.9792205215031
 21
1179.8642826045302
  0
LINE
  8
_0-1_計細線
  6
CONTINUOUS
 62
    3
 10
1120.9792205215031
 20
1173.8642826045293
 11
1120.9792205215031
 21
1165.8642826045298
  0
LINE
  8
_0-1_計細線
  6
CONTINUOUS
 62
    3
 10
1120.9792205215031
 20
1159.8642826045293
 11
1120.9792205215031
 21
1151.8642826045298
  0
LINE
  8
_0-1_計細線
  6
CONTINUOUS
 62
    3
 10
1120.9792205215031
 20
1145.8642826045293
 11
1120.9792205215031
 21
1137.8642826045293
  0
LINE
  8
_0-1_計細線
  6
CONTINUOUS
 62
    3
 10
1120.9792205215031
 20
1131.8642826045293
 11
1120.9792205215031
 21
1123.8642826045293
  0
LINE
  8
_0-1_計細線
  6
CONTINUOUS
 62
    3
 10
1120.9792205215031
 20
1117.8642826045293
 11
1120.9792205215031
 21
1109.8642826045293
  0
LINE
  8
_0-1_計細線
  6
CONTINUOUS
 62
    3
 10
1120.9792205215031
 20
1103.8642826045293
 11
1120.9792205215031
 21
1095.8642826045293
  0
LINE
  8
_0-1_計細線
  6
CONTINUOUS
 62
    3
 10
1120.9792205215031
 20
1209.8642826045293
 11
1120.9792205215031
 21
1205.8642826045293
  0
LINE
  8
_0-1_計細線
  6
CONTINUOUS
 62
    3
 10
1120.9792205215031
 20
1091.8642826045293
 11
1120.9792205215031
 21
1087.8642826045293
  0
LINE
  8
_0-1_計細線
  6
CONTINUOUS
 62
    3
 10
1252.9405054907456
 20
1209.8642826045293
 11
1120.9792205215031
 21
1209.8642826045293
  0
LINE
  8
_0-1_計細線
  6
CONTINUOUS
 62
    3
 10
1120.9792205215031
 20
1205.8642826045293
 11
1255.5947025910727
 21
1205.8642826045293
  0
LINE
  8
_0-1_計細線
  6
CONTINUOUS
 62
    3
 10
1257.7781887362125
 20
1201.8642826045293
 11
1120.9792205215031
 21
1201.8642826045293
  0
LINE
  8
_0-1_計細線
  6
CONTINUOUS
 62
    3
 10
1120.9792205215031
 20
1193.8642826045293
 11
1260.9583399608136
 21
1193.8642826045293
  0
LINE
  8
_0-1_計細線
  6
CONTINUOUS
 62
    3
 10
1262.4400187787242
 20
1187.8642826045293
 11
1120.9792205215031
 21
1187.8642826045293
  0
LINE
  8
_0-1_計細線
  6
CONTINUOUS
 62
    3
 10
1120.9792205215031
 20
1179.8642826045302
 11
1263.3317201936143
 21
1179.8642826045302
  0
LINE
  8
_0-1_計細線
  6
CONTINUOUS
 62
    3
 10
1263.2210603262674
 20
1173.8642826045293
 11
1120.9792205215031
 21
1173.8642826045293
  0
LINE
  8
_0-1_計細線
  6
CONTINUOUS
 62
    3
 10
1120.9792205215031
 20
1165.8642826045298
 11
1262.0263058561859
 21
1165.8642826045298
  0
LINE
  8
_0-1_計細線
  6
CONTINUOUS
 62
    3
 10
1260.2990740771993
 20
1159.8642826045293
 11
1120.9792205215031
 21
1159.8642826045293
  0
LINE
  8
_0-1_計細線
  6
CONTINUOUS
 62
    3
 10
1120.9792205215031
 20
1151.8642826045298
 11
1256.7409166710786
 21
1151.8642826045298
  0
LINE
  8
_0-1_計細線
  6
CONTINUOUS
 62
    3
 10
1253.2155301447674
 20
1145.8642826045293
 11
1120.9792205215031
 21
1145.8642826045293
  0
LINE
  8
_0-1_計細線
  6
CONTINUOUS
 62
    3
 10
1120.9792205215031
 20
1137.8642826045293
 11
1249.6573727386476
 21
1137.8642826045293
  0
LINE
  8
_0-1_計細線
  6
CONTINUOUS
 62
    3
 10
1247.9301409596619
 20
1131.8642826045293
 11
1120.9792205215031
 21
1131.8642826045293
  0
LINE
  8
_0-1_計細線
  6
CONTINUOUS
 62
    3
 10
1120.9792205215031
 20
1123.8642826045293
 11
1246.7353864895813
 21
1123.8642826045293
  0
LINE
  8
_0-1_計細線
  6
CONTINUOUS
 62
    3
 10
1246.6247266222354
 20
1117.8642826045293
 11
1120.9792205215031
 21
1117.8642826045293
  0
LINE
  8
_0-1_計細線
  6
CONTINUOUS
 62
    3
 10
1120.9792205215031
 20
1109.8642826045293
 11
1247.5164280371264
 21
1109.8642826045293
  0
LINE
  8
_0-1_計細線
  6
CONTINUOUS
 62
    3
 10
1248.9981068550369
 20
1103.8642826045293
 11
1120.9792205215031
 21
1103.8642826045293
  0
LINE
  8
_0-1_計細線
  6
CONTINUOUS
 62
    3
 10
1120.9792205215031
 20
1095.8642826045293
 11
1252.1782580796398
 21
1095.8642826045293
  0
LINE
  8
_0-1_計細線
  6
CONTINUOUS
 62
    3
 10
1254.3617442247805
 20
1091.8642826045293
 11
1120.9792205215031
 21
1091.8642826045293
  0
LINE
  8
_0-1_計細線
  6
CONTINUOUS
 62
    3
 10
1120.9792205215031
 20
1087.8642826045293
 11
1257.0159413251076
 21
1087.8642826045293
  0
LINE
  8
_0-5_寸法線
  6
CONTINUOUS
 62
    7
 10
819.47922052150295
 20
1060.8642826045293
 11
819.47922052150261
 21
988.86428260452931
  0
LINE
  8
_0-5_寸法線
  6
CONTINUOUS
 62
    7
 10
819.47922052150261
 20
996.86428260452931
 11
834.93403374212767
 21
1001.0053873261696
  0
LINE
  8
_0-5_寸法線
  6
CONTINUOUS
 62
    7
 10
819.47922052150261
 20
996.86428260452931
 11
834.93403374212767
 21
992.72317788288899
  0
LINE
  8
_0-5_寸法線
  6
CONTINUOUS
 62
    7
 10
1335.4792205215026
 20
1060.8642826045293
 11
1335.4792205215026
 21
988.86428260452931
  0
LINE
  8
_0-5_寸法線
  6
CONTINUOUS
 62
    7
 10
1335.4792205215026
 20
996.86428260452931
 11
1320.0244073008776
 21
992.72317788288899
  0
LINE
  8
_0-5_寸法線
  6
CONTINUOUS
 62
    7
 10
1335.4792205215026
 20
996.86428260452931
 11
1320.0244073008776
 21
1001.0053873261697
  0
LINE
  8
_0-5_寸法線
  6
CONTINUOUS
 62
    7
 10
819.47922052150261
 20
996.86428260452931
 11
1335.4792205215026
 21
996.86428260452931
  0
TEXT
  8
_0-5_寸法線
 62
    7
 10
1059.4792205215026
 20
996.86428260452931
 40
24
 41
1
 50
0
  1
516
  0
LINE
  8
_0-5_寸法線
  6
CONTINUOUS
 62
    7
 10
1335.4792205215026
 20
996.86428260452931
 11
1350.9340337421277
 21
1001.0053873261695
  0
LINE
  8
_0-5_寸法線
  6
CONTINUOUS
 62
    7
 10
1335.4792205215026
 20
996.86428260452931
 11
1350.9340337421277
 21
992.72317788288888
  0
LINE
  8
_0-5_寸法線
  6
CONTINUOUS
 62
    7
 10
1415.4792205215026
 20
1060.8642826045293
 11
1415.4792205215026
 21
988.86428260452931
  0
LINE
  8
_0-5_寸法線
  6
CONTINUOUS
 62
    7
 10
1415.4792205215026
 20
996.86428260452931
 11
1400.0244073008776
 21
992.72317788288899
  0
LINE
  8
_0-5_寸法線
  6
CONTINUOUS
 62
    7
 10
1415.4792205215026
 20
996.86428260452931
 11
1400.0244073008776
 21
1001.0053873261697
  0
LINE
  8
_0-5_寸法線
  6
CONTINUOUS
 62
    7
 10
1335.4792205215026
 20
996.86428260452931
 11
1415.4792205215026
 21
996.86428260452931
  0
TEXT
  8
_0-5_寸法線
 62
    7
 10
1363.4792205215026
 20
996.86428260452931
 40
24
 41
1
 50
0
  1
80
  0
LINE
  8
_0-0_計極細
  6
CENTER2
 62
    2
 10
1335.4792205215026
 20
654.95372725407947
 11
1335.4792205215026
 21
1231.5142826045294
  0
LINE
  8
_0-0_計極細
  6
CENTER2
 62
    2
 10
810.30776126367709
 20
1148.8642826045293
 11
1423.3364818903092
 21
1148.8642826045293
  0
LINE
  8
_0-1_計細線
  6
CONTINUOUS
 62
    3
 10
1524.7036124051358
 20
1220.8642826045291
 11
1517.7036124051356
 21
1220.8642826045291
  0
ARC
  8
_0-1_計細線
  6
CONTINUOUS
 62
    3
 10
1517.7036124051358
 20
1219.8642826045291
 40
1
 50
90.000000000013031
 51
179.99999999999983
  0
LINE
  8
_0-1_計細線
  6
CONTINUOUS
 62
    3
 10
1516.7036124051356
 20
1219.8642826045291
 11
1516.7036124051356
 21
1077.8642826045295
  0
ARC
  8
_0-1_計細線
  6
CONTINUOUS
 62
    3
 10
1517.7036124051356
 20
1077.8642826045295
 40
1
 50
179.99999999999983
 51
269.99999999998664
  0
LINE
  8
_0-1_計細線
  6
CONTINUOUS
 62
    3
 10
1524.7036124051358
 20
1076.8642826045295
 11
1524.7036124051358
 21
1220.8642826045291
  0
LINE
  8
_0-1_計細線
  6
CONTINUOUS
 62
    3
 10
1524.7036124051358
 20
1076.8642826045295
 11
1517.7036124051353
 21
1076.8642826045295
  0
LINE
  8
_0-0_計極細
  6
CENTER2
 62
    2
 10
1477.4613060193985
 20
1148.8642826045293
 11
1592.6843276021305
 21
1148.8642826045293
  0
LINE
  8
_0-1_計細線
  6
CONTINUOUS
 62
    3
 10
1542.2036124051351
 20
1199.8642826045293
 11
1542.2036124051351
 21
1148.8642826045291
  0
ARC
  8
_0-1_計細線
  6
CONTINUOUS
 62
    3
 10
1538.7036124051351
 20
1207.8642826045293
 40
0.5
 50
179.99999999999983
 51
269.99999999999977
  0
LINE
  8
_0-1_計細線
  6
CONTINUOUS
 62
    3
 10
1542.2036124051351
 20
1205.8642826045293
 11
1542.2036124051351
 21
1199.8642826045293
  0
LINE
  8
_0-1_計細線
  6
CONTINUOUS
 62
    3
 10
1538.7036124051351
 20
1207.3642826045293
 11
1540.7036124051351
 21
1207.3642826045293
  0
ARC
  8
_0-1_計細線
  6
CONTINUOUS
 62
    3
 10
1540.7036124051351
 20
1205.8642826045293
 40
1.5
 50
0
 51
89.999999999999915
  0
LINE
  8
_0-1_計細線
  6
CONTINUOUS
 62
    3
 10
1542.2036124051351
 20
1097.8642826045291
 11
1542.2036124051351
 21
1148.8642826045291
  0
ARC
  8
_0-1_計細線
  6
CONTINUOUS
 62
    3
 10
1538.7036124051351
 20
1089.8642826045291
 40
0.5
 50
89.999999999999915
 51
179.99999999999983
  0
LINE
  8
_0-1_計細線
  6
CONTINUOUS
 62
    3
 10
1542.2036124051351
 20
1091.8642826045291
 11
1542.2036124051351
 21
1097.8642826045291
  0
LINE
  8
_0-1_計細線
  6
CONTINUOUS
 62
    3
 10
1538.7036124051351
 20
1090.3642826045291
 11
1540.7036124051351
 21
1090.3642826045291
  0
ARC
  8
_0-1_計細線
  6
CONTINUOUS
 62
    3
 10
1540.7036124051351
 20
1091.8642826045291
 40
1.5
 50
269.99999999999977
 51
359.99999999999966
  0
ARC
  8
_0-1_計細線
  6
CONTINUOUS
 62
    3
 10
1537.2036124051351
 20
1087.8642826045295
 40
1
 50
269.99999999999977
 51
359.99999999999966
  0
LINE
  8
_0-1_計細線
  6
CONTINUOUS
 62
    3
 10
1538.2036124051351
 20
1087.8642826045295
 11
1538.2036124051351
 21
1148.8642826045291
  0
ARC
  8
_0-1_計細線
  6
CONTINUOUS
 62
    3
 10
1537.2036124051351
 20
1209.8642826045295
 40
1
 50
0
 51
89.999999999999915
  0
LINE
  8
_0-1_計細線
  6
CONTINUOUS
 62
    3
 10
1538.2036124051353
 20
1209.8642826045295
 11
1538.2036124051351
 21
1148.8642826045291
  0
LINE
  8
_0-1_計細線
  6
CONTINUOUS
 62
    3
 10
1526.2036124051353
 20
1086.8642826045295
 11
1561.2036124051358
 21
1086.8642826045295
  0
LINE
  8
_0-1_計細線
  6
CONTINUOUS
 62
    3
 10
1561.2036124051358
 20
1086.8642826045295
 11
1561.2036124051358
 21
1085.6642826045302
  0
LINE
  8
_0-1_計細線
  6
CONTINUOUS
 62
    3
 10
1561.2036124051358
 20
1085.6642826045302
 11
1526.2036124051353
 21
1085.6642826045302
  0
LINE
  8
_0-1_計細線
  6
CONTINUOUS
 62
    3
 10
1526.2036124051353
 20
1085.6642826045302
 11
1526.2036124051353
 21
1086.8642826045295
  0
LINE
  8
_0-1_計細線
  6
CONTINUOUS
 62
    3
 10
1528.2036124051353
 20
1085.6642826045302
 11
1528.2036124051353
 21
1086.8642826045295
  0
LINE
  8
_0-1_計細線
  6
CONTINUOUS
 62
    3
 10
1538.2036124051353
 20
1085.6642826045302
 11
1538.2036124051353
 21
1086.8642826045295
  0
LINE
  8
_0-1_計細線
  6
CONTINUOUS
 62
    3
 10
1540.2036124051353
 20
1085.6642826045302
 11
1540.2036124051353
 21
1086.8642826045295
  0
LINE
  8
_0-1_計細線
  6
CONTINUOUS
 62
    3
 10
1542.2036124051356
 20
1085.6642826045302
 11
1542.2036124051356
 21
1086.8642826045295
  0
LINE
  8
_0-1_計細線
  6
CONTINUOUS
 62
    3
 10
1544.2036124051353
 20
1085.6642826045302
 11
1544.2036124051353
 21
1086.8642826045295
  0
LINE
  8
_0-1_計細線
  6
CONTINUOUS
 62
    3
 10
1558.2036124051353
 20
1085.6642826045302
 11
1558.2036124051353
 21
1086.8642826045295
  0
LINE
  8
_0-1_計細線
  6
CONTINUOUS
 62
    3
 10
1526.2036124051356
 20
1212.0642826045291
 11
1561.2036124051358
 21
1212.0642826045289
  0
LINE
  8
_0-1_計細線
  6
CONTINUOUS
 62
    3
 10
1561.2036124051358
 20
1212.0642826045289
 11
1561.2036124051358
 21
1210.8642826045293
  0
LINE
  8
_0-1_計細線
  6
CONTINUOUS
 62
    3
 10
1561.2036124051358
 20
1210.8642826045293
 11
1526.2036124051356
 21
1210.8642826045295
  0
LINE
  8
_0-1_計細線
  6
CONTINUOUS
 62
    3
 10
1526.2036124051356
 20
1210.8642826045295
 11
1526.2036124051356
 21
1212.0642826045291
  0
LINE
  8
_0-1_計細線
  6
CONTINUOUS
 62
    3
 10
1528.2036124051356
 20
1210.8642826045295
 11
1528.2036124051356
 21
1212.0642826045291
  0
LINE
  8
_0-1_計細線
  6
CONTINUOUS
 62
    3
 10
1538.2036124051356
 20
1210.8642826045295
 11
1538.2036124051356
 21
1212.0642826045291
  0
LINE
  8
_0-1_計細線
  6
CONTINUOUS
 62
    3
 10
1540.2036124051356
 20
1210.8642826045293
 11
1540.2036124051356
 21
1212.0642826045291
  0
LINE
  8
_0-1_計細線
  6
CONTINUOUS
 62
    3
 10
1542.2036124051356
 20
1210.8642826045293
 11
1542.2036124051356
 21
1212.0642826045291
  0
LINE
  8
_0-1_計細線
  6
CONTINUOUS
 62
    3
 10
1544.2036124051356
 20
1210.8642826045293
 11
1544.2036124051356
 21
1212.0642826045291
  0
LINE
  8
_0-1_計細線
  6
CONTINUOUS
 62
    3
 10
1558.2036124051358
 20
1210.8642826045293
 11
1558.2036124051358
 21
1212.0642826045289
  0
LINE
  8
_0-1_計細線
  6
CONTINUOUS
 62
    3
 10
1537.2036124051351
 20
1210.8642826045295
 11
1524.7036124051358
 21
1210.8642826045295
  0
LINE
  8
_0-1_計細線
  6
CONTINUOUS
 62
    3
 10
1537.2036124051349
 20
1086.8642826045295
 11
1524.7036124051356
 21
1086.8642826045295
  0
LINE
  8
_0-a_極細1
  6
CONTINUOUS
 62
    7
 10
1861.2703120523061
 20
506.47284620872313
 11
1866.6504800691332
 21
511.85301422554892
  0
LINE
  8
_0-a_極細1
  6
CONTINUOUS
 62
    7
 10
1860.9696048378178
 20
494.8584304952509
 11
1877.9641885681162
 21
511.85301422554892
  0
LINE
  8
_0-a_極細1
  6
CONTINUOUS
 62
    7
 10
1853.552330132487
 20
476.12744729093481
 11
1889.2778970671029
 21
511.85301422554892
  0
LINE
  8
_0-a_極細1
  6
CONTINUOUS
 62
    7
 10
1850.6916037671749
 20
461.95301242663697
 11
1900.5916055660859
 21
511.85301422554892
  0
LINE
  8
_0-a_極細1
  6
CONTINUOUS
 62
    7
 10
1851.7895747486295
 20
451.73727490910721
 11
1911.9053140650726
 21
511.85301422554892
  0
LINE
  8
_0-a_極細1
  6
CONTINUOUS
 62
    7
 10
1859.2190225640556
 20
447.85301422554846
 11
1923.2190225640556
 21
511.85301422554892
  0
LINE
  8
_0-a_極細1
  6
CONTINUOUS
 62
    7
 10
1870.5327310630405
 20
447.85301422554846
 11
1934.5327310630405
 21
511.85301422554846
  0
LINE
  8
_0-a_極細1
  6
CONTINUOUS
 62
    7
 10
1881.8464395620254
 20
447.85301422554846
 11
1945.8464395620254
 21
511.85301422554846
  0
LINE
  8
_0-a_極細1
  6
CONTINUOUS
 62
    7
 10
1893.1601480610102
 20
447.85301422554846
 11
1957.1601480610102
 21
511.85301422554846
  0
LINE
  8
_0-a_極細1
  6
CONTINUOUS
 62
    7
 10
1904.4738565599951
 20
447.85301422554846
 11
1968.4738565599951
 21
511.85301422554846
  0
LINE
  8
_0-a_極細1
  6
CONTINUOUS
 62
    7
 10
1915.7875650589799
 20
447.85301422554846
 11
1979.7875650589799
 21
511.85301422554846
  0
LINE
  8
_0-a_極細1
  6
CONTINUOUS
 62
    7
 10
1927.1012735579648
 20
447.85301422554846
 11
1991.1012735579648
 21
511.85301422554846
  0
LINE
  8
_0-a_極細1
  6
CONTINUOUS
 62
    7
 10
1938.4149820569496
 20
447.85301422554846
 11
2002.4149820569496
 21
511.85301422554846
  0
LINE
  8
_0-a_極細1
  6
CONTINUOUS
 62
    7
 10
1949.7286905559345
 20
447.85301422554846
 11
2013.7286905559345
 21
511.85301422554846
  0
LINE
  8
_0-a_極細1
  6
CONTINUOUS
 62
    7
 10
1961.0423990549193
 20
447.85301422554846
 11
2025.0423990549193
 21
511.85301422554846
  0
LINE
  8
_0-a_極細1
  6
CONTINUOUS
 62
    7
 10
1972.3561075539042
 20
447.85301422554846
 11
2036.3561075539042
 21
511.85301422554846
  0
LINE
  8
_0-a_極細1
  6
CONTINUOUS
 62
    7
 10
1983.669816052889
 20
447.85301422554846
 11
2047.669816052889
 21
511.85301422554846
  0
LINE
  8
_0-a_極細1
  6
CONTINUOUS
 62
    7
 10
1994.9835245518739
 20
447.85301422554846
 11
2058.9835245518739
 21
511.85301422554846
  0
LINE
  8
_0-a_極細1
  6
CONTINUOUS
 62
    7
 10
2006.2972330508587
 20
447.85301422554846
 11
2066.9454844572942
 21
508.50126563198398
  0
LINE
  8
_0-a_極細1
  6
CONTINUOUS
 62
    7
 10
2017.6109415498436
 20
447.85301422554846
 11
2067.3053995776886
 21
497.54747225339349
  0
LINE
  8
_0-a_極細1
  6
CONTINUOUS
 62
    7
 10
2028.9246500488284
 20
447.85301422554846
 11
2061.5618459705734
 21
480.49021014729249
  0
LINE
  8
_0-a_極細1
  6
CONTINUOUS
 62
    7
 10
2040.2383585478133
 20
447.85301422554846
 11
2056.7815268036907
 21
464.39618248142585
  0
LINE
  8
_0-a_極細1
  6
CONTINUOUS
 62
    7
 10
2051.5520670467981
 20
447.85301422554846
 11
2057.3493561217988
 21
453.65030330054913
  0
LINE
  8
_0-a_極細1
  6
CONTINUOUS
 62
    7
 10
2062.865775545783
 20
511.85301422554846
 11
2067.082988598168
 21
507.63580117316531
  0
LINE
  8
_0-a_極細1
  6
CONTINUOUS
 62
    7
 10
2051.5520670467999
 20
511.85301422554846
 11
2067.1510948595919
 21
496.25398641275558
  0
LINE
  8
_0-a_極細1
  6
CONTINUOUS
 62
    7
 10
2040.2383585478133
 20
511.85301422554846
 11
2064.8519186586823
 21
487.23945411468037
  0
LINE
  8
_0-a_極細1
  6
CONTINUOUS
 62
    7
 10
2028.9246500488302
 20
511.85301422554846
 11
2061.1216390601007
 21
479.65602521427707
  0
LINE
  8
_0-a_極細1
  6
CONTINUOUS
 62
    7
 10
2017.6109415498436
 20
511.85301422554846
 11
2057.9886622894051
 21
471.47529348598835
  0
LINE
  8
_0-a_極細1
  6
CONTINUOUS
 62
    7
 10
2006.2972330508605
 20
511.85301422554846
 11
2056.6525185917058
 21
461.49772868470325
  0
LINE
  8
_0-a_極細1
  6
CONTINUOUS
 62
    7
 10
1994.9835245518757
 20
511.85301422554846
 11
2058.8417850217361
 21
447.9947537556867
  0
LINE
  8
_0-a_極細1
  6
CONTINUOUS
 62
    7
 10
1983.6698160528908
 20
511.85301422554846
 11
2047.6698160528908
 21
447.85301422554846
  0
LINE
  8
_0-a_極細1
  6
CONTINUOUS
 62
    7
 10
1972.356107553906
 20
511.85301422554846
 11
2036.3561075539042
 21
447.85301422554846
  0
LINE
  8
_0-a_極細1
  6
CONTINUOUS
 62
    7
 10
1961.0423990549211
 20
511.85301422554846
 11
2025.0423990549211
 21
447.85301422554846
  0
LINE
  8
_0-a_極細1
  6
CONTINUOUS
 62
    7
 10
1949.7286905559363
 20
511.85301422554846
 11
2013.7286905559363
 21
447.85301422554846
  0
LINE
  8
_0-a_極細1
  6
CONTINUOUS
 62
    7
 10
1938.4149820569514
 20
511.85301422554846
 11
2002.4149820569514
 21
447.85301422554846
  0
LINE
  8
_0-a_極細1
  6
CONTINUOUS
 62
    7
 10
1927.1012735579666
 20
511.85301422554846
 11
1991.1012735579666
 21
447.85301422554846
  0
LINE
  8
_0-a_極細1
  6
CONTINUOUS
 62
    7
 10
1915.7875650589817
 20
511.85301422554892
 11
1979.7875650589817
 21
447.85301422554846
  0
LINE
  8
_0-a_極細1
  6
CONTINUOUS
 62
    7
 10
1904.4738565599969
 20
511.85301422554892
 11
1968.4738565599969
 21
447.85301422554846
  0
LINE
  8
_0-a_極細1
  6
CONTINUOUS
 62
    7
 10
1893.160148061012
 20
511.85301422554892
 11
1957.160148061012
 21
447.85301422554846
  0
LINE
  8
_0-a_極細1
  6
CONTINUOUS
 62
    7
 10
1881.8464395620272
 20
511.85301422554892
 11
1945.8464395620272
 21
447.85301422554846
  0
LINE
  8
_0-a_極細1
  6
CONTINUOUS
 62
    7
 10
1870.5327310630423
 20
511.85301422554892
 11
1934.5327310630423
 21
447.85301422554846
  0
LINE
  8
_0-a_極細1
  6
CONTINUOUS
 62
    7
 10
1860.5905541493926
 20
510.48148264021563
 11
1923.2190225640575
 21
447.85301422554846
  0
LINE
  8
_0-a_極細1
  6
CONTINUOUS
 62
    7
 10
1861.412275602594
 20
498.34605268802795
 11
1911.9053140650726
 21
447.85301422554846
  0
LINE
  8
_0-a_極細1
  6
CONTINUOUS
 62
    7
 10
1859.4941192787123
 20
488.95050051292571
 11
1900.5916055660896
 21
447.85301422554846
  0
LINE
  8
_0-a_極細1
  6
CONTINUOUS
 62
    7
 10
1855.9678507433514
 20
481.16306054930089
 11
1889.2778970671029
 21
447.85301422554846
  0
LINE
  8
_0-a_極細1
  6
CONTINUOUS
 62
    7
 10
1852.5405020178828
 20
473.27670077578466
 11
1877.9641885681199
 21
447.85301422554846
  0
LINE
  8
_0-a_極細1
  6
CONTINUOUS
 62
    7
 10
1850.7664793626977
 20
463.73701493198485
 11
1866.6504800691332
 21
447.85301422554846
  0
LINE
  8
_0-a_極細1
  6
CONTINUOUS
 62
    7
 10
1851.8986157930017
 20
451.29117000269696
 11
1855.3367715701502
 21
447.85301422554846
  0
ARC
  8
_0-a_極細1
  6
CONTINUOUS
 62
    7
 10
2026.9590005539962
 20
501.70459695909528
 40
40.559999999972042
 50
329.9999999999639
 51
30.000000000012992
  0
ARC
  8
_0-a_極細1
  6
CONTINUOUS
 62
    7
 10
2097.210981308845
 20
461.14459695910853
 40
40.559999999917657
 50
149.99999999994796
 51
210.00000000010346
  0
ARC
  8
_0-a_極細1
  6
CONTINUOUS
 62
    7
 10
1820.9915658070327
 20
501.70459695909528
 40
40.559999999972042
 50
329.99999999996328
 51
30.000000000012331
  0
ARC
  8
_0-a_極細1
  6
CONTINUOUS
 62
    7
 10
1891.2435465618805
 20
461.14459695910853
 40
40.559999999917657
 50
149.99999999994796
 51
210.00000000010346
  0
LINE
  8
_0-b_細線1
  6
CONTINUOUS
 62
    7
 10
2058.8906547388619
 20
447.85301422554846
 11
1852.9232199918974
 21
447.85301422554846
  0
LINE
  8
_0-b_細線1
  6
CONTINUOUS
 62
    7
 10
1860.2614426464593
 20
511.85301422554846
 11
2066.2288773934238
 21
511.85301422554846
  0
LINE
  8
_0-d_寸法1
  6
CONTINUOUS
 62
    7
 10
1838.2423657196746
 20
447.85301422554852
 11
1761.0680941353717
 21
447.85301422554846
  0
LINE
  8
_0-d_寸法1
  6
CONTINUOUS
 62
    7
 10
1769.0680941353717
 20
447.85301422554846
 11
1764.9269894137315
 21
463.30782744617358
  0
LINE
  8
_0-d_寸法1
  6
CONTINUOUS
 62
    7
 10
1769.0680941353717
 20
447.85301422554846
 11
1773.2091988570121
 21
463.30782744617358
  0
LINE
  8
_0-d_寸法1
  6
CONTINUOUS
 62
    7
 10
1844.2614426464575
 20
511.85301422554852
 11
1761.0680941353717
 21
511.85301422554846
  0
LINE
  8
_0-d_寸法1
  6
CONTINUOUS
 62
    7
 10
1769.0680941353717
 20
511.85301422554846
 11
1773.2091988570121
 21
496.39820100492335
  0
LINE
  8
_0-d_寸法1
  6
CONTINUOUS
 62
    7
 10
1769.0680941353717
 20
511.85301422554846
 11
1764.9269894137315
 21
496.39820100492335
  0
LINE
  8
_0-d_寸法1
  6
CONTINUOUS
 62
    7
 10
1769.0680941353717
 20
447.85301422554846
 11
1769.0680941353717
 21
511.85301422554846
  0
TEXT
  8
_0-d_寸法1
 62
    7
 10
1769.0680941353717
 20
473.85301422554846
 40
24
 41
1
 50
90
  1
8
  0
TEXT
  8
_0-7_枠細線
 62
    5
 10
1914.6349561496336
 20
401.33201984568689
 40
28.000000000000004
 41
0.8000000000000001
 50
0
  1
表面形状
  0
TEXT
  8
_0-7_枠細線
 62
    5
 10
1536.8000000000002
 20
239.24855752183862
 40
32
 41
0.5
 50
0
  1
排水ユニット ＳＵＳグレーチング Ｔバー 浅型
  0
TEXT
  8
_0-7_枠細線
 62
    5
 10
2096
 20
108
 40
24
 41
0.6666666666666666
 50
0
  1
２０１９年０４月０１日
  0
LINE
  8
_0-5_寸法線
  6
CONTINUOUS
 62
    7
 10
1516.7036124051356
 20
1236.8642826045291
 11
1516.7036124051358
 21
1364.8642826045291
  0
LINE
  8
_0-5_寸法線
  6
CONTINUOUS
 62
    7
 10
1516.7036124051358
 20
1356.8642826045291
 11
1532.1584256257609
 21
1361.0053873261695
  0
LINE
  8
_0-5_寸法線
  6
CONTINUOUS
 62
    7
 10
1516.7036124051358
 20
1356.8642826045291
 11
1532.1584256257609
 21
1352.7231778828886
  0
LINE
  8
_0-5_寸法線
  6
CONTINUOUS
 62
    7
 10
1561.2036124051358
 20
1228.0642826045291
 11
1561.203612405136
 21
1364.8642826045291
  0
LINE
  8
_0-5_寸法線
  6
CONTINUOUS
 62
    7
 10
1561.203612405136
 20
1356.8642826045291
 11
1545.748799184511
 21
1352.7231778828889
  0
LINE
  8
_0-5_寸法線
  6
CONTINUOUS
 62
    7
 10
1561.203612405136
 20
1356.8642826045291
 11
1545.748799184511
 21
1361.0053873261695
  0
LINE
  8
_0-5_寸法線
  6
CONTINUOUS
 62
    7
 10
1516.7036124051358
 20
1356.8642826045291
 11
1561.203612405136
 21
1356.8642826045291
  0
TEXT
  8
_0-5_寸法線
 62
    7
 10
1514.953612405136
 20
1356.8642826045291
 40
24
 41
1
 50
0
  1
44.5
  0
LINE
  8
_0-5_寸法線
  6
CONTINUOUS
 62
    7
 10
1516.7036124051358
 20
1236.8642826045291
 11
1516.703612405136
 21
1308.8642826045291
  0
LINE
  8
_0-5_寸法線
  6
CONTINUOUS
 62
    7
 10
1516.703612405136
 20
1300.8642826045291
 11
1501.248799184511
 21
1296.7231778828889
  0
LINE
  8
_0-5_寸法線
  6
CONTINUOUS
 62
    7
 10
1516.703612405136
 20
1300.8642826045291
 11
1501.248799184511
 21
1305.0053873261695
  0
LINE
  8
_0-5_寸法線
  6
CONTINUOUS
 62
    7
 10
1538.2036124051356
 20
1228.0642826045291
 11
1538.2036124051358
 21
1308.8642826045291
  0
CIRCLE
  8
_0-5_寸法線
  6
CONTINUOUS
 62
    1
 10
1538.2036124051358
 20
1300.8642826045291
 40
2.3999999999999999
  0
LINE
  8
_0-5_寸法線
  6
CONTINUOUS
 62
    7
 10
1454.2245186871976
 20
1300.8642826045291
 11
1538.2036124051358
 21
1300.8642826045291
  0
TEXT
  8
_0-5_寸法線
 62
    7
 10
1454.2245186871978
 20
1300.851875158558
 40
24
 41
1
 50
0
  1
21.5
  0
LINE
  8
_0-5_寸法線
  6
CONTINUOUS
 62
    7
 10
1561.2036124051358
 20
1228.0642826045291
 11
1561.203612405136
 21
1308.8642826045291
  0
LINE
  8
_0-5_寸法線
  6
CONTINUOUS
 62
    7
 10
1561.203612405136
 20
1300.8642826045291
 11
1576.6584256257611
 21
1305.0053873261693
  0
LINE
  8
_0-5_寸法線
  6
CONTINUOUS
 62
    7
 10
1561.203612405136
 20
1300.8642826045291
 11
1576.6584256257611
 21
1296.7231778828886
  0
LINE
  8
_0-5_寸法線
  6
CONTINUOUS
 62
    7
 10
1538.2036124051358
 20
1300.8642826045291
 11
1609.0559573866228
 21
1300.8642826045291
  0
TEXT
  8
_0-5_寸法線
 62
    7
 10
1585.055957386623
 20
1300.8518751585584
 40
24
 41
1
 50
0
  1
23
  0
LINE
  8
_0-1_計細線
  6
CONTINUOUS
 62
    3
 10
833.97922052150318
 20
1209.8642826045293
 11
830.97922052150318
 21
1209.8642826045293
  0
LINE
  8
_0-1_計細線
  6
CONTINUOUS
 62
    3
 10
830.97922052150318
 20
1209.8642826045293
 11
830.97922052150318
 21
1087.8642826045293
  0
LINE
  8
_0-1_計細線
  6
CONTINUOUS
 62
    3
 10
830.97922052150318
 20
1087.8642826045293
 11
833.97922052150318
 21
1087.8642826045293
  0
LINE
  8
_0-1_計細線
  6
CONTINUOUS
 62
    3
 10
833.97922052150318
 20
1087.8642826045293
 11
833.97922052150318
 21
1209.8642826045293
  0
LINE
  8
_0-1_計細線
  6
CONTINUOUS
 62
    3
 10
833.97922052150318
 20
1201.8642826045293
 11
833.97922052150318
 21
1193.8642826045293
  0
LINE
  8
_0-1_計細線
  6
CONTINUOUS
 62
    3
 10
833.97922052150318
 20
1193.8642826045293
 11
1113.9792205215031
 21
1193.8642826045293
  0
LINE
  8
_0-1_計細線
  6
CONTINUOUS
 62
    3
 10
1113.9792205215031
 20
1193.8642826045293
 11
1113.9792205215031
 21
1201.8642826045293
  0
LINE
  8
_0-1_計細線
  6
CONTINUOUS
 62
    3
 10
1113.9792205215031
 20
1201.8642826045293
 11
833.97922052150318
 21
1201.8642826045293
  0
LINE
  8
_0-1_計細線
  6
CONTINUOUS
 62
    3
 10
833.97922052150318
 20
1187.8642826045293
 11
833.97922052150318
 21
1179.8642826045302
  0
LINE
  8
_0-1_計細線
  6
CONTINUOUS
 62
    3
 10
833.97922052150318
 20
1179.8642826045302
 11
1113.9792205215031
 21
1179.8642826045302
  0
LINE
  8
_0-1_計細線
  6
CONTINUOUS
 62
    3
 10
1113.9792205215031
 20
1179.8642826045302
 11
1113.9792205215031
 21
1187.8642826045293
  0
LINE
  8
_0-1_計細線
  6
CONTINUOUS
 62
    3
 10
1113.9792205215031
 20
1187.8642826045293
 11
833.97922052150318
 21
1187.8642826045293
  0
LINE
  8
_0-1_計細線
  6
CONTINUOUS
 62
    3
 10
833.97922052150318
 20
1173.8642826045293
 11
833.97922052150318
 21
1165.8642826045298
  0
LINE
  8
_0-1_計細線
  6
CONTINUOUS
 62
    3
 10
833.97922052150318
 20
1165.8642826045298
 11
1113.9792205215031
 21
1165.8642826045298
  0
LINE
  8
_0-1_計細線
  6
CONTINUOUS
 62
    3
 10
1113.9792205215031
 20
1165.8642826045298
 11
1113.9792205215031
 21
1173.8642826045293
  0
LINE
  8
_0-1_計細線
  6
CONTINUOUS
 62
    3
 10
1113.9792205215031
 20
1173.8642826045293
 11
833.97922052150318
 21
1173.8642826045293
  0
LINE
  8
_0-1_計細線
  6
CONTINUOUS
 62
    3
 10
833.97922052150318
 20
1159.8642826045293
 11
833.97922052150318
 21
1151.8642826045298
  0
LINE
  8
_0-1_計細線
  6
CONTINUOUS
 62
    3
 10
833.97922052150318
 20
1151.8642826045298
 11
1113.9792205215031
 21
1151.8642826045298
  0
LINE
  8
_0-1_計細線
  6
CONTINUOUS
 62
    3
 10
1113.9792205215031
 20
1151.8642826045298
 11
1113.9792205215031
 21
1159.8642826045293
  0
LINE
  8
_0-1_計細線
  6
CONTINUOUS
 62
    3
 10
1113.9792205215031
 20
1159.8642826045293
 11
833.97922052150318
 21
1159.8642826045293
  0
LINE
  8
_0-1_計細線
  6
CONTINUOUS
 62
    3
 10
833.97922052150318
 20
1145.8642826045293
 11
833.97922052150318
 21
1137.8642826045293
  0
LINE
  8
_0-1_計細線
  6
CONTINUOUS
 62
    3
 10
833.97922052150318
 20
1137.8642826045293
 11
1113.9792205215031
 21
1137.8642826045293
  0
LINE
  8
_0-1_計細線
  6
CONTINUOUS
 62
    3
 10
1113.9792205215031
 20
1137.8642826045293
 11
1113.9792205215031
 21
1145.8642826045293
  0
LINE
  8
_0-1_計細線
  6
CONTINUOUS
 62
    3
 10
1113.9792205215031
 20
1145.8642826045293
 11
833.97922052150318
 21
1145.8642826045293
  0
LINE
  8
_0-1_計細線
  6
CONTINUOUS
 62
    3
 10
833.97922052150318
 20
1131.8642826045293
 11
833.97922052150318
 21
1123.8642826045293
  0
LINE
  8
_0-1_計細線
  6
CONTINUOUS
 62
    3
 10
833.97922052150318
 20
1123.8642826045293
 11
1113.9792205215031
 21
1123.8642826045293
  0
LINE
  8
_0-1_計細線
  6
CONTINUOUS
 62
    3
 10
1113.9792205215031
 20
1123.8642826045293
 11
1113.9792205215031
 21
1131.8642826045293
  0
LINE
  8
_0-1_計細線
  6
CONTINUOUS
 62
    3
 10
1113.9792205215031
 20
1131.8642826045293
 11
833.97922052150318
 21
1131.8642826045293
  0
LINE
  8
_0-1_計細線
  6
CONTINUOUS
 62
    3
 10
833.97922052150318
 20
1117.8642826045293
 11
833.97922052150318
 21
1109.8642826045293
  0
LINE
  8
_0-1_計細線
  6
CONTINUOUS
 62
    3
 10
833.97922052150318
 20
1109.8642826045293
 11
1113.9792205215031
 21
1109.8642826045293
  0
LINE
  8
_0-1_計細線
  6
CONTINUOUS
 62
    3
 10
1113.9792205215031
 20
1109.8642826045293
 11
1113.9792205215031
 21
1117.8642826045293
  0
LINE
  8
_0-1_計細線
  6
CONTINUOUS
 62
    3
 10
1113.9792205215031
 20
1117.8642826045293
 11
833.97922052150318
 21
1117.8642826045293
  0
LINE
  8
_0-1_計細線
  6
CONTINUOUS
 62
    3
 10
833.97922052150318
 20
1103.8642826045293
 11
833.97922052150318
 21
1095.8642826045293
  0
LINE
  8
_0-1_計細線
  6
CONTINUOUS
 62
    3
 10
833.97922052150318
 20
1095.8642826045293
 11
1113.9792205215031
 21
1095.8642826045293
  0
LINE
  8
_0-1_計細線
  6
CONTINUOUS
 62
    3
 10
1113.9792205215031
 20
1095.8642826045293
 11
1113.9792205215031
 21
1103.8642826045293
  0
LINE
  8
_0-1_計細線
  6
CONTINUOUS
 62
    3
 10
1113.9792205215031
 20
1103.8642826045293
 11
833.97922052150318
 21
1103.8642826045293
  0
LINE
  8
_0-1_計細線
  6
CONTINUOUS
 62
    3
 10
833.97922052150318
 20
1209.8642826045293
 11
833.97922052150318
 21
1205.8642826045293
  0
LINE
  8
_0-1_計細線
  6
CONTINUOUS
 62
    3
 10
833.97922052150318
 20
1205.8642826045293
 11
1113.9792205215031
 21
1205.8642826045293
  0
LINE
  8
_0-1_計細線
  6
CONTINUOUS
 62
    3
 10
1113.9792205215031
 20
1205.8642826045293
 11
1113.9792205215031
 21
1209.8642826045293
  0
LINE
  8
_0-1_計細線
  6
CONTINUOUS
 62
    3
 10
1113.9792205215031
 20
1209.8642826045293
 11
833.97922052150318
 21
1209.8642826045293
  0
LINE
  8
_0-1_計細線
  6
CONTINUOUS
 62
    3
 10
833.97922052150318
 20
1091.8642826045293
 11
833.97922052150318
 21
1087.8642826045293
  0
LINE
  8
_0-1_計細線
  6
CONTINUOUS
 62
    3
 10
833.97922052150318
 20
1087.8642826045293
 11
1113.9792205215031
 21
1087.8642826045293
  0
LINE
  8
_0-1_計細線
  6
CONTINUOUS
 62
    3
 10
1113.9792205215031
 20
1087.8642826045293
 11
1113.9792205215031
 21
1091.8642826045293
  0
LINE
  8
_0-1_計細線
  6
CONTINUOUS
 62
    3
 10
1113.9792205215031
 20
1091.8642826045293
 11
833.97922052150318
 21
1091.8642826045293
  0
LINE
  8
_0-5_寸法線
  6
CONTINUOUS
 62
    7
 10
830.97922052150318
 20
1236.8642826045293
 11
830.97922052150318
 21
1364.8642826045293
  0
LINE
  8
_0-5_寸法線
  6
CONTINUOUS
 62
    7
 10
830.97922052150318
 20
1356.8642826045293
 11
846.43403374212824
 21
1361.0053873261697
  0
LINE
  8
_0-5_寸法線
  6
CONTINUOUS
 62
    7
 10
830.97922052150318
 20
1356.8642826045293
 11
846.43403374212824
 21
1352.7231778828889
  0
LINE
  8
_0-5_寸法線
  6
CONTINUOUS
 62
    7
 10
1116.9792205215031
 20
1236.8642826045293
 11
1116.9792205215031
 21
1364.8642826045293
  0
LINE
  8
_0-5_寸法線
  6
CONTINUOUS
 62
    7
 10
1116.9792205215031
 20
1356.8642826045293
 11
1101.524407300878
 21
1352.7231778828891
  0
LINE
  8
_0-5_寸法線
  6
CONTINUOUS
 62
    7
 10
1116.9792205215031
 20
1356.8642826045293
 11
1101.524407300878
 21
1361.0053873261697
  0
LINE
  8
_0-5_寸法線
  6
CONTINUOUS
 62
    7
 10
830.97922052150318
 20
1356.8642826045293
 11
1116.9792205215031
 21
1356.8642826045293
  0
TEXT
  8
_0-5_寸法線
 62
    7
 10
955.97922052150307
 20
1356.8642826045293
 40
24
 41
1
 50
0
  1
286
  0
LINE
  8
_0-5_寸法線
  6
CONTINUOUS
 62
    7
 10
1117.9792205215031
 20
1236.8642826045293
 11
1117.9792205215031
 21
1364.8642826045293
  0
LINE
  8
_0-5_寸法線
  6
CONTINUOUS
 62
    7
 10
1117.9792205215031
 20
1356.8642826045293
 11
1133.4340337421281
 21
1361.0053873261697
  0
LINE
  8
_0-5_寸法線
  6
CONTINUOUS
 62
    7
 10
1117.9792205215031
 20
1356.8642826045293
 11
1133.4340337421281
 21
1352.7231778828889
  0
LINE
  8
_0-5_寸法線
  6
CONTINUOUS
 62
    7
 10
1403.9792205215031
 20
1236.8642826045293
 11
1403.9792205215033
 21
1364.8642826045293
  0
LINE
  8
_0-5_寸法線
  6
CONTINUOUS
 62
    7
 10
1403.9792205215033
 20
1356.8642826045293
 11
1388.5244073008782
 21
1352.7231778828891
  0
LINE
  8
_0-5_寸法線
  6
CONTINUOUS
 62
    7
 10
1403.9792205215033
 20
1356.8642826045293
 11
1388.5244073008782
 21
1361.0053873261697
  0
LINE
  8
_0-5_寸法線
  6
CONTINUOUS
 62
    7
 10
1117.9792205215031
 20
1356.8642826045293
 11
1403.9792205215033
 21
1356.8642826045293
  0
TEXT
  8
_0-5_寸法線
 62
    7
 10
1242.9792205215031
 20
1356.8642826045293
 40
24
 41
1
 50
0
  1
286
  0
LINE
  8
_0-0_計極細
  6
CONTINUOUS
 62
    2
 10
926.47922060951771
 20
1193.8642826045293
 11
926.47922060951771
 21
1187.8642826045293
  0
LINE
  8
_0-0_計極細
  6
CONTINUOUS
 62
    2
 10
921.47922060951771
 20
1187.8642826045293
 11
921.47922060951771
 21
1193.8642826045293
  0
LINE
  8
_0-0_計極細
  6
CONTINUOUS
 62
    2
 10
926.47922060951771
 20
1179.8642826045293
 11
926.47922060951771
 21
1173.8642826045293
  0
LINE
  8
_0-0_計極細
  6
CONTINUOUS
 62
    2
 10
921.47922060951771
 20
1173.8642826045293
 11
921.47922060951771
 21
1179.8642826045293
  0
LINE
  8
_0-0_計極細
  6
CONTINUOUS
 62
    2
 10
926.47922060951771
 20
1165.8642826045293
 11
926.47922060951771
 21
1159.8642826045289
  0
LINE
  8
_0-0_計極細
  6
CONTINUOUS
 62
    2
 10
921.47922060951771
 20
1159.8642826045284
 11
921.47922060951771
 21
1165.8642826045293
  0
LINE
  8
_0-0_計極細
  6
CONTINUOUS
 62
    2
 10
926.47922060951771
 20
1151.8642826045293
 11
926.47922060951771
 21
1145.8642826045289
  0
LINE
  8
_0-0_計極細
  6
CONTINUOUS
 62
    2
 10
921.47922060951771
 20
1145.8642826045284
 11
921.47922060951771
 21
1151.8642826045293
  0
LINE
  8
_0-0_計極細
  6
CONTINUOUS
 62
    2
 10
926.47922060951771
 20
1137.8642826045293
 11
926.47922060951771
 21
1131.8642826045289
  0
LINE
  8
_0-0_計極細
  6
CONTINUOUS
 62
    2
 10
921.47922060951771
 20
1131.8642826045284
 11
921.47922060951771
 21
1137.8642826045293
  0
LINE
  8
_0-0_計極細
  6
CONTINUOUS
 62
    2
 10
926.47922060951771
 20
1123.8642826045293
 11
926.47922060951771
 21
1117.8642826045289
  0
LINE
  8
_0-0_計極細
  6
CONTINUOUS
 62
    2
 10
921.47922060951771
 20
1117.8642826045284
 11
921.47922060951771
 21
1123.8642826045293
  0
LINE
  8
_0-0_計極細
  6
CONTINUOUS
 62
    2
 10
926.47922060951771
 20
1109.8642826045293
 11
926.47922060951771
 21
1103.8642826045289
  0
LINE
  8
_0-0_計極細
  6
CONTINUOUS
 62
    2
 10
921.47922060951771
 20
1103.8642826045284
 11
921.47922060951771
 21
1109.8642826045293
  0
LINE
  8
_0-0_計極細
  6
CONTINUOUS
 62
    2
 10
926.47922060951771
 20
1205.8642826045293
 11
926.47922060951771
 21
1201.8642826045293
  0
LINE
  8
_0-0_計極細
  6
CONTINUOUS
 62
    2
 10
921.47922060951771
 20
1201.8642826045293
 11
921.47922060951771
 21
1205.8642826045293
  0
LINE
  8
_0-0_計極細
  6
CONTINUOUS
 62
    2
 10
926.47922060951771
 20
1095.8642826045293
 11
926.47922060951771
 21
1091.8642826045289
  0
LINE
  8
_0-0_計極細
  6
CONTINUOUS
 62
    2
 10
921.47922060951771
 20
1091.8642826045284
 11
921.47922060951771
 21
1095.8642826045293
  0
LINE
  8
_0-0_計極細
  6
CENTER2
 62
    2
 10
923.97922060951771
 20
1207.8642826045293
 11
923.97922051509397
 21
1089.8642826045293
  0
LINE
  8
_0-0_計極細
  6
CONTINUOUS
 62
    2
 10
1026.4792201808632
 20
1193.8642826045293
 11
1026.4792201808632
 21
1187.8642826045293
  0
LINE
  8
_0-0_計極細
  6
CONTINUOUS
 62
    2
 10
1021.4792201808633
 20
1187.8642826045293
 11
1021.4792201808633
 21
1193.8642826045293
  0
LINE
  8
_0-0_計極細
  6
CONTINUOUS
 62
    2
 10
1026.4792201808632
 20
1179.8642826045293
 11
1026.4792201808632
 21
1173.8642826045293
  0
LINE
  8
_0-0_計極細
  6
CONTINUOUS
 62
    2
 10
1021.4792201808633
 20
1173.8642826045293
 11
1021.4792201808633
 21
1179.8642826045293
  0
LINE
  8
_0-0_計極細
  6
CONTINUOUS
 62
    2
 10
1026.4792201808632
 20
1165.8642826045293
 11
1026.4792201808632
 21
1159.8642826045289
  0
LINE
  8
_0-0_計極細
  6
CONTINUOUS
 62
    2
 10
1021.4792201808633
 20
1159.8642826045284
 11
1021.4792201808633
 21
1165.8642826045293
  0
LINE
  8
_0-0_計極細
  6
CONTINUOUS
 62
    2
 10
1026.4792201808632
 20
1151.8642826045293
 11
1026.4792201808632
 21
1145.8642826045289
  0
LINE
  8
_0-0_計極細
  6
CONTINUOUS
 62
    2
 10
1021.4792201808633
 20
1145.8642826045284
 11
1021.4792201808633
 21
1151.8642826045293
  0
LINE
  8
_0-0_計極細
  6
CONTINUOUS
 62
    2
 10
1026.4792201808632
 20
1137.8642826045293
 11
1026.4792201808632
 21
1131.8642826045289
  0
LINE
  8
_0-0_計極細
  6
CONTINUOUS
 62
    2
 10
1021.4792201808633
 20
1131.8642826045284
 11
1021.4792201808633
 21
1137.8642826045293
  0
LINE
  8
_0-0_計極細
  6
CONTINUOUS
 62
    2
 10
1026.4792201808632
 20
1123.8642826045293
 11
1026.4792201808632
 21
1117.8642826045289
  0
LINE
  8
_0-0_計極細
  6
CONTINUOUS
 62
    2
 10
1021.4792201808633
 20
1117.8642826045284
 11
1021.4792201808633
 21
1123.8642826045293
  0
LINE
  8
_0-0_計極細
  6
CONTINUOUS
 62
    2
 10
1026.4792201808632
 20
1109.8642826045293
 11
1026.4792201808632
 21
1103.8642826045289
  0
LINE
  8
_0-0_計極細
  6
CONTINUOUS
 62
    2
 10
1021.4792201808633
 20
1103.8642826045284
 11
1021.4792201808633
 21
1109.8642826045293
  0
LINE
  8
_0-0_計極細
  6
CONTINUOUS
 62
    2
 10
1026.4792201808632
 20
1205.8642826045293
 11
1026.4792201808632
 21
1201.8642826045293
  0
LINE
  8
_0-0_計極細
  6
CONTINUOUS
 62
    2
 10
1021.4792201808633
 20
1201.8642826045293
 11
1021.4792201808633
 21
1205.8642826045293
  0
LINE
  8
_0-0_計極細
  6
CONTINUOUS
 62
    2
 10
1026.4792201808632
 20
1095.8642826045293
 11
1026.4792201808632
 21
1091.8642826045289
  0
LINE
  8
_0-0_計極細
  6
CONTINUOUS
 62
    2
 10
1021.4792201808633
 20
1091.8642826045284
 11
1021.4792201808633
 21
1095.8642826045293
  0
LINE
  8
_0-0_計極細
  6
CENTER2
 62
    2
 10
1023.9792201808633
 20
1207.8642826045293
 11
1023.9792205632767
 21
1089.8642826045293
  0
LINE
  8
_0-5_寸法線
  6
CONTINUOUS
 62
    7
 10
830.97922052150318
 20
1236.8642826045293
 11
830.97922052150318
 21
1308.8642826045293
  0
LINE
  8
_0-5_寸法線
  6
CONTINUOUS
 62
    7
 10
830.97922052150318
 20
1300.8642826045293
 11
846.43403374212824
 21
1305.0053873261697
  0
LINE
  8
_0-5_寸法線
  6
CONTINUOUS
 62
    7
 10
830.97922052150318
 20
1300.8642826045293
 11
846.43403374212824
 21
1296.7231778828889
  0
LINE
  8
_0-5_寸法線
  6
CONTINUOUS
 62
    7
 10
923.97922051719172
 20
1236.8642826045293
 11
923.97922051719172
 21
1308.8642826045293
  0
LINE
  8
_0-5_寸法線
  6
CONTINUOUS
 62
    7
 10
923.97922051719172
 20
1300.8642826045293
 11
908.52440729656666
 21
1296.7231778828891
  0
LINE
  8
_0-5_寸法線
  6
CONTINUOUS
 62
    7
 10
923.97922051719172
 20
1300.8642826045293
 11
908.52440729656666
 21
1305.0053873261697
  0
LINE
  8
_0-5_寸法線
  6
CONTINUOUS
 62
    7
 10
830.97922052150318
 20
1300.8642826045293
 11
923.97922051719172
 21
1300.8642826045293
  0
TEXT
  8
_0-5_寸法線
 62
    7
 10
865.4792205193479
 20
1300.8642826045293
 40
24
 41
1
 50
0
  1
93
  0
LINE
  8
_0-5_寸法線
  6
CONTINUOUS
 62
    7
 10
923.97922051719172
 20
1300.8642826045293
 11
939.43403373781689
 21
1305.0053873261695
  0
LINE
  8
_0-5_寸法線
  6
CONTINUOUS
 62
    7
 10
923.97922051719172
 20
1300.8642826045293
 11
939.43403373781678
 21
1296.7231778828889
  0
LINE
  8
_0-5_寸法線
  6
CONTINUOUS
 62
    7
 10
1023.9792200885373
 20
1236.8642826045293
 11
1023.9792200885373
 21
1308.8642826045293
  0
LINE
  8
_0-5_寸法線
  6
CONTINUOUS
 62
    7
 10
1023.9792200885373
 20
1300.8642826045293
 11
1008.5244068679123
 21
1296.7231778828891
  0
LINE
  8
_0-5_寸法線
  6
CONTINUOUS
 62
    7
 10
1023.9792200885373
 20
1300.8642826045293
 11
1008.5244068679123
 21
1305.0053873261697
  0
LINE
  8
_0-5_寸法線
  6
CONTINUOUS
 62
    7
 10
923.97922051719172
 20
1300.8642826045293
 11
1023.9792200885373
 21
1300.8642826045293
  0
TEXT
  8
_0-5_寸法線
 62
    7
 10
955.97922030286497
 20
1300.8642826045293
 40
24
 41
1
 50
0
  1
100
  0
LINE
  8
_0-5_寸法線
  6
CONTINUOUS
 62
    7
 10
1023.9792200885373
 20
1300.8642826045293
 11
1039.4340333091625
 21
1305.0053873261695
  0
LINE
  8
_0-5_寸法線
  6
CONTINUOUS
 62
    7
 10
1023.9792200885373
 20
1300.8642826045293
 11
1039.4340333091625
 21
1296.7231778828889
  0
LINE
  8
_0-5_寸法線
  6
CONTINUOUS
 62
    7
 10
1116.9792205215031
 20
1236.8642826045293
 11
1116.9792205215031
 21
1308.8642826045293
  0
LINE
  8
_0-5_寸法線
  6
CONTINUOUS
 62
    7
 10
1116.9792205215031
 20
1300.8642826045293
 11
1101.524407300878
 21
1296.7231778828891
  0
LINE
  8
_0-5_寸法線
  6
CONTINUOUS
 62
    7
 10
1116.9792205215031
 20
1300.8642826045293
 11
1101.524407300878
 21
1305.0053873261697
  0
LINE
  8
_0-5_寸法線
  6
CONTINUOUS
 62
    7
 10
1023.9792200885373
 20
1300.8642826045293
 11
1116.9792205215031
 21
1300.8642826045293
  0
TEXT
  8
_0-5_寸法線
 62
    7
 10
1058.4792203050206
 20
1300.8642826045293
 40
24
 41
1
 50
0
  1
93
  0
LINE
  8
_0-0_計極細
  6
CONTINUOUS
 62
    2
 10
1213.4792206130803
 20
1193.8642826045293
 11
1213.4792206130803
 21
1187.8642826045293
  0
LINE
  8
_0-0_計極細
  6
CONTINUOUS
 62
    2
 10
1208.4792206130803
 20
1187.8642826045293
 11
1208.4792206130803
 21
1193.8642826045293
  0
LINE
  8
_0-0_計極細
  6
CONTINUOUS
 62
    2
 10
1213.4792206130803
 20
1179.8642826045293
 11
1213.4792206130803
 21
1173.8642826045293
  0
LINE
  8
_0-0_計極細
  6
CONTINUOUS
 62
    2
 10
1208.4792206130803
 20
1173.8642826045293
 11
1208.4792206130803
 21
1179.8642826045293
  0
LINE
  8
_0-0_計極細
  6
CONTINUOUS
 62
    2
 10
1213.4792206130803
 20
1165.8642826045293
 11
1213.4792206130803
 21
1159.8642826045289
  0
LINE
  8
_0-0_計極細
  6
CONTINUOUS
 62
    2
 10
1208.4792206130803
 20
1159.8642826045284
 11
1208.4792206130803
 21
1165.8642826045293
  0
LINE
  8
_0-0_計極細
  6
CONTINUOUS
 62
    2
 10
1213.4792206130803
 20
1151.8642826045293
 11
1213.4792206130803
 21
1145.8642826045289
  0
LINE
  8
_0-0_計極細
  6
CONTINUOUS
 62
    2
 10
1208.4792206130803
 20
1145.8642826045284
 11
1208.4792206130803
 21
1151.8642826045293
  0
LINE
  8
_0-0_計極細
  6
CONTINUOUS
 62
    2
 10
1213.4792206130803
 20
1137.8642826045293
 11
1213.4792206130803
 21
1131.8642826045289
  0
LINE
  8
_0-0_計極細
  6
CONTINUOUS
 62
    2
 10
1208.4792206130803
 20
1131.8642826045284
 11
1208.4792206130803
 21
1137.8642826045293
  0
LINE
  8
_0-0_計極細
  6
CONTINUOUS
 62
    2
 10
1213.4792206130803
 20
1123.8642826045293
 11
1213.4792206130803
 21
1117.8642826045289
  0
LINE
  8
_0-0_計極細
  6
CONTINUOUS
 62
    2
 10
1208.4792206130803
 20
1117.8642826045284
 11
1208.4792206130803
 21
1123.8642826045293
  0
LINE
  8
_0-0_計極細
  6
CONTINUOUS
 62
    2
 10
1213.4792206130803
 20
1109.8642826045293
 11
1213.4792206130803
 21
1103.8642826045289
  0
LINE
  8
_0-0_計極細
  6
CONTINUOUS
 62
    2
 10
1208.4792206130803
 20
1103.8642826045284
 11
1208.4792206130803
 21
1109.8642826045293
  0
LINE
  8
_0-0_計極細
  6
CONTINUOUS
 62
    2
 10
1213.4792206130803
 20
1205.8642826045293
 11
1213.4792206130803
 21
1201.8642826045293
  0
LINE
  8
_0-0_計極細
  6
CONTINUOUS
 62
    2
 10
1208.4792206130803
 20
1201.8642826045293
 11
1208.4792206130803
 21
1205.8642826045293
  0
LINE
  8
_0-0_計極細
  6
CONTINUOUS
 62
    2
 10
1213.4792206130803
 20
1095.8642826045293
 11
1213.4792206130803
 21
1091.8642826045289
  0
LINE
  8
_0-0_計極細
  6
CONTINUOUS
 62
    2
 10
1208.4792206130803
 20
1091.8642826045284
 11
1208.4792206130803
 21
1095.8642826045293
  0
LINE
  8
_0-0_計極細
  6
CENTER2
 62
    2
 10
1210.9792206130803
 20
1207.8642826045293
 11
1210.9792205186566
 21
1089.8642826045293
  0
LINE
  8
_0-0_計極細
  6
CENTER2
 62
    2
 10
1310.9792205127469
 20
1207.8642826045293
 11
1310.9792208951603
 21
1089.8642826045293
  0
TEXT
  8
_0-7_枠細線
 62
    5
 10
393.73677134157833
 20
110.22518575130857
 40
40
 41
0.8
 50
0
  1
排水部詳細図
  0
TEXT
  8
_0-7_枠細線
 62
    5
 10
613.91581993530394
 20
110.22518575130857
 40
32
 41
0.6000000000000002
 50
0
  1
Ｓ＝１：４
  0
CIRCLE
  8
_1-1_寸法4
  6
CONTINUOUS
 62
    7
 10
588.51574313697199
 20
550.88226793405568
 40
40
  0
ARC
  8
_0-e_極細4
  6
CONTINUOUS
 62
    6
 10
412.31574313697217
 20
558.19895536060733
 40
1
 50
179.99999999999983
 51
269.99999999999977
  0
LINE
  8
_0-e_極細4
  6
CONTINUOUS
 62
    6
 10
413.51574313697199
 20
557.19895536060733
 11
413.51574313697199
 21
559.19895536060733
  0
ARC
  8
_0-e_極細4
  6
CONTINUOUS
 62
    6
 10
587.51574313697199
 20
558.19895536060733
 40
1
 50
269.99999999999977
 51
359.99999999999966
  0
LINE
  8
_0-e_極細4
  6
CONTINUOUS
 62
    6
 10
586.31574313697217
 20
557.19895536060733
 11
586.31574313697217
 21
559.19895536060733
  0
LINE
  8
_0-e_極細4
  6
CONTINUOUS
 62
    6
 10
444.91574313697345
 20
289.78479392059967
 11
444.74907647030375
 21
299.78479392059967
  0
LINE
  8
_0-e_極細4
  6
CONTINUOUS
 62
    6
 10
499.91574313697072
 20
289.78479392059967
 11
444.91574313697345
 21
289.78479392059967
  0
LINE
  8
_0-e_極細4
  6
CONTINUOUS
 62
    6
 10
416.91574313697345
 20
349.78479392059967
 11
414.91574313697345
 21
349.78479392059967
  0
LINE
  8
_0-e_極細4
  6
CONTINUOUS
 62
    6
 10
405.66574312940372
 20
470.64361443825442
 11
421.41574313697345
 21
470.64361443825442
  0
LINE
  8
_0-e_極細4
  6
CONTINUOUS
 62
    6
 10
445.91574313697345
 20
411.20047992059995
 11
445.91574313697345
 21
529.1490053606077
  0
ARC
  8
_0-e_極細4
  6
CONTINUOUS
 62
    6
 10
447.91574313697072
 20
411.20047992059995
 40
2
 50
179.99999999999983
 51
270.00045836626066
  0
LINE
  8
_0-e_極細4
  6
CONTINUOUS
 62
    6
 10
447.91574313697072
 20
409.20047992059995
 11
499.91574313697072
 21
409.20047992059995
  0
LINE
  8
_0-e_極細4
  6
CONTINUOUS
 62
    6
 10
444.74907713697064
 20
299.78479392059967
 11
417.7157431369709
 21
299.78479392059967
  0
LINE
  8
_0-e_極細4
  6
CONTINUOUS
 62
    6
 10
417.7157431369709
 20
299.78479392059967
 11
416.91574313697345
 21
349.78479392059967
  0
LINE
  8
_0-e_極細4
  6
CONTINUOUS
 62
    6
 10
398.91574313697345
 20
365.78479392059967
 11
398.91574313697345
 21
513.724573360607
  0
ARC
  8
_0-e_極細4
  6
CONTINUOUS
 62
    6
 10
414.91574313697345
 20
365.78479392059967
 40
16
 50
179.99999999999983
 51
269.99999999999977
  0
LINE
  8
_0-e_極細4
  6
CONTINUOUS
 62
    6
 10
444.74907647030375
 20
299.78479392059967
 11
443.91574313697345
 21
349.78479392059967
  0
LINE
  8
_0-e_極細4
  6
CONTINUOUS
 62
    6
 10
419.91574313697345
 20
354.78479392059967
 11
449.91574313697345
 21
354.78479392059967
  0
LINE
  8
_0-e_極細4
  6
CONTINUOUS
 62
    6
 10
403.91574313697345
 20
370.78479392059967
 11
403.91574313697345
 21
472.62792792060031
  0
LINE
  8
_0-e_極細4
  6
CONTINUOUS
 62
    6
 10
448.91574313697345
 20
289.78479392059967
 11
449.91574313697345
 21
354.78479392059967
  0
LINE
  8
_0-e_極細4
  6
CONTINUOUS
 62
    6
 10
443.91574313697345
 20
349.78479392059967
 11
423.91574313697345
 21
349.78479392059967
  0
ARC
  8
_0-e_極細4
  6
CONTINUOUS
 62
    6
 10
419.91574313697345
 20
370.78479392059967
 40
16
 50
179.99999999999983
 51
269.99999999999977
  0
LINE
  8
_0-e_極細4
  6
CONTINUOUS
 62
    6
 10
449.91574313697345
 20
354.78479392059967
 11
499.91574313697072
 21
354.78479392059967
  0
LINE
  8
_0-e_極細4
  6
CONTINUOUS
 62
    6
 10
449.91258513697119
 20
354.57944792060175
 11
449.91574313697345
 21
354.78479392059967
  0
LINE
  8
_0-e_極細4
  6
CONTINUOUS
 62
    6
 10
421.41574313697345
 20
398.78479392059967
 11
421.41574313697345
 21
452.78479392059967
  0
LINE
  8
_0-e_極細4
  6
CONTINUOUS
 62
    6
 10
445.41574313697345
 20
374.78479392059967
 11
449.91574313697345
 21
374.78479392059967
  0
LINE
  8
_0-e_極細4
  6
CONTINUOUS
 62
    6
 10
449.91574313697345
 20
354.78479392059967
 11
449.91574313697345
 21
374.78479392059967
  0
ARC
  8
_0-e_極細4
  6
CONTINUOUS
 62
    6
 10
445.41574313697345
 20
398.78479392059967
 40
24
 50
179.99999999999983
 51
269.99999999999977
  0
ARC
  8
_0-e_極細4
  6
CONTINUOUS
 62
    6
 10
405.91574313697345
 20
472.62792792060031
 40
2
 50
179.99999999999983
 51
262.81924399997456
  0
LINE
  8
_0-e_極細4
  6
CONTINUOUS
 62
    6
 10
403.91574313697345
 20
472.62792792060031
 11
403.91574313697345
 21
526.78482736060698
  0
LINE
  8
_0-e_極細4
  6
CONTINUOUS
 62
    6
 10
423.41574313697345
 20
299.78479392059967
 11
423.91574313697345
 21
349.78479392059967
  0
LINE
  8
_0-e_極細4
  6
CONTINUOUS
 62
    6
 10
497.92259313697139
 20
355.7778979205998
 11
498.0535331369714
 21
374.76422792060043
  0
ARC
  8
_0-e_極細4
  6
CONTINUOUS
 62
    6
 10
496.92261513697156
 20
355.78479392059967
 40
1
 50
269.99999999999977
 51
359.6048630000451
  0
LINE
  8
_0-e_極細4
  6
CONTINUOUS
 62
    6
 10
499.91574313697072
 20
374.78479392059967
 11
498.05367513697126
 21
374.78479392059967
  0
LINE
  8
_0-e_極細4
  6
CONTINUOUS
 62
    6
 10
498.05367513697126
 20
374.78479392059967
 11
445.41574313697345
 21
374.78479392059967
  0
LINE
  8
_0-e_極細4
  6
CONTINUOUS
 62
    6
 10
421.41574313697345
 20
398.78479392059967
 11
421.41574313697345
 21
514.38482736060735
  0
LINE
  8
_0-e_極細4
  6
CONTINUOUS
 62
    6
 10
425.41574313697345
 20
398.78479392059967
 11
425.41574313697345
 21
514.38482736060735
  0
LINE
  8
_0-e_極細4
  6
CONTINUOUS
 62
    6
 10
499.91574313697072
 20
378.78479392059967
 11
445.41574313697345
 21
378.78479392059967
  0
ARC
  8
_0-e_極細4
  6
CONTINUOUS
 62
    6
 10
445.41574313697345
 20
398.78479392059967
 40
20
 50
179.99999999999983
 51
269.99999999999977
  0
LINE
  8
_0-e_極細4
  6
CONTINUOUS
 62
    6
 10
419.41574313697072
 20
543.20051336060726
 11
499.91574313697072
 21
543.20051336060726
  0
LINE
  8
_0-e_極細4
  6
CONTINUOUS
 62
    6
 10
419.41574313697072
 20
534.40051336060708
 11
419.41574313697072
 21
543.20051336060726
  0
LINE
  8
_0-e_極細4
  6
CONTINUOUS
 62
    6
 10
412.91574313697345
 20
543.20051336060726
 11
419.41574313697072
 21
543.20051336060726
  0
LINE
  8
_0-e_極細4
  6
CONTINUOUS
 62
    6
 10
414.91574313697345
 20
534.40051336060708
 11
419.41574313697072
 21
534.40051336060708
  0
LINE
  8
_0-e_極細4
  6
CONTINUOUS
 62
    6
 10
414.91574313697345
 20
532.40051336060708
 11
414.91574313697345
 21
534.40051336060708
  0
ARC
  8
_0-e_極細4
  6
CONTINUOUS
 62
    6
 10
418.91574313697345
 20
532.40051336060708
 40
4
 50
179.99999999999983
 51
269.99999999999977
  0
LINE
  8
_0-e_極細4
  6
CONTINUOUS
 62
    6
 10
418.91574313697345
 20
528.40051336060799
 11
424.91574313697345
 21
528.40051336060799
  0
ARC
  8
_0-e_極細4
  6
CONTINUOUS
 62
    6
 10
399.957743136972
 20
565.69895536060733
 40
2.1000000000000227
 50
4.1509900000034934
 51
89.999999999999915
  0
LINE
  8
_0-e_極細4
  6
CONTINUOUS
 62
    6
 10
399.957743136972
 20
537.15695536060696
 11
399.957743136972
 21
567.79895536060678
  0
LINE
  8
_0-e_極細4
  6
CONTINUOUS
 62
    6
 10
399.957743136972
 20
567.78482626810558
 11
386.11574313697054
 21
569.75634136060683
  0
LINE
  8
_0-e_極細4
  6
CONTINUOUS
 62
    6
 10
393.91574313697345
 20
522.38482736060735
 11
393.91574313697345
 21
538.38482736060644
  0
ARC
  8
_0-e_極細4
  6
CONTINUOUS
 62
    6
 10
388.91574313697345
 20
513.724573360607
 40
10
 50
0
 51
60.000000000000107
  0
LINE
  8
_0-e_極細4
  6
CONTINUOUS
 62
    6
 10
386.11574313697054
 20
538.38482736060644
 11
386.11574313697054
 21
539.49530936060739
  0
LINE
  8
_0-e_極細4
  6
CONTINUOUS
 62
    6
 10
393.91574313697345
 20
538.38482736060644
 11
386.11574313697054
 21
538.38482736060644
  0
LINE
  8
_0-e_極細4
  6
CONTINUOUS
 62
    6
 10
386.11574313697054
 20
539.49530936060739
 11
386.11574313697054
 21
571.14198336060792
  0
LINE
  8
_0-e_極細4
  6
CONTINUOUS
 62
    6
 10
402.91574313697345
 20
528.38482736060735
 11
402.91574313697345
 21
534.19895536060733
  0
LINE
  8
_0-e_極細4
  6
CONTINUOUS
 62
    6
 10
399.957743136972
 20
526.78482736060698
 11
402.91574313697345
 21
528.38482736060735
  0
LINE
  8
_0-e_極細4
  6
CONTINUOUS
 62
    6
 10
386.11574313697054
 20
566.38482736060735
 11
399.957743136972
 21
564.78482736060698
  0
ARC
  8
_0-e_極細4
  6
CONTINUOUS
 62
    6
 10
423.41574313697345
 20
514.38482736060735
 40
2
 50
89.999999999999915
 51
179.99999999999983
  0
ARC
  8
_0-e_極細4
  6
CONTINUOUS
 62
    6
 10
423.41574313697345
 20
514.38482736060735
 40
2
 50
0
 51
89.999999999999915
  0
LINE
  8
_0-e_極細4
  6
CONTINUOUS
 62
    6
 10
499.91574313697072
 20
569.19895536060733
 11
399.957743136972
 21
569.19895536060733
  0
LINE
  8
_0-e_極細4
  6
CONTINUOUS
 62
    6
 10
419.41574313697072
 20
542.19895536060733
 11
411.31574313697217
 21
542.19895536060733
  0
LINE
  8
_0-e_極細4
  6
CONTINUOUS
 62
    6
 10
405.43329513697097
 20
564.19895536060733
 11
407.81574313697217
 21
564.19895536060733
  0
LINE
  8
_0-e_極細4
  6
CONTINUOUS
 62
    6
 10
411.31574313697217
 20
539.59895536060696
 11
411.31574313697217
 21
560.69895536060733
  0
LINE
  8
_0-e_極細4
  6
CONTINUOUS
 62
    6
 10
406.91574313697072
 20
564.19895536060733
 11
406.91574313697072
 21
569.19895536060733
  0
ARC
  8
_0-e_極細4
  6
CONTINUOUS
 62
    6
 10
407.81574313697217
 20
560.69895536060733
 40
3.4999999999999996
 50
0
 51
89.999999999999915
  0
ARC
  8
_0-e_極細4
  6
CONTINUOUS
 62
    6
 10
399.957743136972
 20
565.69895536060733
 40
3.4999999999999996
 50
4.150989999997825
 51
89.999999999999915
  0
ARC
  8
_0-e_極細4
  6
CONTINUOUS
 62
    6
 10
405.43329513697097
 20
566.19895536060733
 40
2
 50
183.35088799997041
 51
269.99999999999977
  0
ARC
  8
_0-e_極細4
  6
CONTINUOUS
 62
    6
 10
405.43329513697097
 20
566.19895536060733
 40
3.3999999999999773
 50
183.35088800000156
 51
269.99999999999977
  0
LINE
  8
_0-e_極細4
  6
CONTINUOUS
 62
    6
 10
405.43329513697097
 20
562.79895536060678
 11
407.81574313697217
 21
562.79895536060678
  0
ARC
  8
_0-e_極細4
  6
CONTINUOUS
 62
    6
 10
407.81574313697217
 20
560.69895536060733
 40
2.1000000000000227
 50
0
 51
89.999999999999915
  0
LINE
  8
_0-e_極細4
  6
CONTINUOUS
 62
    6
 10
409.91574313697345
 20
538.19895536060733
 11
409.91574313697072
 21
560.69895536060733
  0
LINE
  8
_0-e_極細4
  6
CONTINUOUS
 62
    6
 10
399.957743136972
 20
537.15695536060696
 11
402.91574313697345
 21
534.19895536060733
  0
LINE
  8
_0-e_極細4
  6
CONTINUOUS
 62
    6
 10
413.91574313697345
 20
530.19895536060733
 11
413.91574313697345
 21
542.19895536060733
  0
LINE
  8
_0-e_極細4
  6
CONTINUOUS
 62
    6
 10
413.91574313697345
 20
538.19895536060733
 11
409.91574313697345
 21
538.19895536060733
  0
LINE
  8
_0-e_極細4
  6
CONTINUOUS
 62
    6
 10
413.91574313697345
 20
539.59895536060696
 11
411.31574313697217
 21
539.59895536060696
  0
LINE
  8
_0-e_極細4
  6
CONTINUOUS
 62
    6
 10
415.57611113697055
 20
530.19895536060733
 11
413.91574313697345
 21
530.19895536060733
  0
LINE
  8
_0-e_極細4
  6
CONTINUOUS
 62
    6
 10
413.91574313697345
 20
534.19895536060733
 11
402.91574313697345
 21
534.19895536060733
  0
LINE
  8
_0-e_極細4
  6
CONTINUOUS
 62
    6
 10
440.34311713697241
 20
530.79895536060678
 11
430.34311713697241
 21
530.79895536060678
  0
LINE
  8
_0-e_極細4
  6
CONTINUOUS
 62
    6
 10
440.34311713697241
 20
530.79895536060678
 11
440.34311713697241
 21
534.19895536060733
  0
LINE
  8
_0-e_極細4
  6
CONTINUOUS
 62
    6
 10
430.34311713697241
 20
530.79895536060678
 11
430.34311713697241
 21
534.19895536060733
  0
LINE
  8
_0-e_極細4
  6
CONTINUOUS
 62
    6
 10
407.01574313697199
 20
564.59895536060787
 11
407.01574313697199
 21
567.19895536060733
  0
LINE
  8
_0-e_極細4
  6
CONTINUOUS
 62
    6
 10
499.91574313697072
 20
568.19895536060733
 11
408.01574313697199
 21
568.19895536060733
  0
LINE
  8
_0-e_極細4
  6
CONTINUOUS
 62
    6
 10
411.31574313697217
 20
564.19895536060733
 11
407.41574313697072
 21
564.19895536060733
  0
LINE
  8
_0-e_極細4
  6
CONTINUOUS
 62
    6
 10
411.31574313697217
 20
558.19895536060733
 11
411.31574313697217
 21
564.19895536060733
  0
ARC
  8
_0-e_極細4
  6
CONTINUOUS
 62
    6
 10
408.01574313697199
 20
567.19895536060733
 40
1
 50
155.94545099999203
 51
179.99999999999983
  0
ARC
  8
_0-e_極細4
  6
CONTINUOUS
 62
    6
 10
407.41574313697072
 20
564.59895536060787
 40
0.3999999999999772
 50
179.99999999999983
 51
269.99999999999977
  0
ARC
  8
_0-e_極細4
  6
CONTINUOUS
 62
    6
 10
408.01574313697199
 20
567.19895536060733
 40
1
 50
89.999999999999915
 51
155.94545099999203
  0
LINE
  8
_0-e_極細4
  6
CONTINUOUS
 62
    6
 10
499.51574313697199
 20
559.19895536060733
 11
413.51574313697199
 21
559.19895536060733
  0
LINE
  8
_0-e_極細4
  6
CONTINUOUS
 62
    6
 10
499.51574313697199
 20
557.19895536060733
 11
412.31574313697217
 21
557.19895536060733
  0
LINE
  8
_0-e_極細4
  6
CONTINUOUS
 62
    6
 10
499.91574313697072
 20
555.01117536060713
 11
411.61574313697054
 21
555.01117536060713
  0
LINE
  8
_0-e_極細4
  6
CONTINUOUS
 62
    6
 10
420.41574313697345
 20
555.01117536060713
 11
420.41574313697345
 21
554.01117536060713
  0
LINE
  8
_0-e_極細4
  6
CONTINUOUS
 62
    6
 10
413.2157431369709
 20
552.01117536060713
 11
411.61574313697054
 21
555.01117536060713
  0
LINE
  8
_0-e_極細4
  6
CONTINUOUS
 62
    6
 10
421.41574313697345
 20
548.41117536060767
 11
420.41574313697345
 21
549.41117536060767
  0
LINE
  8
_0-e_極細4
  6
CONTINUOUS
 62
    6
 10
420.41574313697345
 20
547.41117536060767
 11
421.41574313697345
 21
548.41117536060767
  0
LINE
  8
_0-e_極細4
  6
CONTINUOUS
 62
    6
 10
420.41574313697345
 20
552.01117536060713
 11
421.41574313697345
 21
553.01117536060713
  0
LINE
  8
_0-e_極細4
  6
CONTINUOUS
 62
    6
 10
421.41574313697345
 20
553.01117536060713
 11
420.41574313697345
 21
554.01117536060713
  0
LINE
  8
_0-e_極細4
  6
CONTINUOUS
 62
    6
 10
499.91574313697072
 20
553.01117536060713
 11
421.41574313697345
 21
553.01117536060713
  0
LINE
  8
_0-e_極細4
  6
CONTINUOUS
 62
    6
 10
499.91574313697072
 20
548.41117536060767
 11
421.41574313697345
 21
548.41117536060767
  0
LINE
  8
_0-e_極細4
  6
CONTINUOUS
 62
    6
 10
499.91574313697072
 20
546.41117536060767
 11
413.2157431369709
 21
546.41117536060767
  0
LINE
  8
_0-e_極細4
  6
CONTINUOUS
 62
    6
 10
413.2157431369709
 20
552.01117536060713
 11
413.2157431369709
 21
546.41117536060767
  0
LINE
  8
_0-e_極細4
  6
CONTINUOUS
 62
    6
 10
420.41574313697345
 20
547.41117536060767
 11
420.41574313697345
 21
546.41117536060767
  0
LINE
  8
_0-e_極細4
  6
CONTINUOUS
 62
    6
 10
420.41574313697345
 20
552.01117536060713
 11
420.41574313697345
 21
549.41117536060767
  0
LINE
  8
_0-e_極細4
  6
CONTINUOUS
 62
    6
 10
412.91574313697345
 20
543.20051336060726
 11
412.91574313697345
 21
546.20051336060726
  0
LINE
  8
_0-e_極細4
  6
CONTINUOUS
 62
    6
 10
412.91574313697345
 20
546.20051336060726
 11
499.91574313697072
 21
546.20051336060726
  0
LINE
  8
_0-e_極細4
  6
CONTINUOUS
 62
    6
 10
412.91574313697345
 20
555.40051336060708
 11
499.91574313697072
 21
555.40051336060708
  0
LINE
  8
_0-e_極細4
  6
CONTINUOUS
 62
    6
 10
412.91574313697345
 20
555.40051336060708
 11
412.91574313697345
 21
557.19895536060733
  0
LINE
  8
_0-e_極細4
  6
CONTINUOUS
 62
    6
 10
445.91574313697345
 20
528.38482736060735
 11
402.91574313697345
 21
528.38482736060735
  0
LINE
  8
_0-e_極細4
  6
CONTINUOUS
 62
    6
 10
445.91574313697345
 20
526.19349936060746
 11
445.91574313697345
 21
529.1490053606077
  0
LINE
  8
_0-e_極細4
  6
CONTINUOUS
 62
    6
 10
399.957743136972
 20
569.19895536060733
 11
386.11574313697054
 21
571.17046938994747
  0
LINE
  8
_0-e_極細4
  6
CONTINUOUS
 62
    6
 10
423.41574313697345
 20
516.38482736060735
 11
445.91574313697345
 21
516.38482736060735
  0
LINE
  8
_0-e_極細4
  6
CONTINUOUS
 62
    6
 10
445.91574313697345
 20
526.78482736060698
 11
399.957743136972
 21
526.78482736060698
  0
LINE
  8
_0-e_極細4
  6
CONTINUOUS
 62
    6
 10
386.11574313697054
 20
569.78482736060698
 11
386.11574313697054
 21
571.17046938994747
  0
LINE
  8
_0-e_極細4
  6
CONTINUOUS
 62
    6
 10
554.91574313697072
 20
289.78479392059967
 11
555.08240980363769
 21
299.78479392059967
  0
LINE
  8
_0-e_極細4
  6
CONTINUOUS
 62
    6
 10
499.91574313697072
 20
289.78479392059967
 11
554.91574313697072
 21
289.78479392059967
  0
LINE
  8
_0-e_極細4
  6
CONTINUOUS
 62
    6
 10
582.91574313697072
 20
349.78479392059967
 11
584.91574313697072
 21
349.78479392059967
  0
LINE
  8
_0-e_極細4
  6
CONTINUOUS
 62
    6
 10
594.16574314454044
 20
470.64361443825442
 11
578.41574313697072
 21
470.64361443825442
  0
LINE
  8
_0-e_極細4
  6
CONTINUOUS
 62
    6
 10
553.91574313697072
 20
411.20047992059995
 11
553.91574313697072
 21
529.1490053606077
  0
ARC
  8
_0-e_極細4
  6
CONTINUOUS
 62
    6
 10
551.91574313697072
 20
411.20047992059995
 40
2
 50
269.99954163373866
 51
359.99999999999966
  0
LINE
  8
_0-e_極細4
  6
CONTINUOUS
 62
    6
 10
551.91574313697072
 20
409.20047992059995
 11
499.91574313697072
 21
409.20047992059995
  0
LINE
  8
_0-e_極細4
  6
CONTINUOUS
 62
    6
 10
555.0824091369708
 20
299.78479392059967
 11
582.11574313697054
 21
299.78479392059967
  0
LINE
  8
_0-e_極細4
  6
CONTINUOUS
 62
    6
 10
582.11574313697054
 20
299.78479392059967
 11
582.91574313697072
 21
349.78479392059967
  0
ARC
  8
_0-e_極細4
  6
CONTINUOUS
 62
    6
 10
584.91574313697072
 20
365.78479392059967
 40
16
 50
269.99999999999977
 51
359.99999999999966
  0
LINE
  8
_0-e_極細4
  6
CONTINUOUS
 62
    6
 10
555.08240980363769
 20
299.78479392059967
 11
555.91574313697072
 21
349.78479392059967
  0
LINE
  8
_0-e_極細4
  6
CONTINUOUS
 62
    6
 10
579.91574313697072
 20
354.78479392059967
 11
549.91574313697072
 21
354.78479392059967
  0
LINE
  8
_0-e_極細4
  6
CONTINUOUS
 62
    6
 10
595.91574313697072
 20
370.78479392059967
 11
595.91574313697072
 21
472.62792792060031
  0
LINE
  8
_0-e_極細4
  6
CONTINUOUS
 62
    6
 10
550.91574313697072
 20
289.78479392059967
 11
549.91574313697072
 21
354.78479392059967
  0
LINE
  8
_0-e_極細4
  6
CONTINUOUS
 62
    6
 10
555.91574313697072
 20
349.78479392059967
 11
575.91574313697072
 21
349.78479392059967
  0
ARC
  8
_0-e_極細4
  6
CONTINUOUS
 62
    6
 10
579.91574313697072
 20
370.78479392059967
 40
16
 50
269.99999999999977
 51
359.99999999999966
  0
LINE
  8
_0-e_極細4
  6
CONTINUOUS
 62
    6
 10
549.91574313697072
 20
354.78479392059967
 11
499.91574313697072
 21
354.78479392059967
  0
LINE
  8
_0-e_極細4
  6
CONTINUOUS
 62
    6
 10
549.91890113697298
 20
354.57944792060175
 11
549.91574313697072
 21
354.78479392059967
  0
LINE
  8
_0-e_極細4
  6
CONTINUOUS
 62
    6
 10
578.41574313697072
 20
398.78479392059967
 11
578.41574313697072
 21
452.78479392059967
  0
LINE
  8
_0-e_極細4
  6
CONTINUOUS
 62
    6
 10
554.41574313697072
 20
374.78479392059967
 11
549.91574313697072
 21
374.78479392059967
  0
LINE
  8
_0-e_極細4
  6
CONTINUOUS
 62
    6
 10
549.91574313697072
 20
354.78479392059967
 11
549.91574313697072
 21
374.78479392059967
  0
ARC
  8
_0-e_極細4
  6
CONTINUOUS
 62
    6
 10
554.41574313697072
 20
398.78479392059967
 40
24
 50
269.99999999999977
 51
359.99999999999966
  0
ARC
  8
_0-e_極細4
  6
CONTINUOUS
 62
    6
 10
593.91574313697072
 20
472.62792792060031
 40
2
 50
277.18075600002476
 51
359.99999999999966
  0
LINE
  8
_0-e_極細4
  6
CONTINUOUS
 62
    6
 10
595.91574313697072
 20
472.62792792060031
 11
595.91574313697072
 21
526.78482736060698
  0
LINE
  8
_0-e_極細4
  6
CONTINUOUS
 62
    6
 10
576.41574313697072
 20
299.78479392059967
 11
575.91574313697072
 21
349.78479392059967
  0
LINE
  8
_0-e_極細4
  6
CONTINUOUS
 62
    6
 10
501.90889313697005
 20
355.7778979205998
 11
501.77795313697277
 21
374.76422792060043
  0
ARC
  8
_0-e_極細4
  6
CONTINUOUS
 62
    6
 10
502.90887113696988
 20
355.78479392059967
 40
1
 50
180.39513699995425
 51
269.99999999999977
  0
LINE
  8
_0-e_極細4
  6
CONTINUOUS
 62
    6
 10
499.91574313697072
 20
374.78479392059967
 11
501.77781113697017
 21
374.78479392059967
  0
LINE
  8
_0-e_極細4
  6
CONTINUOUS
 62
    6
 10
501.77781113697017
 20
374.78479392059967
 11
554.41574313697072
 21
374.78479392059967
  0
LINE
  8
_0-e_極細4
  6
CONTINUOUS
 62
    6
 10
578.41574313697072
 20
398.78479392059967
 11
578.41574313697072
 21
514.38482736060735
  0
LINE
  8
_0-e_極細4
  6
CONTINUOUS
 62
    6
 10
574.41574313697072
 20
398.78479392059967
 11
574.41574313697072
 21
514.38482736060735
  0
LINE
  8
_0-e_極細4
  6
CONTINUOUS
 62
    6
 10
499.91574313697072
 20
378.78479392059967
 11
554.41574313697072
 21
378.78479392059967
  0
ARC
  8
_0-e_極細4
  6
CONTINUOUS
 62
    6
 10
554.41574313697072
 20
398.78479392059967
 40
20
 50
269.99999999999977
 51
359.99999999999966
  0
LINE
  8
_0-e_極細4
  6
CONTINUOUS
 62
    6
 10
580.41574313697072
 20
543.20051336060726
 11
499.91574313697072
 21
543.20051336060726
  0
LINE
  8
_0-e_極細4
  6
CONTINUOUS
 62
    6
 10
580.41574313697072
 20
534.40051336060708
 11
580.41574313697072
 21
543.20051336060726
  0
LINE
  8
_0-e_極細4
  6
CONTINUOUS
 62
    6
 10
586.91574313697072
 20
543.20051336060726
 11
580.41574313697072
 21
543.20051336060726
  0
LINE
  8
_0-e_極細4
  6
CONTINUOUS
 62
    6
 10
584.91574313697072
 20
534.40051336060708
 11
580.41574313697072
 21
534.40051336060708
  0
LINE
  8
_0-e_極細4
  6
CONTINUOUS
 62
    6
 10
584.91574313697072
 20
532.40051336060708
 11
584.91574313697072
 21
534.40051336060708
  0
ARC
  8
_0-e_極細4
  6
CONTINUOUS
 62
    6
 10
580.91574313697072
 20
532.40051336060708
 40
4
 50
269.99999999999977
 51
359.99999999999966
  0
LINE
  8
_0-e_極細4
  6
CONTINUOUS
 62
    6
 10
580.91574313697072
 20
528.40051336060799
 11
574.91574313697072
 21
528.40051336060799
  0
ARC
  8
_0-e_極細4
  6
CONTINUOUS
 62
    6
 10
599.87374313697217
 20
565.69895536060733
 40
2.1000000000000227
 50
89.999999999999915
 51
175.8490100000019
  0
LINE
  8
_0-e_極細4
  6
CONTINUOUS
 62
    6
 10
599.87374313697217
 20
537.15695536060696
 11
599.87374313697217
 21
567.79895536060678
  0
LINE
  8
_0-e_極細4
  6
CONTINUOUS
 62
    6
 10
599.87374313697217
 20
567.78482626810558
 11
613.7157431369709
 21
569.75634136060683
  0
LINE
  8
_0-e_極細4
  6
CONTINUOUS
 62
    6
 10
605.91574313697072
 20
522.38482736060735
 11
605.91574313697072
 21
538.38482736060644
  0
ARC
  8
_0-e_極細4
  6
CONTINUOUS
 62
    6
 10
610.91574313697072
 20
513.724573360607
 40
10
 50
119.99999999999989
 51
179.99999999999983
  0
LINE
  8
_0-e_極細4
  6
CONTINUOUS
 62
    6
 10
613.7157431369709
 20
538.38482736060644
 11
613.7157431369709
 21
539.49530936060739
  0
LINE
  8
_0-e_極細4
  6
CONTINUOUS
 62
    6
 10
605.91574313697072
 20
538.38482736060644
 11
613.7157431369709
 21
538.38482736060644
  0
LINE
  8
_0-e_極細4
  6
CONTINUOUS
 62
    6
 10
613.7157431369709
 20
539.49530936060739
 11
613.7157431369709
 21
571.14198336060792
  0
LINE
  8
_0-e_極細4
  6
CONTINUOUS
 62
    6
 10
596.91574313697072
 20
528.38482736060735
 11
596.91574313697072
 21
534.19895536060733
  0
LINE
  8
_0-e_極細4
  6
CONTINUOUS
 62
    6
 10
599.87374313697217
 20
526.78482736060698
 11
596.91574313697072
 21
528.38482736060735
  0
LINE
  8
_0-e_極細4
  6
CONTINUOUS
 62
    6
 10
613.7157431369709
 20
566.38482736060735
 11
599.87374313697217
 21
564.78482736060698
  0
ARC
  8
_0-e_極細4
  6
CONTINUOUS
 62
    6
 10
576.41574313697072
 20
514.38482736060735
 40
2
 50
0
 51
89.999999999999915
  0
ARC
  8
_0-e_極細4
  6
CONTINUOUS
 62
    6
 10
576.41574313697072
 20
514.38482736060735
 40
2
 50
89.999999999999915
 51
179.99999999999983
  0
LINE
  8
_0-e_極細4
  6
CONTINUOUS
 62
    6
 10
499.91574313697072
 20
569.19895536060733
 11
599.87374313697217
 21
569.19895536060733
  0
LINE
  8
_0-e_極細4
  6
CONTINUOUS
 62
    6
 10
580.41574313697072
 20
542.19895536060733
 11
588.51574313697199
 21
542.19895536060733
  0
LINE
  8
_0-e_極細4
  6
CONTINUOUS
 62
    6
 10
594.39819113697047
 20
564.19895536060733
 11
592.01574313697199
 21
564.19895536060733
  0
LINE
  8
_0-e_極細4
  6
CONTINUOUS
 62
    6
 10
588.51574313697199
 20
539.59895536060696
 11
588.51574313697199
 21
560.69895536060733
  0
LINE
  8
_0-e_極細4
  6
CONTINUOUS
 62
    6
 10
592.91574313697072
 20
564.19895536060733
 11
592.91574313697072
 21
569.19895536060733
  0
ARC
  8
_0-e_極細4
  6
CONTINUOUS
 62
    6
 10
592.01574313697199
 20
560.69895536060733
 40
3.4999999999999996
 50
89.999999999999915
 51
179.99999999999983
  0
ARC
  8
_0-e_極細4
  6
CONTINUOUS
 62
    6
 10
599.87374313697217
 20
565.69895536060733
 40
3.4999999999999996
 50
89.999999999999915
 51
175.84901000000542
  0
ARC
  8
_0-e_極細4
  6
CONTINUOUS
 62
    6
 10
594.39819113697047
 20
566.19895536060733
 40
2
 50
269.99999999999977
 51
356.64911200002888
  0
ARC
  8
_0-e_極細4
  6
CONTINUOUS
 62
    6
 10
594.39819113697047
 20
566.19895536060733
 40
3.3999999999999773
 50
269.99999999999977
 51
356.6491120000004
  0
LINE
  8
_0-e_極細4
  6
CONTINUOUS
 62
    6
 10
594.39819113697047
 20
562.79895536060678
 11
592.01574313697199
 21
562.79895536060678
  0
ARC
  8
_0-e_極細4
  6
CONTINUOUS
 62
    6
 10
592.01574313697199
 20
560.69895536060733
 40
2.1000000000000227
 50
89.999999999999915
 51
179.99999999999983
  0
LINE
  8
_0-e_極細4
  6
CONTINUOUS
 62
    6
 10
589.91574313697072
 20
538.19895536060733
 11
589.91574313697072
 21
560.69895536060733
  0
LINE
  8
_0-e_極細4
  6
CONTINUOUS
 62
    6
 10
599.87374313697217
 20
537.15695536060696
 11
596.91574313697072
 21
534.19895536060733
  0
LINE
  8
_0-e_極細4
  6
CONTINUOUS
 62
    6
 10
585.91574313697072
 20
530.19895536060733
 11
585.91574313697072
 21
542.19895536060733
  0
LINE
  8
_0-e_極細4
  6
CONTINUOUS
 62
    6
 10
585.91574313697072
 20
538.19895536060733
 11
589.91574313697072
 21
538.19895536060733
  0
LINE
  8
_0-e_極細4
  6
CONTINUOUS
 62
    6
 10
585.91574313697072
 20
539.59895536060696
 11
588.51574313697199
 21
539.59895536060696
  0
LINE
  8
_0-e_極細4
  6
CONTINUOUS
 62
    6
 10
584.25537513697088
 20
530.19895536060733
 11
585.91574313697072
 21
530.19895536060733
  0
LINE
  8
_0-e_極細4
  6
CONTINUOUS
 62
    6
 10
585.91574313697072
 20
534.19895536060733
 11
596.91574313697072
 21
534.19895536060733
  0
LINE
  8
_0-e_極細4
  6
CONTINUOUS
 62
    6
 10
559.48836913697176
 20
530.79895536060678
 11
569.48836913697176
 21
530.79895536060678
  0
LINE
  8
_0-e_極細4
  6
CONTINUOUS
 62
    6
 10
559.48836913697176
 20
530.79895536060678
 11
559.48836913697176
 21
534.19895536060733
  0
LINE
  8
_0-e_極細4
  6
CONTINUOUS
 62
    6
 10
569.48836913697176
 20
530.79895536060678
 11
569.48836913697176
 21
534.19895536060733
  0
LINE
  8
_0-e_極細4
  6
CONTINUOUS
 62
    6
 10
592.81574313697217
 20
564.59895536060787
 11
592.81574313697217
 21
567.19895536060733
  0
LINE
  8
_0-e_極細4
  6
CONTINUOUS
 62
    6
 10
499.91574313697072
 20
568.19895536060733
 11
591.81574313696945
 21
568.19895536060733
  0
LINE
  8
_0-e_極細4
  6
CONTINUOUS
 62
    6
 10
588.51574313697199
 20
564.19895536060733
 11
592.41574313697072
 21
564.19895536060733
  0
LINE
  8
_0-e_極細4
  6
CONTINUOUS
 62
    6
 10
588.51574313697199
 20
558.19895536060733
 11
588.51574313697199
 21
564.19895536060733
  0
ARC
  8
_0-e_極細4
  6
CONTINUOUS
 62
    6
 10
591.81574313696945
 20
567.19895536060733
 40
1
 50
0
 51
24.054549000007984
  0
ARC
  8
_0-e_極細4
  6
CONTINUOUS
 62
    6
 10
592.41574313697072
 20
564.59895536060787
 40
0.3999999999999772
 50
269.99999999999977
 51
359.99999999999966
  0
ARC
  8
_0-e_極細4
  6
CONTINUOUS
 62
    6
 10
591.81574313696945
 20
567.19895536060733
 40
1
 50
24.054549000007984
 51
89.999999999999915
  0
LINE
  8
_0-e_極細4
  6
CONTINUOUS
 62
    6
 10
500.31574313696945
 20
559.19895536060733
 11
586.31574313697217
 21
559.19895536060733
  0
LINE
  8
_0-e_極細4
  6
CONTINUOUS
 62
    6
 10
500.31574313696945
 20
557.19895536060733
 11
587.51574313697199
 21
557.19895536060733
  0
LINE
  8
_0-e_極細4
  6
CONTINUOUS
 62
    6
 10
499.91574313697072
 20
555.01117536060713
 11
588.2157431369709
 21
555.01117536060713
  0
LINE
  8
_0-e_極細4
  6
CONTINUOUS
 62
    6
 10
579.41574313697072
 20
555.01117536060713
 11
579.41574313697072
 21
554.01117536060713
  0
LINE
  8
_0-e_極細4
  6
CONTINUOUS
 62
    6
 10
586.61574313697054
 20
552.01117536060713
 11
588.2157431369709
 21
555.01117536060713
  0
LINE
  8
_0-e_極細4
  6
CONTINUOUS
 62
    6
 10
578.41574313697072
 20
548.41117536060767
 11
579.41574313697072
 21
549.41117536060767
  0
LINE
  8
_0-e_極細4
  6
CONTINUOUS
 62
    6
 10
579.41574313697072
 20
547.41117536060767
 11
578.41574313697072
 21
548.41117536060767
  0
LINE
  8
_0-e_極細4
  6
CONTINUOUS
 62
    6
 10
579.41574313697072
 20
552.01117536060713
 11
578.41574313697072
 21
553.01117536060713
  0
LINE
  8
_0-e_極細4
  6
CONTINUOUS
 62
    6
 10
578.41574313697072
 20
553.01117536060713
 11
579.41574313697072
 21
554.01117536060713
  0
LINE
  8
_0-e_極細4
  6
CONTINUOUS
 62
    6
 10
499.91574313697072
 20
553.01117536060713
 11
578.41574313697072
 21
553.01117536060713
  0
LINE
  8
_0-e_極細4
  6
CONTINUOUS
 62
    6
 10
499.91574313697072
 20
548.41117536060767
 11
578.41574313697072
 21
548.41117536060767
  0
LINE
  8
_0-e_極細4
  6
CONTINUOUS
 62
    6
 10
499.91574313697072
 20
546.41117536060767
 11
586.61574313697054
 21
546.41117536060767
  0
LINE
  8
_0-e_極細4
  6
CONTINUOUS
 62
    6
 10
586.61574313697054
 20
552.01117536060713
 11
586.61574313697054
 21
546.41117536060767
  0
LINE
  8
_0-e_極細4
  6
CONTINUOUS
 62
    6
 10
579.41574313697072
 20
547.41117536060767
 11
579.41574313697072
 21
546.41117536060767
  0
LINE
  8
_0-e_極細4
  6
CONTINUOUS
 62
    6
 10
579.41574313697072
 20
552.01117536060713
 11
579.41574313697072
 21
549.41117536060767
  0
LINE
  8
_0-e_極細4
  6
CONTINUOUS
 62
    6
 10
586.91574313697072
 20
543.20051336060726
 11
586.91574313697072
 21
546.20051336060726
  0
LINE
  8
_0-e_極細4
  6
CONTINUOUS
 62
    6
 10
586.91574313697072
 20
546.20051336060726
 11
499.91574313697072
 21
546.20051336060726
  0
LINE
  8
_0-e_極細4
  6
CONTINUOUS
 62
    6
 10
586.91574313697072
 20
555.40051336060708
 11
499.91574313697072
 21
555.40051336060708
  0
LINE
  8
_0-e_極細4
  6
CONTINUOUS
 62
    6
 10
586.91574313697072
 20
555.40051336060708
 11
586.91574313697072
 21
557.19895536060733
  0
LINE
  8
_0-e_極細4
  6
CONTINUOUS
 62
    6
 10
553.91574313697072
 20
528.38482736060735
 11
596.91574313697072
 21
528.38482736060735
  0
LINE
  8
_0-e_極細4
  6
CONTINUOUS
 62
    6
 10
553.91574313697072
 20
526.19349936060746
 11
553.91574313697072
 21
529.1490053606077
  0
LINE
  8
_0-e_極細4
  6
CONTINUOUS
 62
    6
 10
599.87374313697217
 20
569.19895536060733
 11
613.7157431369709
 21
571.17046938994747
  0
LINE
  8
_0-e_極細4
  6
CONTINUOUS
 62
    6
 10
576.41574313697072
 20
516.38482736060735
 11
553.91574313697072
 21
516.38482736060735
  0
LINE
  8
_0-e_極細4
  6
CONTINUOUS
 62
    6
 10
553.91574313697072
 20
526.78482736060698
 11
599.87374313697217
 21
526.78482736060698
  0
LINE
  8
_0-e_極細4
  6
CONTINUOUS
 62
    6
 10
613.7157431369709
 20
569.78482736060698
 11
613.7157431369709
 21
571.17046938994747
  0
LINE
  8
_0-e_極細4
  6
CONTINUOUS
 62
    6
 10
386.11574313697054
 20
571.17046938994747
 11
613.7157431369709
 21
571.17046938994747
  0
LINE
  8
_0-e_極細4
  6
CONTINUOUS
 62
    6
 10
580.05651248432548
 20
299.78479392059967
 11
582.14922656221768
 21
301.87750799849186
  0
LINE
  8
_0-e_極細4
  6
CONTINUOUS
 62
    6
 10
576.40978401479367
 20
300.38070613818877
 11
582.21821258964917
 21
306.18913471304427
  0
LINE
  8
_0-e_極細4
  6
CONTINUOUS
 62
    6
 10
576.36777767135789
 20
304.58134048187117
 11
582.28719861708248
 21
310.50076142759667
  0
LINE
  8
_0-e_極細4
  6
CONTINUOUS
 62
    6
 10
576.3257713279221
 20
308.78197482555265
 11
582.35618464451579
 21
314.81238814214908
  0
LINE
  8
_0-e_極細4
  6
CONTINUOUS
 62
    6
 10
553.08594973584729
 20
289.78479392059967
 11
554.94675658444646
 21
291.64560076919884
  0
LINE
  8
_0-e_極細4
  6
CONTINUOUS
 62
    6
 10
576.28376498448358
 20
312.98260916923596
 11
582.42517067195001
 21
319.12401485670148
  0
LINE
  8
_0-e_極細4
  6
CONTINUOUS
 62
    6
 10
550.88434262048247
 20
291.82582749235303
 11
555.01866574863686
 21
295.96015062050742
  0
LINE
  8
_0-e_極細4
  6
CONTINUOUS
 62
    6
 10
576.2417586410478
 20
317.18324351291835
 11
582.4941566993806
 21
323.43564157125206
  0
LINE
  8
_0-e_極細4
  6
CONTINUOUS
 62
    6
 10
550.82006018582922
 20
296.00418574481887
 11
555.09057491282454
 21
300.27470047181419
  0
LINE
  8
_0-e_極細4
  6
CONTINUOUS
 62
    6
 10
576.19975229760928
 20
321.38387785660075
 11
582.56314272681482
 21
327.74726828580447
  0
LINE
  8
_0-e_極細4
  6
CONTINUOUS
 62
    6
 10
550.75577775117597
 20
300.18254399728471
 11
555.16248407701221
 21
304.58925032312277
  0
LINE
  8
_0-e_極細4
  6
CONTINUOUS
 62
    6
 10
576.15774595417349
 20
325.58451220028405
 11
582.6321287542454
 21
332.05889500035596
  0
LINE
  8
_0-e_極細4
  6
CONTINUOUS
 62
    6
 10
550.69149531652363
 20
304.36090224975146
 11
555.23439324120261
 21
308.90380017443044
  0
LINE
  8
_0-e_極細4
  6
CONTINUOUS
 62
    6
 10
576.11573961073589
 20
329.78514654396554
 11
582.70111478167962
 21
336.37052171490836
  0
LINE
  8
_0-e_極細4
  6
CONTINUOUS
 62
    6
 10
550.62721288187038
 20
308.5392605022173
 11
555.30630240539028
 21
313.21835002573812
  0
LINE
  8
_0-e_極細4
  6
CONTINUOUS
 62
    6
 10
576.0737332673001
 20
333.98578088764884
 11
582.77010080911293
 21
340.68214842946077
  0
LINE
  8
_0-e_極細4
  6
CONTINUOUS
 62
    6
 10
550.56293044721531
 20
312.71761875468314
 11
555.37821156957796
 21
317.53289987704488
  0
LINE
  8
_0-e_極細4
  6
CONTINUOUS
 62
    6
 10
576.03172692386431
 20
338.18641523133124
 11
582.83908683654442
 21
344.99377514401317
  0
LINE
  8
_0-e_極細4
  6
CONTINUOUS
 62
    6
 10
587.9134307413027
 20
350.06811904876963
 11
600.63241800880348
 21
362.7871063162695
  0
LINE
  8
_0-e_極細4
  6
CONTINUOUS
 62
    6
 10
550.49864801256206
 20
316.89597700714899
 11
555.45012073376563
 21
321.84744972835347
  0
LINE
  8
_0-e_極細4
  6
CONTINUOUS
 62
    6
 10
575.98972058042852
 20
342.38704957501363
 11
582.90807286398046
 21
349.30540185856557
  0
LINE
  8
_0-e_極細4
  6
CONTINUOUS
 62
    6
 10
583.38746492601365
 20
349.78479392059967
 11
600.91574313697072
 21
367.31307213155674
  0
LINE
  8
_0-e_極細4
  6
CONTINUOUS
 62
    6
 10
550.43436557790881
 20
321.07433525961574
 11
555.52202989795512
 21
326.16199957966114
  0
LINE
  8
_0-e_極細4
  6
CONTINUOUS
 62
    6
 10
575.94771423699001
 20
346.58768391869694
 11
584.9611546263535
 21
355.60112430805862
  0
LINE
  8
_0-e_極細4
  6
CONTINUOUS
 62
    6
 10
595.09941274951268
 20
365.7393824312187
 11
600.91574313697072
 21
371.55571281867765
  0
LINE
  8
_0-e_極細4
  6
CONTINUOUS
 62
    6
 10
550.37008314325647
 20
325.25269351208158
 11
555.59393906214279
 21
330.47654943096882
  0
LINE
  8
_0-e_極細4
  6
CONTINUOUS
 62
    6
 10
574.90218355177637
 20
349.78479392059967
 11
579.90218355177637
 21
354.78479392059967
  0
LINE
  8
_0-e_極細4
  6
CONTINUOUS
 62
    6
 10
595.91574313697072
 20
370.79835350579674
 11
600.91574313697072
 21
375.79835350579583
  0
LINE
  8
_0-e_極細4
  6
CONTINUOUS
 62
    6
 10
550.30580070860321
 20
329.43105176454742
 11
555.6658482263332
 21
334.79109928227649
  0
LINE
  8
_0-e_極細4
  6
CONTINUOUS
 62
    6
 10
570.65954286465455
 20
349.78479392059967
 11
575.65954286465455
 21
354.78479392059967
  0
LINE
  8
_0-e_極細4
  6
CONTINUOUS
 62
    6
 10
595.91574313697072
 20
375.04099419291492
 11
600.91574313697072
 21
380.04099419291492
  0
LINE
  8
_0-e_極細4
  6
CONTINUOUS
 62
    6
 10
550.24151827394815
 20
333.60941001701326
 11
555.73775739052087
 21
339.10564913358508
  0
LINE
  8
_0-e_極細4
  6
CONTINUOUS
 62
    6
 10
566.41690217753637
 20
349.78479392059967
 11
571.41690217753637
 21
354.78479392059967
  0
LINE
  8
_0-e_極細4
  6
CONTINUOUS
 62
    6
 10
595.91574313697072
 20
379.28363488003492
 11
600.91574313697072
 21
384.28363488003492
  0
LINE
  8
_0-e_極細4
  6
CONTINUOUS
 62
    6
 10
550.17723583929762
 20
337.7877682694791
 11
555.80966655471127
 21
343.42019898489275
  0
LINE
  8
_0-e_極細4
  6
CONTINUOUS
 62
    6
 10
562.17426149041728
 20
349.78479392059967
 11
567.17426149041728
 21
354.78479392059967
  0
LINE
  8
_0-e_極細4
  6
CONTINUOUS
 62
    6
 10
595.91574313697072
 20
383.52627556715402
 11
600.91574313697072
 21
388.52627556715311
  0
LINE
  8
_0-e_極細4
  6
CONTINUOUS
 62
    6
 10
550.11295340464164
 20
341.96612652194494
 11
555.88157571889894
 21
347.73474883620042
  0
LINE
  8
_0-e_極細4
  6
CONTINUOUS
 62
    6
 10
557.93162080329819
 20
349.78479392059967
 11
562.93162080329637
 21
354.78479392059967
  0
LINE
  8
_0-e_極細4
  6
CONTINUOUS
 62
    6
 10
595.91574313697072
 20
387.76891625427402
 11
600.91574313697072
 21
392.76891625427402
  0
LINE
  8
_0-e_極細4
  6
CONTINUOUS
 62
    6
 10
550.0486709699893
 20
346.14448477441078
 11
558.68898011618001
 21
354.78479392059967
  0
LINE
  8
_0-e_極細4
  6
CONTINUOUS
 62
    6
 10
595.91574313697072
 20
392.01155694139311
 11
600.91574313697072
 21
397.0115569413922
  0
LINE
  8
_0-e_極細4
  6
CONTINUOUS
 62
    6
 10
549.98438853533605
 20
350.32284302687663
 11
554.44633942905818
 21
354.78479392059967
  0
LINE
  8
_0-e_極細4
  6
CONTINUOUS
 62
    6
 10
595.91574313697072
 20
396.2541976285122
 11
600.91574313697072
 21
401.2541976285122
  0
LINE
  8
_0-e_極細4
  6
CONTINUOUS
 62
    6
 10
549.9201061006828
 20
354.50120127934247
 11
550.20369874194
 21
354.78479392059967
  0
LINE
  8
_0-e_極細4
  6
CONTINUOUS
 62
    6
 10
595.91574313697072
 20
400.49683831563129
 11
600.91574313697072
 21
405.49683831563129
  0
LINE
  8
_0-e_極細4
  6
CONTINUOUS
 62
    6
 10
595.91574313697072
 20
404.73947900275039
 11
600.91574313697072
 21
409.73947900275039
  0
LINE
  8
_0-e_極細4
  6
CONTINUOUS
 62
    6
 10
595.91574313697072
 20
408.98211968987039
 11
600.91574313697072
 21
413.98211968987039
  0
LINE
  8
_0-e_極細4
  6
CONTINUOUS
 62
    6
 10
595.91574313697072
 20
413.22476037698948
 11
600.91574313697072
 21
418.22476037698857
  0
LINE
  8
_0-e_極細4
  6
CONTINUOUS
 62
    6
 10
595.91574313697072
 20
417.46740106410766
 11
600.91574313697072
 21
422.46740106410766
  0
LINE
  8
_0-e_極細4
  6
CONTINUOUS
 62
    6
 10
595.91574313697072
 20
421.71004175122766
 11
600.91574313697072
 21
426.71004175122766
  0
LINE
  8
_0-e_極細4
  6
CONTINUOUS
 62
    6
 10
595.91574313697072
 20
425.95268243834676
 11
600.91574313697072
 21
430.95268243834676
  0
LINE
  8
_0-e_極細4
  6
CONTINUOUS
 62
    6
 10
595.91574313697072
 20
430.19532312546676
 11
600.91574313697072
 21
435.19532312546676
  0
LINE
  8
_0-e_極細4
  6
CONTINUOUS
 62
    6
 10
595.91574313697072
 20
434.43796381258494
 11
600.91574313697072
 21
439.43796381258585
  0
LINE
  8
_0-e_極細4
  6
CONTINUOUS
 62
    6
 10
595.91574313697072
 20
438.68060449970403
 11
600.91574313697072
 21
443.68060449970403
  0
LINE
  8
_0-e_極細4
  6
CONTINUOUS
 62
    6
 10
595.91574313697072
 20
442.92324518682403
 11
600.91574313697072
 21
447.92324518682403
  0
LINE
  8
_0-e_極細4
  6
CONTINUOUS
 62
    6
 10
595.91574313697072
 20
447.16588587394313
 11
600.91574313697072
 21
452.16588587394313
  0
LINE
  8
_0-e_極細4
  6
CONTINUOUS
 62
    6
 10
595.91574313697072
 20
451.40852656106313
 11
600.91574313697072
 21
456.40852656106313
  0
LINE
  8
_0-e_極細4
  6
CONTINUOUS
 62
    6
 10
595.91574313697072
 20
455.65116724818222
 11
600.91574313697072
 21
460.65116724818131
  0
LINE
  8
_0-e_極細4
  6
CONTINUOUS
 62
    6
 10
595.91574313697072
 20
459.8938079353004
 11
600.91574313697072
 21
464.8938079353004
  0
LINE
  8
_0-e_極細4
  6
CONTINUOUS
 62
    6
 10
595.91574313697072
 20
464.1364486224204
 11
600.91574313697072
 21
469.1364486224204
  0
LINE
  8
_0-e_極細4
  6
CONTINUOUS
 62
    6
 10
595.91574313697072
 20
468.37908930953949
 11
600.91574313697072
 21
473.37908930953949
  0
LINE
  8
_0-e_極細4
  6
CONTINUOUS
 62
    6
 10
595.91574313697072
 20
472.6217299966595
 11
600.91574313697072
 21
477.6217299966595
  0
LINE
  8
_0-e_極細4
  6
CONTINUOUS
 62
    6
 10
595.91574313697072
 20
476.86437068377859
 11
600.91574313697072
 21
481.86437068377768
  0
LINE
  8
_0-e_極細4
  6
CONTINUOUS
 62
    6
 10
595.91574313697072
 20
481.10701137089768
 11
600.91574313697072
 21
486.10701137089677
  0
LINE
  8
_0-e_極細4
  6
CONTINUOUS
 62
    6
 10
595.91574313697072
 20
485.34965205801677
 11
600.91574313697072
 21
490.34965205801677
  0
LINE
  8
_0-e_極細4
  6
CONTINUOUS
 62
    6
 10
595.91574313697072
 20
489.59229274513586
 11
600.91574313697072
 21
494.59229274513586
  0
LINE
  8
_0-e_極細4
  6
CONTINUOUS
 62
    6
 10
595.91574313697072
 20
493.83493343225587
 11
600.91574313697072
 21
498.83493343225587
  0
LINE
  8
_0-e_極細4
  6
CONTINUOUS
 62
    6
 10
595.91574313697072
 20
498.07757411937496
 11
600.91574313697072
 21
503.07757411937496
  0
LINE
  8
_0-e_極細4
  6
CONTINUOUS
 62
    6
 10
595.91574313697072
 20
502.32021480649314
 11
600.91574313697072
 21
507.32021480649314
  0
LINE
  8
_0-e_極細4
  6
CONTINUOUS
 62
    6
 10
595.91574313697072
 20
506.56285549361314
 11
600.91574313697072
 21
511.56285549361309
  0
LINE
  8
_0-e_極細4
  6
CONTINUOUS
 62
    6
 10
595.91574313697072
 20
510.80549618073218
 11
601.1993021358943
 21
516.08905517965661
  0
LINE
  8
_0-e_極細4
  6
CONTINUOUS
 62
    6
 10
595.91574313697072
 20
515.04813686785212
 11
605.91574313697072
 21
525.04813686785212
  0
LINE
  8
_0-e_極細4
  6
CONTINUOUS
 62
    6
 10
595.91574313697072
 20
519.29077755497121
 11
605.91574313697072
 21
529.29077755497121
  0
LINE
  8
_0-e_極細4
  6
CONTINUOUS
 62
    6
 10
595.91574313697072
 20
523.53341824209031
 11
599.1671522554883
 21
526.78482736060698
  0
LINE
  8
_0-e_極細4
  6
CONTINUOUS
 62
    6
 10
599.41518766803199
 20
527.03286277315067
 11
605.91574313697072
 21
533.5334182420894
  0
LINE
  8
_0-e_極細4
  6
CONTINUOUS
 62
    6
 10
610.76715225548685
 20
538.38482736060644
 11
613.7157431369709
 21
541.33341824209049
  0
LINE
  8
_0-e_極細4
  6
CONTINUOUS
 62
    6
 10
596.91574313697072
 20
528.7760589292094
 11
605.91574313697072
 21
537.7760589292094
  0
LINE
  8
_0-e_極細4
  6
CONTINUOUS
 62
    6
 10
606.52451156837049
 20
538.38482736060644
 11
613.7157431369709
 21
545.57605892920958
  0
LINE
  8
_0-e_極細4
  6
CONTINUOUS
 62
    6
 10
596.91574313697072
 20
533.01869961632849
 11
613.7157431369709
 21
549.81869961632867
  0
LINE
  8
_0-e_極細4
  6
CONTINUOUS
 62
    6
 10
599.87374313697217
 20
540.21934030344812
 11
613.7157431369709
 21
554.06134030344776
  0
LINE
  8
_0-e_極細4
  6
CONTINUOUS
 62
    6
 10
599.87374313697217
 20
544.46198099056721
 11
613.7157431369709
 21
558.30398099056777
  0
LINE
  8
_0-e_極細4
  6
CONTINUOUS
 62
    6
 10
599.87374313697217
 20
548.70462167768721
 11
613.7157431369709
 21
562.54662167768686
  0
LINE
  8
_0-e_極細4
  6
CONTINUOUS
 62
    6
 10
599.87374313697217
 20
552.94726236480631
 11
613.25844944900325
 21
566.33196867683739
  0
LINE
  8
_0-e_極細4
  6
CONTINUOUS
 62
    6
 10
599.87374313697217
 20
557.1899030519254
 11
608.46130581306932
 21
565.77746572802164
  0
LINE
  8
_0-e_極細4
  6
CONTINUOUS
 62
    6
 10
599.87374313697217
 20
561.43254373904449
 11
603.66416217713265
 21
565.22296277920771
  0
LINE
  8
_0-e_極細4
  6
CONTINUOUS
 62
    6
 10
584.9611546263535
 20
355.60112430805862
 11
595.09941274951268
 21
365.7393824312187
  0
LINE
  8
_0-e_極細4
  6
CONTINUOUS
 62
    6
 10
579.90218355177637
 20
354.78479392059967
 11
595.91574313697072
 21
370.79835350579583
  0
LINE
  8
_0-e_極細4
  6
CONTINUOUS
 62
    6
 10
575.65954286465455
 20
354.78479392059967
 11
595.91574313697072
 21
375.04099419291492
  0
LINE
  8
_0-e_極細4
  6
CONTINUOUS
 62
    6
 10
571.41690217753637
 20
354.78479392059967
 11
595.91574313697072
 21
379.28363488003492
  0
LINE
  8
_0-e_極細4
  6
CONTINUOUS
 62
    6
 10
567.17426149041728
 20
354.78479392059967
 11
595.91574313697072
 21
383.52627556715402
  0
LINE
  8
_0-e_極細4
  6
CONTINUOUS
 62
    6
 10
562.93162080329819
 20
354.78479392059967
 11
595.91574313697072
 21
387.76891625427402
  0
LINE
  8
_0-e_極細4
  6
CONTINUOUS
 62
    6
 10
558.68898011618001
 20
354.78479392059967
 11
595.91574313697072
 21
392.01155694139311
  0
LINE
  8
_0-e_極細4
  6
CONTINUOUS
 62
    6
 10
554.44633942905818
 20
354.78479392059967
 11
595.91574313697072
 21
396.2541976285122
  0
LINE
  8
_0-e_極細4
  6
CONTINUOUS
 62
    6
 10
550.20369874194
 20
354.78479392059967
 11
595.91574313697072
 21
400.49683831563129
  0
LINE
  8
_0-e_極細4
  6
CONTINUOUS
 62
    6
 10
549.91574313697072
 20
358.73947900275039
 11
595.91574313697072
 21
404.73947900275039
  0
LINE
  8
_0-e_極細4
  6
CONTINUOUS
 62
    6
 10
549.91574313697072
 20
362.98211968987039
 11
563.50692427086904
 21
376.57330082376689
  0
LINE
  8
_0-e_極細4
  6
CONTINUOUS
 62
    6
 10
576.62723623380441
 20
389.69361278670317
 11
595.91574313697072
 21
408.98211968987039
  0
LINE
  8
_0-e_極細4
  6
CONTINUOUS
 62
    6
 10
549.91574313697072
 20
367.22476037698948
 11
557.70180334138274
 21
375.01082058140059
  0
LINE
  8
_0-e_極細4
  6
CONTINUOUS
 62
    6
 10
578.18971647617161
 20
395.49873371618855
 11
595.91574313697072
 21
413.22476037698948
  0
LINE
  8
_0-e_極細4
  6
CONTINUOUS
 62
    6
 10
549.91574313697072
 20
371.46740106410857
 11
553.23313599346181
 21
374.78479392059967
  0
LINE
  8
_0-e_極細4
  6
CONTINUOUS
 62
    6
 10
578.41574313697072
 20
399.96740106410857
 11
595.91574313697072
 21
417.46740106410766
  0
LINE
  8
_0-e_極細4
  6
CONTINUOUS
 62
    6
 10
578.41574313697072
 20
404.21004175122766
 11
595.91574313697072
 21
421.71004175122766
  0
LINE
  8
_0-e_極細4
  6
CONTINUOUS
 62
    6
 10
578.41574313697072
 20
408.45268243834676
 11
595.91574313697072
 21
425.95268243834676
  0
LINE
  8
_0-e_極細4
  6
CONTINUOUS
 62
    6
 10
578.41574313697072
 20
412.69532312546676
 11
595.91574313697072
 21
430.19532312546676
  0
LINE
  8
_0-e_極細4
  6
CONTINUOUS
 62
    6
 10
578.41574313697072
 20
416.93796381258585
 11
595.91574313697072
 21
434.43796381258494
  0
LINE
  8
_0-e_極細4
  6
CONTINUOUS
 62
    6
 10
578.41574313697072
 20
421.18060449970403
 11
595.91574313697072
 21
438.68060449970403
  0
LINE
  8
_0-e_極細4
  6
CONTINUOUS
 62
    6
 10
578.41574313697072
 20
425.42324518682403
 11
595.91574313697072
 21
442.92324518682403
  0
LINE
  8
_0-e_極細4
  6
CONTINUOUS
 62
    6
 10
578.41574313697072
 20
429.66588587394313
 11
595.91574313697072
 21
447.16588587394313
  0
LINE
  8
_0-e_極細4
  6
CONTINUOUS
 62
    6
 10
578.41574313697072
 20
433.90852656106313
 11
595.91574313697072
 21
451.40852656106313
  0
LINE
  8
_0-e_極細4
  6
CONTINUOUS
 62
    6
 10
578.41574313697072
 20
438.15116724818222
 11
595.91574313697072
 21
455.65116724818222
  0
LINE
  8
_0-e_極細4
  6
CONTINUOUS
 62
    6
 10
578.41574313697072
 20
442.39380793530131
 11
595.91574313697072
 21
459.8938079353004
  0
LINE
  8
_0-e_極細4
  6
CONTINUOUS
 62
    6
 10
578.41574313697072
 20
446.6364486224204
 11
595.91574313697072
 21
464.1364486224204
  0
LINE
  8
_0-e_極細4
  6
CONTINUOUS
 62
    6
 10
578.41574313697072
 20
450.8790893095404
 11
595.91574313697072
 21
468.37908930953949
  0
LINE
  8
_0-e_極細4
  6
CONTINUOUS
 62
    6
 10
578.41574313697072
 20
455.1217299966595
 11
593.93762757856746
 21
470.64361443825442
  0
LINE
  8
_0-e_極細4
  6
CONTINUOUS
 62
    6
 10
595.91573350350552
 20
472.62172036319339
 11
595.91574313697072
 21
472.6217299966595
  0
LINE
  8
_0-e_極細4
  6
CONTINUOUS
 62
    6
 10
578.41574313697072
 20
459.36437068377859
 11
589.69498689144837
 21
470.64361443825442
  0
LINE
  8
_0-e_極細4
  6
CONTINUOUS
 62
    6
 10
578.41574313697072
 20
463.60701137089677
 11
585.45234620432745
 21
470.64361443825442
  0
LINE
  8
_0-e_極細4
  6
CONTINUOUS
 62
    6
 10
578.41574313697072
 20
467.84965205801677
 11
581.20970551721109
 21
470.64361443825442
  0
LINE
  8
_0-e_極細4
  6
CONTINUOUS
 62
    6
 10
448.38032225107634
 20
354.78479392059967
 11
449.91574313697345
 21
356.32021480649587
  0
LINE
  8
_0-e_極細4
  6
CONTINUOUS
 62
    6
 10
444.13768156395815
 20
354.78479392059967
 11
449.91574313697345
 21
360.56285549361405
  0
LINE
  8
_0-e_極細4
  6
CONTINUOUS
 62
    6
 10
439.89504087683906
 20
354.78479392059967
 11
449.91574313697345
 21
364.80549618073314
  0
LINE
  8
_0-e_極細4
  6
CONTINUOUS
 62
    6
 10
435.65240018971997
 20
354.78479392059967
 11
449.91574313697345
 21
369.04813686785224
  0
LINE
  8
_0-e_極細4
  6
CONTINUOUS
 62
    6
 10
431.40975950260179
 20
354.78479392059967
 11
449.91574313697345
 21
373.29077755497133
  0
LINE
  8
_0-e_極細4
  6
CONTINUOUS
 62
    6
 10
427.16711881547997
 20
354.78479392059967
 11
447.16711881547997
 21
374.78479392059967
  0
LINE
  8
_0-e_極細4
  6
CONTINUOUS
 62
    6
 10
422.92447812836178
 20
354.78479392059967
 11
443.04214126312888
 21
374.90245705536677
  0
LINE
  8
_0-e_極細4
  6
CONTINUOUS
 62
    6
 10
418.72612356577463
 20
354.8290800451316
 11
439.43816070414357
 21
375.54111718350146
  0
LINE
  8
_0-e_極細4
  6
CONTINUOUS
 62
    6
 10
415.16177071923755
 20
355.50736788571362
 11
436.25592203315171
 21
376.60151919962959
  0
LINE
  8
_0-e_極細4
  6
CONTINUOUS
 62
    6
 10
412.18702602947758
 20
356.77526388307456
 11
433.41333620489456
 21
378.00157405849063
  0
LINE
  8
_0-e_極細4
  6
CONTINUOUS
 62
    6
 10
409.66711150029039
 20
358.49799004100555
 11
430.86664718742429
 21
379.69752572814036
  0
LINE
  8
_0-e_極細4
  6
CONTINUOUS
 62
    6
 10
407.55362082840873
 20
360.62714005624298
 11
428.59358949034356
 21
381.66710871817781
  0
LINE
  8
_0-e_極細4
  6
CONTINUOUS
 62
    6
 10
405.84743426509374
 20
363.16359418004708
 11
426.58677156737974
 21
383.90293148233491
  0
LINE
  8
_0-e_極細4
  6
CONTINUOUS
 62
    6
 10
404.59929301593945
 20
366.15809361801371
 11
424.85174561973542
 21
386.41054622180786
  0
LINE
  8
_0-e_極細4
  6
CONTINUOUS
 62
    6
 10
403.94919915914795
 20
369.75064044834039
 11
423.40844543441506
 21
389.2098867236075
  0
LINE
  8
_0-e_極細4
  6
CONTINUOUS
 62
    6
 10
403.91574313697345
 20
373.95982511328498
 11
422.29696123219799
 21
392.34104320851043
  0
LINE
  8
_0-e_極細4
  6
CONTINUOUS
 62
    6
 10
403.91574313697345
 20
378.20246580040316
 11
421.59229905533027
 21
395.87902171876362
  0
LINE
  8
_0-e_極細4
  6
CONTINUOUS
 62
    6
 10
403.91574313697345
 20
382.44510648752225
 11
421.41574313697345
 21
399.94510648752225
  0
LINE
  8
_0-e_極細4
  6
CONTINUOUS
 62
    6
 10
403.91574313697345
 20
386.68774717464134
 11
421.41574313697345
 21
404.18774717464225
  0
LINE
  8
_0-e_極細4
  6
CONTINUOUS
 62
    6
 10
403.91574313697345
 20
390.93038786176044
 11
421.41574313697345
 21
408.43038786176135
  0
LINE
  8
_0-e_極細4
  6
CONTINUOUS
 62
    6
 10
403.91574313697345
 20
395.17302854888135
 11
421.41574313697345
 21
412.67302854888135
  0
LINE
  8
_0-e_極細4
  6
CONTINUOUS
 62
    6
 10
403.91574313697345
 20
399.41566923599953
 11
421.41574313697345
 21
416.91566923599953
  0
LINE
  8
_0-e_極細4
  6
CONTINUOUS
 62
    6
 10
403.91574313697345
 20
403.65830992311862
 11
421.41574313697345
 21
421.15830992311862
  0
LINE
  8
_0-e_極細4
  6
CONTINUOUS
 62
    6
 10
403.91574313697345
 20
407.90095061023771
 11
421.41574313697345
 21
425.40095061023771
  0
LINE
  8
_0-e_極細4
  6
CONTINUOUS
 62
    6
 10
403.91574313697345
 20
412.14359129735681
 11
421.41574313697345
 21
429.64359129735772
  0
LINE
  8
_0-e_極細4
  6
CONTINUOUS
 62
    6
 10
403.91574313697345
 20
416.38623198447772
 11
421.41574313697345
 21
433.88623198447772
  0
LINE
  8
_0-e_極細4
  6
CONTINUOUS
 62
    6
 10
403.91574313697345
 20
420.6288726715959
 11
421.41574313697345
 21
438.12887267159499
  0
LINE
  8
_0-e_極細4
  6
CONTINUOUS
 62
    6
 10
403.91574313697345
 20
424.87151335871499
 11
421.41574313697345
 21
442.37151335871499
  0
LINE
  8
_0-e_極細4
  6
CONTINUOUS
 62
    6
 10
403.91574313697345
 20
429.11415404583499
 11
421.41574313697345
 21
446.61415404583408
  0
LINE
  8
_0-e_極細4
  6
CONTINUOUS
 62
    6
 10
403.91574313697345
 20
433.35679473295409
 11
421.41574313697345
 21
450.85679473295318
  0
LINE
  8
_0-e_極細4
  6
CONTINUOUS
 62
    6
 10
403.91574313697345
 20
437.59943542007409
 11
421.41574313697345
 21
455.09943542007409
  0
LINE
  8
_0-e_極細4
  6
CONTINUOUS
 62
    6
 10
403.91574313697345
 20
441.84207610719227
 11
421.41574313697345
 21
459.34207610719227
  0
LINE
  8
_0-e_極細4
  6
CONTINUOUS
 62
    6
 10
403.91574313697345
 20
446.08471679431136
 11
421.41574313697345
 21
463.58471679431136
  0
LINE
  8
_0-e_極細4
  6
CONTINUOUS
 62
    6
 10
403.91574313697345
 20
450.32735748143045
 11
421.41574313697345
 21
467.82735748143136
  0
LINE
  8
_0-e_極細4
  6
CONTINUOUS
 62
    6
 10
403.91574313697345
 20
454.56999816855046
 11
419.98935940667741
 21
470.64361443825442
  0
LINE
  8
_0-e_極細4
  6
CONTINUOUS
 62
    6
 10
403.91574313697345
 20
458.81263885567046
 11
415.7467187195565
 21
470.64361443825442
  0
LINE
  8
_0-e_極細4
  6
CONTINUOUS
 62
    6
 10
403.91574313697345
 20
463.05527954278864
 11
411.50407803243741
 21
470.64361443825442
  0
LINE
  8
_0-e_極細4
  6
CONTINUOUS
 62
    6
 10
403.91574313697345
 20
467.29792022990773
 11
407.26143734531831
 21
470.64361443825442
  0
LINE
  8
_0-e_極細4
  6
CONTINUOUS
 62
    6
 10
403.91574313697345
 20
471.54056091702682
 11
404.120854543777
 21
471.74567232383401
  0
LINE
  8
_0-e_極細4
  6
CONTINUOUS
 62
    6
 10
447.01993255786545
 20
289.78479392059967
 11
448.94536517726954
 21
291.71022654000376
  0
LINE
  8
_0-e_極細4
  6
CONTINUOUS
 62
    6
 10
444.88068655883706
 20
291.88818860868946
 11
449.0116564380063
 21
296.0191584878587
  0
LINE
  8
_0-e_極細4
  6
CONTINUOUS
 62
    6
 10
444.8111350721623
 20
296.06127780913562
 11
449.07794769874306
 21
300.32809043571456
  0
LINE
  8
_0-e_極細4
  6
CONTINUOUS
 62
    6
 10
444.74158358549028
 20
300.23436700957996
 11
449.14423895947982
 21
304.63702238357041
  0
LINE
  8
_0-e_極細4
  6
CONTINUOUS
 62
    6
 10
444.67203209881552
 20
304.4074562100252
 11
449.21053022021658
 21
308.94595433142536
  0
LINE
  8
_0-e_極細4
  6
CONTINUOUS
 62
    6
 10
444.60248061214077
 20
308.58054541047136
 11
449.27682148095334
 21
313.25488627928121
  0
LINE
  8
_0-e_極細4
  6
CONTINUOUS
 62
    6
 10
444.53292912546601
 20
312.7536346109157
 11
449.34311274168738
 21
317.56381822713706
  0
LINE
  8
_0-e_極細4
  6
CONTINUOUS
 62
    6
 10
444.46337763879126
 20
316.92672381136094
 11
449.40940400242414
 21
321.87275017499201
  0
LINE
  8
_0-e_極細4
  6
CONTINUOUS
 62
    6
 10
423.07880706091271
 20
299.78479392059967
 11
423.4191465316793
 21
300.12513339136808
  0
LINE
  8
_0-e_極細4
  6
CONTINUOUS
 62
    6
 10
444.39382615211832
 20
321.09981301180619
 11
449.4756952631609
 21
326.18168212284786
  0
LINE
  8
_0-e_極細4
  6
CONTINUOUS
 62
    6
 10
418.83616637379453
 20
299.78479392059967
 11
423.46200148811511
 21
304.41062903492298
  0
LINE
  8
_0-e_極細4
  6
CONTINUOUS
 62
    6
 10
444.32427466544357
 20
325.27290221225144
 11
449.54198652389493
 21
330.49061407070371
  0
LINE
  8
_0-e_極細4
  6
CONTINUOUS
 62
    6
 10
417.66657435822742
 20
302.85784259215347
 11
423.50485644455182
 21
308.69612467847787
  0
LINE
  8
_0-e_極細4
  6
CONTINUOUS
 62
    6
 10
444.25472317876881
 20
329.44599141269669
 11
449.6082777846317
 21
334.79954601855866
  0
LINE
  8
_0-e_極細4
  6
CONTINUOUS
 62
    6
 10
417.59976111905996
 20
307.03367004010511
 11
423.54771140098489
 21
312.98162032203277
  0
LINE
  8
_0-e_極細4
  6
CONTINUOUS
 62
    6
 10
444.18517169209679
 20
333.61908061314193
 11
449.67456904536846
 21
339.10847796641451
  0
LINE
  8
_0-e_極細4
  6
CONTINUOUS
 62
    6
 10
417.53294787989432
 20
311.20949748805765
 11
423.59056635742161
 21
317.26711596558766
  0
LINE
  8
_0-e_極細4
  6
CONTINUOUS
 62
    6
 10
444.11562020542203
 20
337.79216981358627
 11
449.74086030610522
 21
343.41740991427037
  0
LINE
  8
_0-e_極細4
  6
CONTINUOUS
 62
    6
 10
417.46613464072595
 20
315.3853249360111
 11
423.63342131385741
 21
321.55261160914256
  0
LINE
  8
_0-e_極細4
  6
CONTINUOUS
 62
    6
 10
444.04606871874728
 20
341.96525901403243
 11
449.80715156684016
 21
347.72634186212531
  0
LINE
  8
_0-e_極細4
  6
CONTINUOUS
 62
    6
 10
417.39932140155759
 20
319.56115238396183
 11
423.67627627029322
 21
325.83810725269745
  0
LINE
  8
_0-e_極細4
  6
CONTINUOUS
 62
    6
 10
443.97651723207525
 20
346.13834821447676
 11
449.87344282757692
 21
352.03527380998116
  0
LINE
  8
_0-e_極細4
  6
CONTINUOUS
 62
    6
 10
417.33250816239013
 20
323.73697983191346
 11
423.71913122672993
 21
330.12360289625235
  0
LINE
  8
_0-e_極細4
  6
CONTINUOUS
 62
    6
 10
443.38032225107634
 20
349.78479392059967
 11
448.38032225107634
 21
354.78479392059967
  0
LINE
  8
_0-e_極細4
  6
CONTINUOUS
 62
    6
 10
417.26569492322449
 20
327.912807279866
 11
423.761986183163
 21
334.40909853980725
  0
LINE
  8
_0-e_極細4
  6
CONTINUOUS
 62
    6
 10
439.13768156395815
 20
349.78479392059967
 11
444.13768156395815
 21
354.78479392059967
  0
LINE
  8
_0-e_極細4
  6
CONTINUOUS
 62
    6
 10
417.19888168405612
 20
332.08863472781763
 11
423.80484113959972
 21
338.69459418336214
  0
LINE
  8
_0-e_極細4
  6
CONTINUOUS
 62
    6
 10
434.89504087683906
 20
349.78479392059967
 11
439.89504087683906
 21
354.78479392059967
  0
LINE
  8
_0-e_極細4
  6
CONTINUOUS
 62
    6
 10
417.13206844488775
 20
336.26446217577018
 11
423.84769609603552
 21
342.98008982691522
  0
LINE
  8
_0-e_極細4
  6
CONTINUOUS
 62
    6
 10
430.65240018971815
 20
349.78479392059967
 11
435.65240018971997
 21
354.78479392059967
  0
LINE
  8
_0-e_極細4
  6
CONTINUOUS
 62
    6
 10
417.06525520572211
 20
340.44028962372272
 11
423.8905510524695
 21
347.26558547047011
  0
LINE
  8
_0-e_極細4
  6
CONTINUOUS
 62
    6
 10
426.40975950260179
 20
349.78479392059967
 11
431.40975950260179
 21
354.78479392059967
  0
LINE
  8
_0-e_極細4
  6
CONTINUOUS
 62
    6
 10
416.99844196655465
 20
344.61611707167435
 11
427.16711881547997
 21
354.78479392059967
  0
LINE
  8
_0-e_極細4
  6
CONTINUOUS
 62
    6
 10
416.93162872738901
 20
348.7919445196269
 11
422.92447812836178
 21
354.78479392059967
  0
LINE
  8
_0-e_極細4
  6
CONTINUOUS
 62
    6
 10
413.72612356577463
 20
349.8290800451316
 11
418.72612356577463
 21
354.8290800451316
  0
LINE
  8
_0-e_極細4
  6
CONTINUOUS
 62
    6
 10
410.16177071923755
 20
350.50736788571544
 11
415.16177071923755
 21
355.50736788571362
  0
LINE
  8
_0-e_極細4
  6
CONTINUOUS
 62
    6
 10
407.18702602947758
 20
351.77526388307456
 11
412.18702602947758
 21
356.77526388307456
  0
LINE
  8
_0-e_極細4
  6
CONTINUOUS
 62
    6
 10
404.66711150029039
 20
353.49799004100555
 11
409.66711150029039
 21
358.49799004100555
  0
LINE
  8
_0-e_極細4
  6
CONTINUOUS
 62
    6
 10
402.55362082840873
 20
355.62714005624298
 11
407.55362082840873
 21
360.62714005624298
  0
LINE
  8
_0-e_極細4
  6
CONTINUOUS
 62
    6
 10
400.84743426509374
 20
358.16359418004708
 11
405.84743426509374
 21
363.16359418004708
  0
LINE
  8
_0-e_極細4
  6
CONTINUOUS
 62
    6
 10
399.59929301593945
 20
361.15809361801371
 11
404.59929301593945
 21
366.15809361801371
  0
LINE
  8
_0-e_極細4
  6
CONTINUOUS
 62
    6
 10
398.94919915914795
 20
364.75064044833948
 11
403.94919915914795
 21
369.75064044834039
  0
LINE
  8
_0-e_極細4
  6
CONTINUOUS
 62
    6
 10
398.91574313697345
 20
368.95982511328498
 11
403.91574313697345
 21
373.95982511328498
  0
LINE
  8
_0-e_極細4
  6
CONTINUOUS
 62
    6
 10
398.91574313697345
 20
373.20246580040316
 11
403.91574313697345
 21
378.20246580040316
  0
LINE
  8
_0-e_極細4
  6
CONTINUOUS
 62
    6
 10
398.91574313697345
 20
377.44510648752225
 11
403.91574313697345
 21
382.44510648752225
  0
LINE
  8
_0-e_極細4
  6
CONTINUOUS
 62
    6
 10
398.91574313697345
 20
381.68774717464225
 11
403.91574313697345
 21
386.68774717464134
  0
LINE
  8
_0-e_極細4
  6
CONTINUOUS
 62
    6
 10
398.91574313697345
 20
385.93038786176044
 11
403.91574313697345
 21
390.93038786176044
  0
LINE
  8
_0-e_極細4
  6
CONTINUOUS
 62
    6
 10
398.91574313697345
 20
390.17302854888135
 11
403.91574313697345
 21
395.17302854888135
  0
LINE
  8
_0-e_極細4
  6
CONTINUOUS
 62
    6
 10
398.91574313697345
 20
394.41566923599953
 11
403.91574313697345
 21
399.41566923599953
  0
LINE
  8
_0-e_極細4
  6
CONTINUOUS
 62
    6
 10
398.91574313697345
 20
398.65830992311862
 11
403.91574313697345
 21
403.65830992311862
  0
LINE
  8
_0-e_極細4
  6
CONTINUOUS
 62
    6
 10
398.91574313697345
 20
402.90095061023862
 11
403.91574313697345
 21
407.90095061023771
  0
LINE
  8
_0-e_極細4
  6
CONTINUOUS
 62
    6
 10
398.91574313697345
 20
407.14359129735772
 11
403.91574313697345
 21
412.14359129735681
  0
LINE
  8
_0-e_極細4
  6
CONTINUOUS
 62
    6
 10
398.91574313697345
 20
411.38623198447772
 11
403.91574313697345
 21
416.38623198447772
  0
LINE
  8
_0-e_極細4
  6
CONTINUOUS
 62
    6
 10
398.91574313697345
 20
415.62887267159499
 11
403.91574313697345
 21
420.6288726715959
  0
LINE
  8
_0-e_極細4
  6
CONTINUOUS
 62
    6
 10
398.91574313697345
 20
419.87151335871499
 11
403.91574313697345
 21
424.87151335871499
  0
LINE
  8
_0-e_極細4
  6
CONTINUOUS
 62
    6
 10
398.91574313697345
 20
424.11415404583408
 11
403.91574313697345
 21
429.11415404583499
  0
LINE
  8
_0-e_極細4
  6
CONTINUOUS
 62
    6
 10
398.91574313697345
 20
428.35679473295318
 11
403.91574313697345
 21
433.35679473295409
  0
LINE
  8
_0-e_極細4
  6
CONTINUOUS
 62
    6
 10
398.91574313697345
 20
432.59943542007409
 11
403.91574313697345
 21
437.59943542007409
  0
LINE
  8
_0-e_極細4
  6
CONTINUOUS
 62
    6
 10
398.91574313697345
 20
436.84207610719227
 11
403.91574313697345
 21
441.84207610719227
  0
LINE
  8
_0-e_極細4
  6
CONTINUOUS
 62
    6
 10
398.91574313697345
 20
441.08471679431136
 11
403.91574313697345
 21
446.08471679431136
  0
LINE
  8
_0-e_極細4
  6
CONTINUOUS
 62
    6
 10
398.91574313697345
 20
445.32735748143136
 11
403.91574313697345
 21
450.32735748143045
  0
LINE
  8
_0-e_極細4
  6
CONTINUOUS
 62
    6
 10
398.91574313697345
 20
449.56999816855046
 11
403.91574313697345
 21
454.56999816855046
  0
LINE
  8
_0-e_極細4
  6
CONTINUOUS
 62
    6
 10
398.91574313697345
 20
453.81263885567046
 11
403.91574313697345
 21
458.81263885567046
  0
LINE
  8
_0-e_極細4
  6
CONTINUOUS
 62
    6
 10
398.91574313697345
 20
458.05527954278864
 11
403.91574313697345
 21
463.05527954278864
  0
LINE
  8
_0-e_極細4
  6
CONTINUOUS
 62
    6
 10
398.91574313697345
 20
462.29792022990773
 11
403.91574313697345
 21
467.29792022990773
  0
LINE
  8
_0-e_極細4
  6
CONTINUOUS
 62
    6
 10
398.91574313697345
 20
466.54056091702773
 11
403.91574313697345
 21
471.54056091702682
  0
LINE
  8
_0-e_極細4
  6
CONTINUOUS
 62
    6
 10
398.91574313697345
 20
470.78320160414683
 11
403.91574313697345
 21
475.78320160414592
  0
LINE
  8
_0-e_極細4
  6
CONTINUOUS
 62
    6
 10
398.91574313697345
 20
475.02584229126683
 11
403.91574313697345
 21
480.02584229126683
  0
LINE
  8
_0-e_極細4
  6
CONTINUOUS
 62
    6
 10
398.91574313697345
 20
479.26848297838592
 11
403.91574313697345
 21
484.26848297838501
  0
LINE
  8
_0-e_極細4
  6
CONTINUOUS
 62
    6
 10
398.91574313697345
 20
483.5111236655041
 11
403.91574313697345
 21
488.5111236655041
  0
LINE
  8
_0-e_極細4
  6
CONTINUOUS
 62
    6
 10
398.91574313697345
 20
487.7537643526241
 11
403.91574313697345
 21
492.75376435262319
  0
LINE
  8
_0-e_極細4
  6
CONTINUOUS
 62
    6
 10
398.91574313697345
 20
491.99640503974319
 11
403.91574313697345
 21
496.99640503974319
  0
LINE
  8
_0-e_極細4
  6
CONTINUOUS
 62
    6
 10
398.91574313697345
 20
496.2390457268632
 11
403.91574313697345
 21
501.2390457268632
  0
LINE
  8
_0-e_極細4
  6
CONTINUOUS
 62
    6
 10
398.91574313697345
 20
500.48168641398138
 11
403.91574313697345
 21
505.48168641398138
  0
LINE
  8
_0-e_極細4
  6
CONTINUOUS
 62
    6
 10
398.91574313697345
 20
504.72432710110047
 11
403.91574313697345
 21
509.72432710110041
  0
LINE
  8
_0-e_極細4
  6
CONTINUOUS
 62
    6
 10
398.91574313697345
 20
508.96696778822042
 11
403.91574313697345
 21
513.96696778822036
  0
LINE
  8
_0-e_極細4
  6
CONTINUOUS
 62
    6
 10
398.91574313697345
 20
513.20960847533945
 11
403.91574313697345
 21
518.20960847533945
  0
LINE
  8
_0-e_極細4
  6
CONTINUOUS
 62
    6
 10
398.38945107717007
 20
516.92595710265607
 11
403.91574313697345
 21
522.45224916245945
  0
LINE
  8
_0-e_極細4
  6
CONTINUOUS
 62
    6
 10
396.92844858158821
 20
519.70759529419604
 11
403.91574313697345
 21
526.69488984957854
  0
LINE
  8
_0-e_極細4
  6
CONTINUOUS
 62
    6
 10
394.79322511111548
 20
521.81501251084057
 11
402.91574313697345
 21
529.93753053669673
  0
LINE
  8
_0-e_極細4
  6
CONTINUOUS
 62
    6
 10
393.91574313697345
 20
525.18017122381582
 11
402.91574313697345
 21
534.18017122381673
  0
LINE
  8
_0-e_極細4
  6
CONTINUOUS
 62
    6
 10
393.91574313697345
 20
529.42281191093582
 11
400.80381486180738
 21
536.31088363577157
  0
LINE
  8
_0-e_極細4
  6
CONTINUOUS
 62
    6
 10
393.91574313697345
 20
533.66545259805582
 11
399.957743136972
 21
539.70745259805437
  0
LINE
  8
_0-e_極細4
  6
CONTINUOUS
 62
    6
 10
393.91574313697345
 20
537.90809328517491
 11
399.957743136972
 21
543.95009328517438
  0
LINE
  8
_0-e_極細4
  6
CONTINUOUS
 62
    6
 10
390.14983652528497
 20
538.38482736060644
 11
399.957743136972
 21
548.19273397229347
  0
LINE
  8
_0-e_極細4
  6
CONTINUOUS
 62
    6
 10
386.11574313697054
 20
538.59337465941292
 11
399.957743136972
 21
552.43537465941347
  0
LINE
  8
_0-e_極細4
  6
CONTINUOUS
 62
    6
 10
386.11574313697054
 20
542.83601534653292
 11
399.957743136972
 21
556.67801534653256
  0
LINE
  8
_0-e_極細4
  6
CONTINUOUS
 62
    6
 10
386.11574313697054
 20
547.0786560336511
 11
399.957743136972
 21
560.92065603365074
  0
LINE
  8
_0-e_極細4
  6
CONTINUOUS
 62
    6
 10
386.11574313697054
 20
551.32129672077019
 11
399.61848832001886
 21
564.82404190381942
  0
LINE
  8
_0-e_極細4
  6
CONTINUOUS
 62
    6
 10
386.11574313697054
 20
555.56393740789019
 11
395.81544257522489
 21
565.26363684614364
  0
LINE
  8
_0-e_極細4
  6
CONTINUOUS
 62
    6
 10
386.11574313697054
 20
559.80657809500929
 11
392.01239683043093
 21
565.70323178846877
  0
LINE
  8
_0-e_極細4
  6
CONTINUOUS
 62
    6
 10
386.11574313697054
 20
564.04921878212929
 11
388.20935108563879
 21
566.14282673079481
  0
LINE
  8
_0-e_極細4
  6
CONTINUOUS
 62
    6
 10
599.87374313697217
 20
565.2658894764146
 11
604.03553176634921
 21
565.2658894764146
  0
LINE
  8
_0-e_極細4
  6
CONTINUOUS
 62
    6
 10
599.87374313697217
 20
566.46588947641442
 11
613.7157431369709
 21
566.46588947641442
  0
LINE
  8
_0-e_極細4
  6
CONTINUOUS
 62
    6
 10
599.87374313697217
 20
567.66588947641424
 11
613.7157431369709
 21
567.66588947641424
  0
LINE
  8
_0-e_極細4
  6
CONTINUOUS
 62
    6
 10
607.46388382943985
 20
568.86588947641587
 11
613.7157431369709
 21
568.86588947641587
  0
LINE
  8
_0-e_極細4
  6
CONTINUOUS
 62
    6
 10
395.79595450759223
 20
565.2658894764146
 11
399.957743136972
 21
565.2658894764146
  0
LINE
  8
_0-e_極細4
  6
CONTINUOUS
 62
    6
 10
386.11574313697054
 20
566.46588947641442
 11
399.957743136972
 21
566.46588947641442
  0
LINE
  8
_0-e_極細4
  6
CONTINUOUS
 62
    6
 10
386.11574313697054
 20
567.66588947641424
 11
399.957743136972
 21
567.66588947641424
  0
LINE
  8
_0-e_極細4
  6
CONTINUOUS
 62
    6
 10
386.11574313697054
 20
568.86588947641587
 11
392.36760244450159
 21
568.86588947641587
  0
ARC
  8
_0-e_極細4
  6
CONTINUOUS
 62
    6
 10
565.91574313697072
 20
529.1490053606077
 40
12
 50
155.11305268293131
 51
179.99999999999983
  0
ARC
  8
_0-e_極細4
  6
CONTINUOUS
 62
    6
 10
565.91574313697072
 20
529.1490053606077
 40
12
 50
55.166292356150521
 51
155.11305268293131
  0
ARC
  8
_0-e_極細4
  6
CONTINUOUS
 62
    6
 10
568.91574313697072
 20
534.40051336060708
 40
6
 50
358.07490068720773
 51
50.029499419957205
  0
LINE
  8
_0-e_極細4
  6
CONTINUOUS
 62
    6
 10
555.03006424231751
 20
534.19895536060733
 11
574.91574313697072
 21
534.19895536060733
  0
LINE
  8
_0-e_極細4
  6
CONTINUOUS
 62
    6
 10
574.91574313697072
 20
528.40051336060799
 11
574.91574313697072
 21
534.19895536060733
  0
LINE
  8
_0-e_極細4
  6
CONTINUOUS
 62
    6
 10
573.73739267764029
 20
534.19895536060733
 11
573.73739267764029
 21
537.97146501345208
  0
LINE
  8
_0-e_極細4
  6
CONTINUOUS
 62
    6
 10
572.53739267764047
 20
534.19895536060733
 11
572.53739267764047
 21
539.1566902757387
  0
LINE
  8
_0-e_極細4
  6
CONTINUOUS
 62
    6
 10
571.33739267764065
 20
534.19895536060733
 11
571.33739267764065
 21
539.85441129677577
  0
LINE
  8
_0-e_極細4
  6
CONTINUOUS
 62
    6
 10
570.13739267764174
 20
534.19895536060733
 11
570.13739267764174
 21
540.38188901333717
  0
LINE
  8
_0-e_極細4
  6
CONTINUOUS
 62
    6
 10
568.93739267764192
 20
534.19895536060733
 11
568.93739267764192
 21
540.7623439870905
  0
LINE
  8
_0-e_極細4
  6
CONTINUOUS
 62
    6
 10
567.73739267764029
 20
534.19895536060733
 11
567.73739267764029
 21
541.00993251454304
  0
LINE
  8
_0-e_極細4
  6
CONTINUOUS
 62
    6
 10
566.53739267764047
 20
534.19895536060733
 11
566.53739267764047
 21
541.13289253666892
  0
LINE
  8
_0-e_極細4
  6
CONTINUOUS
 62
    6
 10
565.33739267764065
 20
534.19895536060733
 11
565.33739267764065
 21
541.13506020555917
  0
LINE
  8
_0-e_極細4
  6
CONTINUOUS
 62
    6
 10
564.13739267764174
 20
534.19895536060733
 11
564.13739267764174
 21
541.01650171172525
  0
LINE
  8
_0-e_極細4
  6
CONTINUOUS
 62
    6
 10
562.9373926776392
 20
534.19895536060733
 11
562.9373926776392
 21
540.77352378252101
  0
LINE
  8
_0-e_極細4
  6
CONTINUOUS
 62
    6
 10
561.73739267764029
 20
534.19895536060733
 11
561.73739267764029
 21
540.39806698542827
  0
LINE
  8
_0-e_極細4
  6
CONTINUOUS
 62
    6
 10
560.53739267764047
 20
534.19895536060733
 11
560.53739267764047
 21
539.8762299008423
  0
LINE
  8
_0-e_極細4
  6
CONTINUOUS
 62
    6
 10
559.33739267764065
 20
534.19895536060733
 11
559.33739267764065
 21
539.18520510125757
  0
LINE
  8
_0-e_極細4
  6
CONTINUOUS
 62
    6
 10
558.13739267764174
 20
534.19895536060733
 11
558.13739267764174
 21
538.28668910058434
  0
LINE
  8
_0-e_極細4
  6
CONTINUOUS
 62
    6
 10
556.9373926776392
 20
534.19895536060733
 11
556.9373926776392
 21
537.11074028645373
  0
LINE
  8
_0-e_極細4
  6
CONTINUOUS
 62
    6
 10
555.73739267764029
 20
534.19895536060733
 11
555.73739267764029
 21
535.50519776856993
  0
ARC
  8
_0-e_極細4
  6
CONTINUOUS
 62
    6
 10
430.91574313697345
 20
534.40051336060708
 40
6
 50
129.97050058006241
 51
181.92509931279125
  0
LINE
  8
_0-e_極細4
  6
CONTINUOUS
 62
    6
 10
424.91574313697345
 20
528.40051336060799
 11
424.91574313697345
 21
534.19895536060733
  0
ARC
  8
_0-e_極細4
  6
CONTINUOUS
 62
    6
 10
433.91574313697345
 20
529.1490053606077
 40
12
 50
24.886947317074153
 51
124.83370764386019
  0
LINE
  8
_0-e_極細4
  6
CONTINUOUS
 62
    6
 10
444.80142203162393
 20
534.19895536060733
 11
424.91574313697345
 21
534.19895536060733
  0
ARC
  8
_0-e_極細4
  6
CONTINUOUS
 62
    6
 10
433.91574313697345
 20
529.1490053606077
 40
12
 50
0
 51
24.886947317074153
  0
LINE
  8
_0-e_極細4
  6
CONTINUOUS
 62
    6
 10
444.13739267764174
 20
534.19895536060733
 11
444.13739267764174
 21
535.43533025419413
  0
LINE
  8
_0-e_極細4
  6
CONTINUOUS
 62
    6
 10
442.93739267764192
 20
534.19895536060733
 11
442.93739267764192
 21
537.06164332561832
  0
LINE
  8
_0-e_極細4
  6
CONTINUOUS
 62
    6
 10
441.73739267764029
 20
534.19895536060733
 11
441.73739267764029
 21
538.24965360471299
  0
LINE
  8
_0-e_極細4
  6
CONTINUOUS
 62
    6
 10
440.53739267764047
 20
534.19895536060733
 11
440.53739267764047
 21
539.15669027574052
  0
LINE
  8
_0-e_極細4
  6
CONTINUOUS
 62
    6
 10
439.33739267764065
 20
534.19895536060733
 11
439.33739267764065
 21
539.85441129677668
  0
LINE
  8
_0-e_極細4
  6
CONTINUOUS
 62
    6
 10
438.13739267764174
 20
534.19895536060733
 11
438.13739267764174
 21
540.38188901333717
  0
LINE
  8
_0-e_極細4
  6
CONTINUOUS
 62
    6
 10
436.93739267764192
 20
534.19895536060733
 11
436.93739267764192
 21
540.7623439870905
  0
LINE
  8
_0-e_極細4
  6
CONTINUOUS
 62
    6
 10
435.73739267764029
 20
534.19895536060733
 11
435.73739267764029
 21
541.00993251454304
  0
LINE
  8
_0-e_極細4
  6
CONTINUOUS
 62
    6
 10
434.53739267764047
 20
534.19895536060733
 11
434.53739267764047
 21
541.13289253666892
  0
LINE
  8
_0-e_極細4
  6
CONTINUOUS
 62
    6
 10
433.33739267764065
 20
534.19895536060733
 11
433.33739267764065
 21
541.13506020555826
  0
LINE
  8
_0-e_極細4
  6
CONTINUOUS
 62
    6
 10
432.13739267764174
 20
534.19895536060733
 11
432.13739267764174
 21
541.01650171172525
  0
LINE
  8
_0-e_極細4
  6
CONTINUOUS
 62
    6
 10
430.9373926776392
 20
534.19895536060733
 11
430.9373926776392
 21
540.77352378252101
  0
LINE
  8
_0-e_極細4
  6
CONTINUOUS
 62
    6
 10
429.73739267764029
 20
534.19895536060733
 11
429.73739267764029
 21
540.39806698542827
  0
LINE
  8
_0-e_極細4
  6
CONTINUOUS
 62
    6
 10
428.53739267764047
 20
534.19895536060733
 11
428.53739267764047
 21
539.8762299008423
  0
LINE
  8
_0-e_極細4
  6
CONTINUOUS
 62
    6
 10
427.33739267764065
 20
534.19895536060733
 11
427.33739267764065
 21
539.18520510125757
  0
LINE
  8
_0-e_極細4
  6
CONTINUOUS
 62
    6
 10
426.13739267764174
 20
534.19895536060733
 11
426.13739267764174
 21
538.02920002217081
  0
LINE
  8
_0-e_極細4
  6
CONTINUOUS
 62
    6
 10
424.9373926776392
 20
534.19895536060733
 11
424.9373926776392
 21
534.90975376102244
  0
LINE
  8
_0-e_極細4
  6
CONTINUOUS
 62
    6
 10
568.93739267764192
 20
530.79895536060678
 11
568.93739267764192
 21
534.19895536060733
  0
LINE
  8
_0-e_極細4
  6
CONTINUOUS
 62
    6
 10
567.73739267764029
 20
530.79895536060678
 11
567.73739267764029
 21
534.19895536060733
  0
LINE
  8
_0-e_極細4
  6
CONTINUOUS
 62
    6
 10
566.53739267764047
 20
530.79895536060678
 11
566.53739267764047
 21
534.19895536060733
  0
LINE
  8
_0-e_極細4
  6
CONTINUOUS
 62
    6
 10
565.33739267764065
 20
530.79895536060769
 11
565.33739267764065
 21
534.19895536060733
  0
LINE
  8
_0-e_極細4
  6
CONTINUOUS
 62
    6
 10
564.13739267764174
 20
530.79895536060678
 11
564.13739267764174
 21
534.19895536060733
  0
LINE
  8
_0-e_極細4
  6
CONTINUOUS
 62
    6
 10
562.93739267764192
 20
530.79895536060678
 11
562.93739267764192
 21
534.19895536060733
  0
LINE
  8
_0-e_極細4
  6
CONTINUOUS
 62
    6
 10
561.73739267764029
 20
530.79895536060678
 11
561.73739267764029
 21
534.19895536060733
  0
LINE
  8
_0-e_極細4
  6
CONTINUOUS
 62
    6
 10
560.53739267764047
 20
530.79895536060678
 11
560.53739267764047
 21
534.19895536060733
  0
LINE
  8
_0-e_極細4
  6
CONTINUOUS
 62
    6
 10
439.33739267764065
 20
530.79895536060678
 11
439.33739267764065
 21
534.19895536060733
  0
LINE
  8
_0-e_極細4
  6
CONTINUOUS
 62
    6
 10
438.13739267764174
 20
530.79895536060678
 11
438.13739267764174
 21
534.19895536060733
  0
LINE
  8
_0-e_極細4
  6
CONTINUOUS
 62
    6
 10
436.93739267764192
 20
530.79895536060678
 11
436.93739267764192
 21
534.19895536060733
  0
LINE
  8
_0-e_極細4
  6
CONTINUOUS
 62
    6
 10
435.73739267764029
 20
530.79895536060678
 11
435.73739267764029
 21
534.19895536060733
  0
LINE
  8
_0-e_極細4
  6
CONTINUOUS
 62
    6
 10
434.53739267764047
 20
530.79895536060678
 11
434.53739267764047
 21
534.19895536060733
  0
LINE
  8
_0-e_極細4
  6
CONTINUOUS
 62
    6
 10
433.33739267764065
 20
530.79895536060678
 11
433.33739267764065
 21
534.19895536060733
  0
LINE
  8
_0-e_極細4
  6
CONTINUOUS
 62
    6
 10
432.13739267764174
 20
530.79895536060678
 11
432.13739267764174
 21
534.19895536060733
  0
LINE
  8
_0-e_極細4
  6
CONTINUOUS
 62
    6
 10
430.93739267764192
 20
530.79895536060678
 11
430.93739267764192
 21
534.19895536060733
  0
LINE
  8
_0-e_極細4
  6
CONTINUOUS
 62
    6
 10
418.93739267764192
 20
534.40051336060708
 11
418.93739267764192
 21
542.19895536060733
  0
LINE
  8
_0-e_極細4
  6
CONTINUOUS
 62
    6
 10
417.73739267764029
 20
534.40051336060708
 11
417.73739267764029
 21
542.19895536060733
  0
LINE
  8
_0-e_極細4
  6
CONTINUOUS
 62
    6
 10
416.53739267764047
 20
534.40051336060708
 11
416.53739267764047
 21
542.19895536060733
  0
LINE
  8
_0-e_極細4
  6
CONTINUOUS
 62
    6
 10
415.33739267764065
 20
530.19895536060733
 11
415.33739267764065
 21
530.61294294515403
  0
LINE
  8
_0-e_極細4
  6
CONTINUOUS
 62
    6
 10
415.33739267764065
 20
534.40051336060708
 11
415.33739267764065
 21
542.19895536060733
  0
LINE
  8
_0-e_極細4
  6
CONTINUOUS
 62
    6
 10
414.13739267764174
 20
530.19895536060733
 11
414.13739267764174
 21
542.19895536060733
  0
LINE
  8
_0-e_極細4
  6
CONTINUOUS
 62
    6
 10
585.73739267764029
 20
530.19895536060733
 11
585.73739267764029
 21
542.19895536060733
  0
LINE
  8
_0-e_極細4
  6
CONTINUOUS
 62
    6
 10
584.53739267764047
 20
530.19895536060733
 11
584.53739267764047
 21
530.7023806789349
  0
LINE
  8
_0-e_極細4
  6
CONTINUOUS
 62
    6
 10
584.53739267764047
 20
534.40051336060708
 11
584.53739267764047
 21
542.19895536060733
  0
LINE
  8
_0-e_極細4
  6
CONTINUOUS
 62
    6
 10
583.33739267764065
 20
534.40051336060708
 11
583.33739267764065
 21
542.19895536060733
  0
LINE
  8
_0-e_極細4
  6
CONTINUOUS
 62
    6
 10
582.13739267764174
 20
534.40051336060708
 11
582.13739267764174
 21
542.19895536060733
  0
LINE
  8
_0-e_極細4
  6
CONTINUOUS
 62
    6
 10
580.93739267764192
 20
534.40051336060708
 11
580.93739267764192
 21
542.19895536060733
  0
LINE
  8
_0-e_極細4
  6
CONTINUOUS
 62
    6
 10
598.93739267764192
 20
536.22060490127762
 11
598.93739267764192
 21
567.57864890406393
  0
LINE
  8
_0-e_極細4
  6
CONTINUOUS
 62
    6
 10
597.73739267764029
 20
535.02060490127781
 11
597.73739267764029
 21
565.55885140749626
  0
LINE
  8
_0-e_極細4
  6
CONTINUOUS
 62
    6
 10
596.53739267764047
 20
534.19895536060733
 11
596.53739267764047
 21
563.55626416252937
  0
LINE
  8
_0-e_極細4
  6
CONTINUOUS
 62
    6
 10
595.33739267764065
 20
534.19895536060733
 11
595.33739267764065
 21
562.93124967220695
  0
LINE
  8
_0-e_極細4
  6
CONTINUOUS
 62
    6
 10
594.13739267764174
 20
534.19895536060733
 11
594.13739267764174
 21
562.79895536060678
  0
LINE
  8
_0-e_極細4
  6
CONTINUOUS
 62
    6
 10
592.93739267764192
 20
534.19895536060733
 11
592.93739267764192
 21
562.79895536060678
  0
LINE
  8
_0-e_極細4
  6
CONTINUOUS
 62
    6
 10
591.73739267764029
 20
534.19895536060733
 11
591.73739267764029
 21
562.78042624000693
  0
LINE
  8
_0-e_極細4
  6
CONTINUOUS
 62
    6
 10
590.53739267764047
 20
534.19895536060733
 11
590.53739267764047
 21
562.19042440802252
  0
LINE
  8
_0-e_極細4
  6
CONTINUOUS
 62
    6
 10
589.33739267764065
 20
534.19895536060733
 11
589.33739267764065
 21
538.19895536060733
  0
LINE
  8
_0-e_極細4
  6
CONTINUOUS
 62
    6
 10
588.13739267764174
 20
534.19895536060733
 11
588.13739267764174
 21
538.19895536060733
  0
LINE
  8
_0-e_極細4
  6
CONTINUOUS
 62
    6
 10
586.9373926776392
 20
534.19895536060733
 11
586.9373926776392
 21
538.19895536060733
  0
LINE
  8
_0-e_極細4
  6
CONTINUOUS
 62
    6
 10
412.93739267764192
 20
534.19895536060733
 11
412.93739267764192
 21
538.19895536060733
  0
LINE
  8
_0-e_極細4
  6
CONTINUOUS
 62
    6
 10
411.73739267764029
 20
534.19895536060733
 11
411.73739267764029
 21
538.19895536060733
  0
LINE
  8
_0-e_極細4
  6
CONTINUOUS
 62
    6
 10
410.53739267764047
 20
534.19895536060733
 11
410.53739267764047
 21
538.19895536060733
  0
LINE
  8
_0-e_極細4
  6
CONTINUOUS
 62
    6
 10
409.33739267764065
 20
534.19895536060733
 11
409.33739267764065
 21
562.14622267364223
  0
LINE
  8
_0-e_極細4
  6
CONTINUOUS
 62
    6
 10
408.13739267764174
 20
534.19895536060733
 11
408.13739267764174
 21
562.77417620981589
  0
LINE
  8
_0-e_極細4
  6
CONTINUOUS
 62
    6
 10
406.93739267764192
 20
534.19895536060733
 11
406.93739267764192
 21
562.79895536060678
  0
LINE
  8
_0-e_極細4
  6
CONTINUOUS
 62
    6
 10
405.73739267764029
 20
534.19895536060733
 11
405.73739267764029
 21
562.79895536060678
  0
LINE
  8
_0-e_極細4
  6
CONTINUOUS
 62
    6
 10
404.53739267764047
 20
534.19895536060733
 11
404.53739267764047
 21
562.91911408649605
  0
LINE
  8
_0-e_極細4
  6
CONTINUOUS
 62
    6
 10
403.33739267764065
 20
534.19895536060733
 11
403.33739267764065
 21
563.52179401302794
  0
LINE
  8
_0-e_極細4
  6
CONTINUOUS
 62
    6
 10
402.13739267764174
 20
534.97730581993812
 11
402.13739267764174
 21
565.36407394472928
  0
LINE
  8
_0-e_極細4
  6
CONTINUOUS
 62
    6
 10
400.9373926776392
 20
536.17730581993794
 11
400.9373926776392
 21
567.55645011900299
  0
LINE
  8
_0-e_極細4
  6
CONTINUOUS
 62
    6
 10
579.41574313697072
 20
547.2658894764146
 11
586.61574313697054
 21
547.2658894764146
  0
LINE
  8
_0-e_極細4
  6
CONTINUOUS
 62
    6
 10
578.47045725277746
 20
548.46588947641442
 11
586.61574313697054
 21
548.46588947641442
  0
LINE
  8
_0-e_極細4
  6
CONTINUOUS
 62
    6
 10
579.41574313697072
 20
549.66588947641424
 11
586.61574313697054
 21
549.66588947641424
  0
LINE
  8
_0-e_極細4
  6
CONTINUOUS
 62
    6
 10
579.41574313697072
 20
550.86588947641587
 11
586.61574313697054
 21
550.86588947641587
  0
LINE
  8
_0-e_極細4
  6
CONTINUOUS
 62
    6
 10
579.36102902116397
 20
552.06588947641478
 11
586.6449239987345
 21
552.06588947641478
  0
LINE
  8
_0-e_極細4
  6
CONTINUOUS
 62
    6
 10
578.67045725278001
 20
553.2658894764146
 11
587.28492399873392
 21
553.2658894764146
  0
LINE
  8
_0-e_極細4
  6
CONTINUOUS
 62
    6
 10
579.41574313697072
 20
554.46588947641442
 11
587.92492399873606
 21
554.46588947641442
  0
LINE
  8
_0-e_極細4
  6
CONTINUOUS
 62
    6
 10
413.2157431369709
 20
547.2658894764146
 11
420.41574313697345
 21
547.2658894764146
  0
LINE
  8
_0-e_極細4
  6
CONTINUOUS
 62
    6
 10
413.2157431369709
 20
548.46588947641442
 11
421.36102902116397
 21
548.46588947641442
  0
LINE
  8
_0-e_極細4
  6
CONTINUOUS
 62
    6
 10
413.2157431369709
 20
549.66588947641424
 11
420.41574313697345
 21
549.66588947641424
  0
LINE
  8
_0-e_極細4
  6
CONTINUOUS
 62
    6
 10
413.2157431369709
 20
550.86588947641587
 11
420.41574313697345
 21
550.86588947641587
  0
LINE
  8
_0-e_極細4
  6
CONTINUOUS
 62
    6
 10
413.18656227520694
 20
552.06588947641478
 11
420.47045725277746
 21
552.06588947641478
  0
LINE
  8
_0-e_極細4
  6
CONTINUOUS
 62
    6
 10
412.54656227520752
 20
553.2658894764146
 11
421.16102902116415
 21
553.2658894764146
  0
LINE
  8
_0-e_極細4
  6
CONTINUOUS
 62
    6
 10
411.9065622752081
 20
554.46588947641442
 11
420.41574313697345
 21
554.46588947641442
  0
LINE
  8
_0-e_極細4
  6
CENTER2
 62
    6
 10
499.91574313697072
 20
593.29725533184057
 11
499.91574313697072
 21
212.23888666583139
  0
LINE
  8
_0-e_極細4
  6
CONTINUOUS
 62
    6
 10
600.91574313697072
 20
485.32516514978147
 11
600.91574313697072
 21
513.724573360607
  0
LINE
  8
_0-e_極細4
  6
CONTINUOUS
 62
    6
 10
600.91574313697072
 20
481.38751763011555
 11
600.91574313697072
 21
485.32516514978147
  0
LINE
  8
_0-e_極細4
  6
CONTINUOUS
 62
    6
 10
600.91574313697072
 20
481.38751763011555
 11
600.91574313697072
 21
365.78479392059967
  0
LINE
  8
_0-e_極細4
  6
CONTINUOUS
 62
    6
 10
681.09722729443035
 20
480.36778513561262
 11
635.09723129442898
 21
480.36778513561262
  0
LINE
  8
_0-e_極細4
  6
CONTINUOUS
 62
    6
 10
745.09722929443103
 20
486.36778513561262
 11
635.09723129442898
 21
486.36778513561262
  0
LINE
  8
_0-e_極細4
  6
CONTINUOUS
 62
    6
 10
555.89123129443067
 20
266.36778313561285
 11
556.96239329443085
 21
234.35895913561239
  0
LINE
  8
_0-e_極細4
  6
CONTINUOUS
 62
    6
 10
556.9693232944295
 20
234.35228113561175
 11
561.09668729443217
 21
230.37183913561171
  0
ARC
  8
_0-e_極細4
  6
CONTINUOUS
 62
    6
 10
641.92145729443143
 20
429.04326913561204
 40
6
 50
97.104090000022822
 51
178.07877599998847
  0
ARC
  8
_0-e_極細4
  6
CONTINUOUS
 62
    6
 10
658.48752329443084
 20
445.65014113561233
 40
6
 50
93.207911999988497
 51
178.07877599998847
  0
LINE
  8
_0-e_極細4
  6
CONTINUOUS
 62
    6
 10
555.1550120515052
 20
288.36778513561262
 11
555.48965729443023
 21
278.36778313561285
  0
LINE
  8
_0-e_極細4
  6
CONTINUOUS
 62
    6
 10
499.91574313697072
 20
288.36778313561285
 11
556.7157431369709
 21
288.36778313561285
  0
LINE
  8
_0-e_極細4
  6
CONTINUOUS
 62
    6
 10
556.96209929443137
 20
234.36778513561262
 11
499.91574313697072
 21
234.36778513561262
  0
LINE
  8
_0-e_極細4
  6
CENTER2
 62
    6
 10
621.17828129442967
 20
446.07579913561244
 11
652.24682129442806
 21
477.14433913561265
  0
ARC
  8
_0-e_極細4
  6
CONTINUOUS
 62
    6
 10
609.09722729443035
 20
474.71918813561228
 40
1.9999980000000002
 50
1.9867301722116437
 51
78.665253000047343
  0
ARC
  8
_0-e_極細4
  6
CONTINUOUS
 62
    6
 10
609.09722729443035
 20
486.01637813561251
 40
1.9999980000000002
 50
281.3347469999523
 51
359.20207238428611
  0
ARC
  8
_0-e_極細4
  6
CONTINUOUS
 62
    6
 10
620.89275329442933
 20
458.36778313561194
 40
6
 50
358.07877600000546
 51
4.5382033812332594
  0
LINE
  8
_0-e_極細4
  6
CONTINUOUS
 62
    6
 10
611.09723129442898
 20
486.36778513561262
 11
611.09723129442898
 21
496.36778113561309
  0
LINE
  8
_0-e_極細4
  6
CONTINUOUS
 62
    6
 10
623.09723129442898
 20
474.36778513561262
 11
623.09723129442898
 21
486.36778513561262
  0
LINE
  8
_0-e_極細4
  6
CONTINUOUS
 62
    6
 10
611.09723129442898
 20
464.36778313561194
 11
611.09723129442898
 21
474.36778513561262
  0
LINE
  8
_0-e_極細4
  6
CONTINUOUS
 62
    6
 10
626.87394207991599
 20
458.84252592109738
 11
634.53402103458791
 21
466.50260487577202
  0
ARC
  8
_0-e_極細4
  6
CONTINUOUS
 62
    6
 10
620.89275329442933
 20
458.36778313561194
 40
6
 50
4.5382033812335925
 51
89.999999999999915
  0
LINE
  8
_0-e_極細4
  6
CONTINUOUS
 62
    6
 10
609.49031129443063
 20
484.05538613561316
 11
600.91574313697072
 21
482.33660689544581
  0
LINE
  8
_0-e_極細4
  6
CONTINUOUS
 62
    6
 10
600.91574313697072
 20
478.3989593757799
 11
609.49031129443063
 21
476.68018013561255
  0
LINE
  8
_0-e_極細4
  6
CONTINUOUS
 62
    6
 10
619.09722729443035
 20
485.98852613561144
 11
611.09703135135658
 21
485.98852613561144
  0
ARC
  8
_0-e_極細4
  6
CONTINUOUS
 62
    6
 10
619.09722729443035
 20
483.98852613561144
 40
2
 50
0
 51
89.999999999999915
  0
LINE
  8
_0-e_極細4
  6
CONTINUOUS
 62
    6
 10
621.09722729443035
 20
476.78852413561276
 11
621.09722729443035
 21
483.98852613561144
  0
LINE
  8
_0-e_極細4
  6
CONTINUOUS
 62
    6
 10
619.09722729443035
 20
474.78852413561276
 11
611.09602306166232
 21
474.78852413561276
  0
ARC
  8
_0-e_極細4
  6
CONTINUOUS
 62
    6
 10
619.09722729443035
 20
476.78852413561276
 40
2
 50
269.99999999999977
 51
359.99999999999966
  0
LINE
  8
_0-e_極細4
  6
CONTINUOUS
 62
    6
 10
618.13440627705711
 20
474.78852413561276
 11
621.09722729443035
 21
477.75134515298419
  0
LINE
  8
_0-e_極細4
  6
CONTINUOUS
 62
    6
 10
613.89176558994075
 20
474.78852413561276
 11
621.09722729443035
 21
481.99398584010328
  0
LINE
  8
_0-e_極細4
  6
CONTINUOUS
 62
    6
 10
610.73198560957678
 20
475.87138484236971
 11
620.38193951611026
 21
485.52133874890319
  0
LINE
  8
_0-e_極細4
  6
CONTINUOUS
 62
    6
 10
607.66418811007895
 20
477.04622802999188
 11
616.60648621570033
 21
485.98852613561144
  0
LINE
  8
_0-e_極細4
  6
CONTINUOUS
 62
    6
 10
604.12998195400303
 20
477.75466256103505
 11
612.36384552858215
 21
485.98852613561144
  0
LINE
  8
_0-e_極細4
  6
CONTINUOUS
 62
    6
 10
600.91574313697072
 20
478.78306443112183
 11
605.36017787224262
 21
483.22749916639191
  0
LINE
  8
_0-e_極細4
  6
CONTINUOUS
 62
    6
 10
621.09722729443035
 20
483.02570511824183
 11
618.13440627705893
 21
485.98852613561144
  0
LINE
  8
_0-e_極細4
  6
CONTINUOUS
 62
    6
 10
621.09722729443035
 20
478.78306443112092
 11
613.89176558994075
 21
485.98852613561144
  0
LINE
  8
_0-e_極細4
  6
CONTINUOUS
 62
    6
 10
620.38193951611026
 20
475.25571152232101
 11
610.7489767084611
 21
484.88867432997199
  0
LINE
  8
_0-e_極細4
  6
CONTINUOUS
 62
    6
 10
616.60648621570033
 20
474.78852413561276
 11
607.69874300120443
 21
483.69626735010775
  0
LINE
  8
_0-e_極細4
  6
CONTINUOUS
 62
    6
 10
612.36384552858215
 20
474.78852413561276
 11
604.16453795301493
 21
482.98783171117725
  0
LINE
  8
_0-e_極細4
  6
CONTINUOUS
 62
    6
 10
605.41206001867283
 20
477.49766895840025
 11
600.91574313697072
 21
481.99398584010237
  0
ARC
  8
_0-e_極細4
  6
CONTINUOUS
 62
    6
 10
681.53602325592544
 20
477.33752690365623
 40
3
 50
98.208986340388947
 51
166.84965594884466
  0
ARC
  8
_0-e_極細4
  6
CONTINUOUS
 62
    6
 10
680.67931823790275
 20
477.33752690365623
 40
3
 50
13.201066202177085
 51
81.791013659507897
  0
ARC
  8
_0-e_極細4
  6
CONTINUOUS
 62
    6
 10
642.20443716071929
 20
468.77518544409691
 40
8
 50
186.34018750594402
 51
273.20790904526331
  0
LINE
  8
_0-e_極細4
  6
CONTINUOUS
 62
    6
 10
678.61469393670575
 20
478.0200479719399
 11
675.69368804415569
 21
465.51754724038733
  0
ARC
  8
_0-e_極細4
  6
CONTINUOUS
 62
    6
 10
671.79858228519186
 20
466.42757533143345
 40
4
 50
273.20790904527018
 51
346.84965594884125
  0
LINE
  8
_0-e_極細4
  6
CONTINUOUS
 62
    6
 10
683.60004219805012
 20
478.0226338650948
 11
686.29239184884352
 21
466.54470329838227
  0
ARC
  8
_0-e_極細4
  6
CONTINUOUS
 62
    6
 10
690.18669046237517
 20
467.45817924696735
 40
4
 50
193.20106620217499
 51
273.20790143445151
  0
LINE
  8
_0-e_極細4
  6
CONTINUOUS
 62
    6
 10
709.34544110054992
 20
454.50999934893503
 11
658.15176329442909
 21
451.64073913561265
  0
LINE
  8
_0-e_極細4
  6
CONTINUOUS
 62
    6
 10
707.26291955811337
 20
464.40897335585237
 11
690.4105272442979
 21
463.4644470207088
  0
LINE
  8
_0-e_極細4
  6
CONTINUOUS
 62
    6
 10
635.92482929443065
 20
429.24442513561394
 11
631.70669722232594
 21
303.49612298616671
  0
ARC
  8
_0-e_極細4
  6
CONTINUOUS
 62
    6
 10
605.72131270364332
 20
304.36778313561285
 40
26
 50
269.99999999999977
 51
358.07877661723137
  0
LINE
  8
_0-e_極細4
  6
CONTINUOUS
 62
    6
 10
605.7213115627095
 20
288.36778513561262
 11
501.71569162707635
 21
288.36778513561262
  0
ARC
  8
_0-e_極細4
  6
CONTINUOUS
 62
    6
 10
605.7213115627095
 20
304.36778513561262
 40
16
 50
269.99999999999977
 51
358.07877512360756
  0
LINE
  8
_0-e_極細4
  6
CONTINUOUS
 62
    6
 10
605.72131270364332
 20
278.36778313561285
 11
592.29000010211928
 21
278.36778313561285
  0
ARC
  8
_0-e_極細4
  6
CONTINUOUS
 62
    6
 10
592.29000010211928
 20
268.36778313561285
 40
10
 50
89.999999999999915
 51
175.20495867936191
  0
LINE
  8
_0-e_極細4
  6
CONTINUOUS
 62
    6
 10
582.32499912771925
 20
269.20369914825392
 11
579.3747332604529
 21
234.0334167305557
  0
ARC
  8
_0-e_極細4
  6
CONTINUOUS
 62
    6
 10
575.3887328706918
 20
234.36778313561285
 40
4
 50
269.99999999999977
 51
355.20495867935244
  0
LINE
  8
_0-e_極細4
  6
CONTINUOUS
 62
    6
 10
575.3887328706918
 20
230.36778313561285
 11
561.09819329442996
 21
230.36778313561285
  0
LINE
  8
_0-e_極細4
  6
CONTINUOUS
 62
    6
 10
559.88801735147297
 20
266.53076010991958
 11
561.09819329442996
 21
230.36778313561285
  0
LINE
  8
_0-e_極細4
  6
CONTINUOUS
 62
    6
 10
561.09819329442996
 20
230.36778313561285
 11
499.91574313697072
 21
230.36778313561285
  0
LINE
  8
_0-e_極細4
  6
CONTINUOUS
 62
    6
 10
559.09722729443035
 20
266.36778313561285
 11
499.91574313697072
 21
266.36778313561285
  0
ARC
  8
_0-e_極細4
  6
CONTINUOUS
 62
    6
 10
559.09722729443035
 20
268.36778313561285
 40
2
 50
269.99999999999977
 51
359.99999999999966
  0
LINE
  8
_0-e_極細4
  6
CONTINUOUS
 62
    6
 10
561.09722729443035
 20
268.36778313561285
 11
561.09722729443035
 21
276.36778313561285
  0
LINE
  8
_0-e_極細4
  6
CONTINUOUS
 62
    6
 10
559.09722729443035
 20
278.36778313561285
 11
499.91574313697072
 21
278.36778313561285
  0
ARC
  8
_0-e_極細4
  6
CONTINUOUS
 62
    6
 10
559.09722729443035
 20
276.36778313561285
 40
2
 50
0
 51
89.999999999999915
  0
LINE
  8
_0-e_極細4
  6
CONTINUOUS
 62
    6
 10
626.88938129443011
 20
458.16663313561116
 11
626.4225235872949
 21
444.24897542847725
  0
LINE
  8
_0-e_極細4
  6
CONTINUOUS
 62
    6
 10
626.4225235872949
 20
444.24897542847725
 11
621.71231740638029
 21
303.83137847293551
  0
LINE
  8
_0-e_極細4
  6
CONTINUOUS
 62
    6
 10
626.4225235872949
 20
444.24897542847725
 11
642.97962541583126
 21
460.8060772570127
  0
LINE
  8
_0-e_極細4
  6
CONTINUOUS
 62
    6
 10
672.02241959761739
 20
462.4338431349081
 11
642.97962541583126
 21
460.8060772570127
  0
LINE
  8
_0-e_極細4
  6
CONTINUOUS
 62
    6
 10
642.65211178556945
 20
460.78772105104531
 11
642.97962541583126
 21
460.8060772570127
  0
LINE
  8
_0-e_極細4
  6
CONTINUOUS
 62
    6
 10
647.08989390876229
 20
435.73382721217808
 11
641.17942529442951
 21
434.99720713561351
  0
LINE
  8
_0-e_極細4
  6
CONTINUOUS
 62
    6
 10
652.49089529443006
 20
445.8512911356122
 11
652.34448333293255
 21
441.48661028339598
  0
ARC
  8
_0-e_極細4
  6
CONTINUOUS
 62
    6
 10
646.34785622977085
 20
441.68776541163356
 40
6
 50
277.10412657672032
 51
358.07874999737572
  0
LINE
  8
_0-e_極細4
  6
CONTINUOUS
 62
    6
 10
577.2597161050802
 20
230.83233100941493
 11
578.92418499688972
 21
232.49679990122354
  0
LINE
  8
_0-e_極細4
  6
CONTINUOUS
 62
    6
 10
572.55252754415994
 20
230.36778313561285
 11
579.66376871059344
 21
237.47902430204726
  0
LINE
  8
_0-e_極細4
  6
CONTINUOUS
 62
    6
 10
568.30988685703812
 20
230.36778313561285
 11
580.0522513790205
 21
242.11014765759342
  0
LINE
  8
_0-e_極細4
  6
CONTINUOUS
 62
    6
 10
622.19377093125547
 20
284.25166720982929
 11
625.83742862942779
 21
287.8953249080007
  0
LINE
  8
_0-e_極細4
  6
CONTINUOUS
 62
    6
 10
564.06724616991994
 20
230.36778313561285
 11
580.44073404744847
 21
246.74127101314048
  0
LINE
  8
_0-e_極細4
  6
CONTINUOUS
 62
    6
 10
613.1515597770416
 20
279.45209674273451
 11
630.63699909652348
 21
296.93753606221458
  0
LINE
  8
_0-e_極細4
  6
CONTINUOUS
 62
    6
 10
561.0569533879592
 20
231.60013104076938
 11
580.82921671587553
 21
251.37239436868663
  0
LINE
  8
_0-e_極細4
  6
CONTINUOUS
 62
    6
 10
607.91752853409741
 20
278.46070618690851
 11
631.62838965234585
 21
302.17156730515967
  0
LINE
  8
_0-e_極細4
  6
CONTINUOUS
 62
    6
 10
560.91957290776224
 20
235.70539124769425
 11
581.21769938430259
 21
256.00351772423369
  0
LINE
  8
_0-e_極細4
  6
CONTINUOUS
 62
    6
 10
603.58196479568176
 20
278.36778313561285
 11
631.81069756740942
 21
306.59651590733961
  0
LINE
  8
_0-e_極細4
  6
CONTINUOUS
 62
    6
 10
560.78219242756893
 20
239.81065145461912
 11
581.60618205273056
 21
260.63464107978075
  0
LINE
  8
_0-e_極細4
  6
CONTINUOUS
 62
    6
 10
599.33932410856357
 20
278.36778313561285
 11
609.8926441093239
 21
288.921103136375
  0
LINE
  8
_0-e_極細4
  6
CONTINUOUS
 62
    6
 10
621.16799356194713
 20
300.19645258899823
 11
631.95795333724379
 21
310.98641236429307
  0
LINE
  8
_0-e_極細4
  6
CONTINUOUS
 62
    6
 10
560.64481194737471
 20
243.91591166154399
 11
581.99466472115762
 21
265.2657644353269
  0
LINE
  8
_0-e_極細4
  6
CONTINUOUS
 62
    6
 10
595.09668342144175
 20
278.36778313561285
 11
605.09668542144243
 21
288.36778513561171
  0
LINE
  8
_0-e_極細4
  6
CONTINUOUS
 62
    6
 10
621.75230299248358
 20
305.02340270665195
 11
632.10520910707453
 21
315.37630882124563
  0
LINE
  8
_0-e_極細4
  6
CONTINUOUS
 62
    6
 10
560.50743146717866
 20
248.02117186846795
 11
582.41212721638328
 21
269.92586761767348
  0
LINE
  8
_0-e_極細4
  6
CONTINUOUS
 62
    6
 10
590.73191562005957
 20
278.24565602134885
 11
600.85404473432425
 21
288.36778513561171
  0
LINE
  8
_0-e_極細4
  6
CONTINUOUS
 62
    6
 10
621.89955888085967
 20
309.41329928214805
 11
632.2524648769089
 21
319.76620527819819
  0
LINE
  8
_0-e_極細4
  6
CONTINUOUS
 62
    6
 10
560.37005098698444
 20
252.12643207539281
 11
596.61140404720243
 21
288.36778513561171
  0
LINE
  8
_0-e_極細4
  6
CONTINUOUS
 62
    6
 10
622.04681476923577
 20
313.80319585764505
 11
632.39972064674237
 21
324.15610173515165
  0
LINE
  8
_0-e_極細4
  6
CONTINUOUS
 62
    6
 10
560.23267050678839
 20
256.23169228231677
 11
592.36876336008424
 21
288.36778513561171
  0
LINE
  8
_0-e_極細4
  6
CONTINUOUS
 62
    6
 10
622.19407065761368
 20
318.19309243314115
 11
632.54697641657583
 21
328.54599819210421
  0
LINE
  8
_0-e_極細4
  6
CONTINUOUS
 62
    6
 10
560.09529002659417
 20
260.33695248924164
 11
588.12612267296515
 21
288.36778513561171
  0
LINE
  8
_0-e_極細4
  6
CONTINUOUS
 62
    6
 10
622.34132654598977
 20
322.58298900863906
 11
632.6942321864102
 21
332.93589464905676
  0
LINE
  8
_0-e_極細4
  6
CONTINUOUS
 62
    6
 10
559.95790954639995
 20
264.44221269616651
 11
583.88348198584606
 21
288.36778513561171
  0
LINE
  8
_0-e_極細4
  6
CONTINUOUS
 62
    6
 10
622.4885824343686
 20
326.97288558413425
 11
632.84148795624367
 21
337.32579110600932
  0
LINE
  8
_0-e_極細4
  6
CONTINUOUS
 62
    6
 10
561.09722729443035
 20
269.8241711313151
 11
579.64084129872788
 21
288.36778513561262
  0
LINE
  8
_0-e_極細4
  6
CONTINUOUS
 62
    6
 10
622.63583832274469
 20
331.36278215963125
 11
632.98874372607713
 21
341.71568756296278
  0
LINE
  8
_0-e_極細4
  6
CONTINUOUS
 62
    6
 10
561.09722729443035
 20
274.0668118184351
 11
575.39820061160606
 21
288.36778513561262
  0
LINE
  8
_0-e_極細4
  6
CONTINUOUS
 62
    6
 10
622.78309421112351
 20
335.75267873512735
 11
633.13599949591151
 21
346.10558401991625
  0
LINE
  8
_0-e_極細4
  6
CONTINUOUS
 62
    6
 10
757.39819861160811
 20
470.36778313561194
 11
760.35969395007885
 21
473.3292784740845
  0
LINE
  8
_0-e_極細4
  6
CONTINUOUS
 62
    6
 10
560.54030540182009
 20
277.75253061294302
 11
571.15555992448787
 21
288.36778513561262
  0
LINE
  8
_0-e_極細4
  6
CONTINUOUS
 62
    6
 10
622.93035009949961
 20
340.14257531062435
 11
633.28325526574497
 21
350.49548047686881
  0
LINE
  8
_0-e_極細4
  6
CONTINUOUS
 62
    6
 10
753.15555792448902
 20
470.36778313561194
 11
759.51376848422967
 21
476.72599369535351
  0
LINE
  8
_0-e_極細4
  6
CONTINUOUS
 62
    6
 10
556.91291723737083
 20
278.36778313561285
 11
566.91291923736878
 21
288.36778513561262
  0
LINE
  8
_0-e_極細4
  6
CONTINUOUS
 62
    6
 10
623.07760598787752
 20
344.53247188612045
 11
633.43051103557843
 21
354.88537693382136
  0
LINE
  8
_0-e_極細4
  6
CONTINUOUS
 62
    6
 10
748.91291723737083
 20
470.36778313561194
 11
758.66784301838049
 21
480.1227089166216
  0
LINE
  8
_0-e_極細4
  6
CONTINUOUS
 62
    6
 10
555.39836319102631
 20
281.09586977638924
 11
562.67027855024969
 21
288.36778513561262
  0
LINE
  8
_0-e_極細4
  6
CONTINUOUS
 62
    6
 10
623.22486187625361
 20
348.92236846161745
 11
633.57776680541281
 21
359.27527339077483
  0
LINE
  8
_0-e_極細4
  6
CONTINUOUS
 62
    6
 10
744.67027655024901
 20
470.36778313561194
 11
757.82191755252859
 21
483.51942413789243
  0
LINE
  8
_0-e_極細4
  6
CONTINUOUS
 62
    6
 10
555.26098264092013
 20
285.20112991340307
 11
558.42763786313151
 21
288.36778513561262
  0
LINE
  8
_0-e_極細4
  6
CONTINUOUS
 62
    6
 10
623.37211776463243
 20
353.31226503711537
 11
633.72502257524627
 21
363.66516984772738
  0
LINE
  8
_0-e_極細4
  6
CONTINUOUS
 62
    6
 10
740.42763586313083
 20
470.36778313561194
 11
756.42763786313151
 21
486.36778513561262
  0
LINE
  8
_0-e_極細4
  6
CONTINUOUS
 62
    6
 10
623.51937365300853
 20
357.70216161261055
 11
633.87227834507792
 21
368.05506630468176
  0
LINE
  8
_0-e_極細4
  6
CONTINUOUS
 62
    6
 10
734.91237873013631
 20
469.09516668973833
 11
752.18499717600969
 21
486.36778513561262
  0
LINE
  8
_0-e_極細4
  6
CONTINUOUS
 62
    6
 10
623.66662954138735
 20
362.09205818810756
 11
634.01953411491411
 21
372.44496276163432
  0
LINE
  8
_0-e_極細4
  6
CONTINUOUS
 62
    6
 10
725.03497946026471
 20
463.46040810698582
 11
742.93806561905365
 21
481.36349426577476
  0
LINE
  8
_0-e_極細4
  6
CONTINUOUS
 62
    6
 10
745.09722929443103
 20
483.52265794115124
 11
747.94235648889151
 21
486.36778513561262
  0
LINE
  8
_0-e_極細4
  6
CONTINUOUS
 62
    6
 10
623.81388542976345
 20
366.48195476360365
 11
634.16678988474484
 21
376.83485921858687
  0
LINE
  8
_0-e_極細4
  6
CONTINUOUS
 62
    6
 10
715.15758019039492
 20
457.82564952423422
 11
734.85303507247443
 21
477.52110440631373
  0
LINE
  8
_0-e_極細4
  6
CONTINUOUS
 62
    6
 10
623.96114131813954
 20
370.87185133909975
 11
634.31404565457922
 21
381.22475567553943
  0
LINE
  8
_0-e_極細4
  6
CONTINUOUS
 62
    6
 10
707.49561164431941
 20
454.40632166527689
 11
726.76800452589248
 21
473.67871454685178
  0
LINE
  8
_0-e_極細4
  6
CONTINUOUS
 62
    6
 10
624.10839720651745
 20
375.26174791459675
 11
634.46130142441268
 21
385.61465213249198
  0
LINE
  8
_0-e_極細4
  6
CONTINUOUS
 62
    6
 10
703.00106435552732
 20
454.15441506360571
 11
718.68297397931053
 21
469.83632468738983
  0
LINE
  8
_0-e_極細4
  6
CONTINUOUS
 62
    6
 10
624.25565309489355
 20
379.65164449009285
 11
634.60855719424615
 21
390.00454858944454
  0
LINE
  8
_0-e_極細4
  6
CONTINUOUS
 62
    6
 10
698.50651706673705
 20
453.90250846193544
 11
710.59794343273131
 21
465.99393482792971
  0
LINE
  8
_0-e_極細4
  6
CONTINUOUS
 62
    6
 10
624.40290898327237
 20
384.04154106558985
 11
634.75581296408052
 21
394.394445046398
  0
LINE
  8
_0-e_極細4
  6
CONTINUOUS
 62
    6
 10
694.01196977794496
 20
453.65060186026244
 11
704.62234494044094
 21
464.26097702275842
  0
LINE
  8
_0-e_極細4
  6
CONTINUOUS
 62
    6
 10
624.55016487165119
 20
388.43143764108595
 11
634.90306873391398
 21
398.78434150335056
  0
LINE
  8
_0-e_極細4
  6
CONTINUOUS
 62
    6
 10
689.51742248915286
 20
453.39869525859126
 11
700.12779831792466
 21
464.00907108736033
  0
LINE
  8
_0-e_極細4
  6
CONTINUOUS
 62
    6
 10
624.69742076002728
 20
392.82133421658386
 11
635.05032450374745
 21
403.17423796030312
  0
LINE
  8
_0-e_極細4
  6
CONTINUOUS
 62
    6
 10
685.0228752003635
 20
453.14678865692008
 11
695.63325169540656
 21
463.75716515196314
  0
LINE
  8
_0-e_極細4
  6
CONTINUOUS
 62
    6
 10
624.84467664840338
 20
397.21123079207905
 11
635.19758027358182
 21
407.56413441725567
  0
LINE
  8
_0-e_極細4
  6
CONTINUOUS
 62
    6
 10
680.52832791157414
 20
452.89488205524799
 11
691.13870507289118
 21
463.50525921656686
  0
LINE
  8
_0-e_極細4
  6
CONTINUOUS
 62
    6
 10
624.99193253678129
 20
401.60112736757605
 11
635.34483604341528
 21
411.95403087420914
  0
LINE
  8
_0-e_極細4
  6
CONTINUOUS
 62
    6
 10
676.03378062278205
 20
452.6429754535759
 11
687.70886223830018
 21
464.31805706909404
  0
LINE
  8
_0-e_極細4
  6
CONTINUOUS
 62
    6
 10
625.13918842515739
 20
405.99102394307306
 11
635.49209181324875
 21
416.3439273311626
  0
LINE
  8
_0-e_極細4
  6
CONTINUOUS
 62
    6
 10
671.53923333399177
 20
452.39106885190472
 11
686.17848242776233
 21
467.03031794567619
  0
LINE
  8
_0-e_極細4
  6
CONTINUOUS
 62
    6
 10
625.28644431353621
 20
410.38092051856916
 11
635.63934758308312
 21
420.73382378811516
  0
LINE
  8
_0-e_極細4
  6
CONTINUOUS
 62
    6
 10
667.04468604519968
 20
452.13916225023445
 11
685.3723817722306
 21
470.46685797726354
  0
LINE
  8
_0-e_極細4
  6
CONTINUOUS
 62
    6
 10
625.43370020191503
 20
414.77081709406525
 11
635.78660335291386
 21
425.12372024506772
  0
LINE
  8
_0-e_極細4
  6
CONTINUOUS
 62
    6
 10
646.29801933089618
 20
435.63513622304731
 11
652.35125124189506
 21
441.68836813404801
  0
LINE
  8
_0-e_極細4
  6
CONTINUOUS
 62
    6
 10
662.55013875640759
 20
451.88725564856145
 11
673.44501463816721
 21
462.78213153031925
  0
LINE
  8
_0-e_極細4
  6
CONTINUOUS
 62
    6
 10
675.44402608630787
 20
464.78114297845991
 11
684.56628111669886
 21
473.9033980088509
  0
LINE
  8
_0-e_極細4
  6
CONTINUOUS
 62
    6
 10
625.58095609029112
 20
419.16071366956226
 11
635.94044259958025
 21
429.5202001788532
  0
LINE
  8
_0-e_極細4
  6
CONTINUOUS
 62
    6
 10
641.45133894529442
 20
435.03109652456646
 11
652.50315094763789
 21
446.08290852691084
  0
LINE
  8
_0-e_極細4
  6
CONTINUOUS
 62
    6
 10
658.05475590313142
 20
451.63451348240346
 11
668.66596588688697
 21
462.24572346615719
  0
LINE
  8
_0-e_極細4
  6
CONTINUOUS
 62
    6
 10
676.83870784461794
 20
470.41846542388907
 11
683.76018046116803
 21
477.33993804043826
  0
LINE
  8
_0-e_極細4
  6
CONTINUOUS
 62
    6
 10
625.72821197866722
 20
423.55061024506017
 11
664.17141862990536
 21
461.99381689629831
  0
LINE
  8
_0-e_極細4
  6
CONTINUOUS
 62
    6
 10
678.13211546579566
 20
475.95451373218589
 11
682.13711697486576
 21
479.95951524125599
  0
LINE
  8
_0-e_極細4
  6
CONTINUOUS
 62
    6
 10
625.87546786704513
 20
427.94050682055536
 11
659.67687137292558
 21
461.74191032643671
  0
LINE
  8
_0-e_極細4
  6
CONTINUOUS
 62
    6
 10
626.02272375542123
 20
432.33040339605236
 11
655.1823241159467
 21
461.49000375657602
  0
LINE
  8
_0-e_極細4
  6
CONTINUOUS
 62
    6
 10
626.16997964380005
 20
436.72029997154846
 11
650.68777685896782
 21
461.23809718671714
  0
LINE
  8
_0-e_極細4
  6
CONTINUOUS
 62
    6
 10
626.31723553217614
 20
441.11019654704455
 11
646.19322960198622
 21
460.98619061685554
  0
LINE
  8
_0-e_極細4
  6
CONTINUOUS
 62
    6
 10
631.28704586053243
 20
494.58864404066503
 11
634.25336721795463
 21
467.89173382388822
  0
ARC
  8
_0-e_極細4
  6
CONTINUOUS
 62
    6
 10
629.29927837484172
 20
494.36778113561309
 40
2
 50
6.3401875059393173
 51
89.999999999999915
  0
LINE
  8
_0-e_極細4
  6
CONTINUOUS
 62
    6
 10
626.61039747524808
 20
460.18672376728341
 11
634.25974887892551
 21
467.83607517095993
  0
LINE
  8
_0-e_極細4
  6
CONTINUOUS
 62
    6
 10
624.95993874614976
 20
462.778905725306
 11
633.83530743431618
 21
471.65427441347151
  0
LINE
  8
_0-e_極細4
  6
CONTINUOUS
 62
    6
 10
622.16889374294294
 20
464.23050140921737
 11
633.41104362305339
 21
475.472651289326
  0
LINE
  8
_0-e_極細4
  6
CONTINUOUS
 62
    6
 10
618.06353478222024
 20
464.36778313561194
 11
632.9867798117906
 21
479.2910281651823
  0
LINE
  8
_0-e_極細4
  6
CONTINUOUS
 62
    6
 10
613.82089409510115
 20
464.36778313561194
 11
632.56251600052508
 21
483.10940504103678
  0
LINE
  8
_0-e_極細4
  6
CONTINUOUS
 62
    6
 10
611.09723129442898
 20
465.8867610220625
 11
619.57825540798092
 21
474.36778513561262
  0
LINE
  8
_0-e_極細4
  6
CONTINUOUS
 62
    6
 10
623.09723129442898
 20
477.8867610220625
 11
632.13825218926229
 21
486.92778191689308
  0
LINE
  8
_0-e_極細4
  6
CONTINUOUS
 62
    6
 10
611.09723129442898
 20
470.12940170918159
 11
615.33561472086183
 21
474.36778513561262
  0
LINE
  8
_0-e_極細4
  6
CONTINUOUS
 62
    6
 10
623.09723129442898
 20
482.12940170918159
 11
631.71398837799677
 21
490.74615879274847
  0
LINE
  8
_0-e_極細4
  6
CONTINUOUS
 62
    6
 10
623.09297403374364
 20
486.36778513561262
 11
631.28972456673398
 21
494.56453566860478
  0
LINE
  8
_0-e_極細4
  6
CONTINUOUS
 62
    6
 10
618.85033334662182
 20
486.36778513561262
 11
628.8503293466232
 21
496.36778113561309
  0
LINE
  8
_0-e_極細4
  6
CONTINUOUS
 62
    6
 10
614.60769265950364
 20
486.36778513561262
 11
624.60768865950411
 21
496.36778113561309
  0
LINE
  8
_0-e_極細4
  6
CONTINUOUS
 62
    6
 10
611.09723129442898
 20
487.09996445765887
 11
620.36504797238592
 21
496.36778113561309
  0
LINE
  8
_0-e_極細4
  6
CONTINUOUS
 62
    6
 10
611.09723129442898
 20
491.34260514477796
 11
616.1224072852641
 21
496.36778113561309
  0
LINE
  8
_0-e_極細4
  6
CONTINUOUS
 62
    6
 10
611.09723129442898
 20
495.58524583189705
 11
611.87976659814592
 21
496.36778113561309
  0
LINE
  8
_0-e_極細4
  6
CONTINUOUS
 62
    6
 10
629.29927837484172
 20
496.36778113561309
 11
600.91574313697072
 21
496.36778113561309
  0
LINE
  8
_0-e_極細4
  6
CONTINUOUS
 62
    6
 10
623.09723129442898
 20
486.36778513561262
 11
600.91574313697072
 21
486.36778513561262
  0
LINE
  8
_0-e_極細4
  6
CONTINUOUS
 62
    6
 10
623.09723129442898
 20
474.36778513561262
 11
600.91574313697072
 21
474.36778513561262
  0
LINE
  8
_0-e_極細4
  6
CONTINUOUS
 62
    6
 10
620.89275329442933
 20
464.36778313561194
 11
600.91574313697072
 21
464.36778313561194
  0
LINE
  8
_0-e_極細4
  6
CONTINUOUS
 62
    6
 10
318.73425897951381
 20
480.36778513561262
 11
364.73425497951246
 21
480.36778513561262
  0
LINE
  8
_0-e_極細4
  6
CONTINUOUS
 62
    6
 10
254.73425697951313
 20
486.36778513561262
 11
364.73425497951246
 21
486.36778513561262
  0
LINE
  8
_0-e_極細4
  6
CONTINUOUS
 62
    6
 10
443.94025497951077
 20
266.36778313561285
 11
442.86909297951058
 21
234.35895913561239
  0
LINE
  8
_0-e_極細4
  6
CONTINUOUS
 62
    6
 10
442.86216297951194
 20
234.35228113561175
 11
438.73479897951199
 21
230.37183913561171
  0
ARC
  8
_0-e_極細4
  6
CONTINUOUS
 62
    6
 10
357.91002897951273
 20
429.04326913561204
 40
6
 50
1.9212240000115548
 51
82.895910000020265
  0
ARC
  8
_0-e_極細4
  6
CONTINUOUS
 62
    6
 10
341.34396297951332
 20
445.65014113561233
 40
6
 50
1.9212240000115548
 51
86.792088000011518
  0
LINE
  8
_0-e_極細4
  6
CONTINUOUS
 62
    6
 10
444.67647422243897
 20
288.36778513561262
 11
444.34182897951393
 21
278.36778313561285
  0
LINE
  8
_0-e_極細4
  6
CONTINUOUS
 62
    6
 10
442.8693869795128
 20
234.36778513561262
 11
499.91574313697072
 21
234.36778513561262
  0
LINE
  8
_0-e_極細4
  6
CENTER2
 62
    6
 10
378.65320497951177
 20
446.07579913561244
 11
347.58466497951156
 21
477.14433913561265
  0
ARC
  8
_0-e_極細4
  6
CONTINUOUS
 62
    6
 10
390.73425897951381
 20
474.71918813561228
 40
1.9999980000000002
 50
101.33474700002931
 51
178.01326982779108
  0
ARC
  8
_0-e_極細4
  6
CONTINUOUS
 62
    6
 10
390.73425897951381
 20
486.01637813561251
 40
1.9999980000000002
 50
180.79792761571207
 51
258.66525299997033
  0
ARC
  8
_0-e_極細4
  6
CONTINUOUS
 62
    6
 10
378.93873297951211
 20
458.36778313561194
 40
6
 50
175.46179661876641
 51
181.92122399999383
  0
LINE
  8
_0-e_極細4
  6
CONTINUOUS
 62
    6
 10
388.73425497951246
 20
486.36778513561262
 11
388.73425497951246
 21
496.36778113561309
  0
LINE
  8
_0-e_極細4
  6
CONTINUOUS
 62
    6
 10
376.73425497951246
 20
474.36778513561262
 11
376.73425497951246
 21
486.36778513561262
  0
LINE
  8
_0-e_極細4
  6
CONTINUOUS
 62
    6
 10
388.73425497951246
 20
464.36778313561194
 11
388.73425497951246
 21
474.36778513561262
  0
LINE
  8
_0-e_極細4
  6
CONTINUOUS
 62
    6
 10
372.95754419402817
 20
458.84252592109738
 11
365.29746523935353
 21
466.50260487577202
  0
ARC
  8
_0-e_極細4
  6
CONTINUOUS
 62
    6
 10
378.93873297951211
 20
458.36778313561194
 40
6
 50
89.999999999999915
 51
175.46179661876641
  0
LINE
  8
_0-e_極細4
  6
CONTINUOUS
 62
    6
 10
390.34117497951081
 20
484.05538613561316
 11
398.91574313697072
 21
482.33660689544581
  0
LINE
  8
_0-e_極細4
  6
CONTINUOUS
 62
    6
 10
398.91574313697072
 20
478.3989593757799
 11
390.34117497951081
 21
476.68018013561255
  0
LINE
  8
_0-e_極細4
  6
CONTINUOUS
 62
    6
 10
380.73425897951381
 20
485.98852613561144
 11
388.73445492258486
 21
485.98852613561144
  0
ARC
  8
_0-e_極細4
  6
CONTINUOUS
 62
    6
 10
380.73425897951381
 20
483.98852613561144
 40
2
 50
89.999999999999915
 51
179.99999999999983
  0
LINE
  8
_0-e_極細4
  6
CONTINUOUS
 62
    6
 10
378.73425897951381
 20
476.78852413561276
 11
378.73425897951381
 21
483.98852613561144
  0
LINE
  8
_0-e_極細4
  6
CONTINUOUS
 62
    6
 10
380.73425897951381
 20
474.78852413561276
 11
388.73546321227911
 21
474.78852413561276
  0
ARC
  8
_0-e_極細4
  6
CONTINUOUS
 62
    6
 10
380.73425897951381
 20
476.78852413561276
 40
2
 50
179.99999999999983
 51
269.99999999999977
  0
LINE
  8
_0-e_極細4
  6
CONTINUOUS
 62
    6
 10
381.69707999688251
 20
474.78852413561276
 11
378.73425897951381
 21
477.75134515298419
  0
LINE
  8
_0-e_極細4
  6
CONTINUOUS
 62
    6
 10
385.93972068400342
 20
474.78852413561276
 11
378.73425897951381
 21
481.99398584010328
  0
LINE
  8
_0-e_極細4
  6
CONTINUOUS
 62
    6
 10
389.09950066436465
 20
475.87138484236971
 11
379.44954675783117
 21
485.52133874890319
  0
LINE
  8
_0-e_極細4
  6
CONTINUOUS
 62
    6
 10
392.16729816386248
 20
477.04622802999188
 11
383.22500005824111
 21
485.98852613561144
  0
LINE
  8
_0-e_極細4
  6
CONTINUOUS
 62
    6
 10
395.70150431993841
 20
477.75466256103505
 11
387.46764074536202
 21
485.98852613561144
  0
LINE
  8
_0-e_極細4
  6
CONTINUOUS
 62
    6
 10
398.91574313697072
 20
478.78306443112183
 11
394.47130840169882
 21
483.22749916639191
  0
LINE
  8
_0-e_極細4
  6
CONTINUOUS
 62
    6
 10
378.73425897951381
 20
483.02570511824183
 11
381.69707999688251
 21
485.98852613561144
  0
LINE
  8
_0-e_極細4
  6
CONTINUOUS
 62
    6
 10
378.73425897951381
 20
478.78306443112092
 11
385.93972068400342
 21
485.98852613561144
  0
LINE
  8
_0-e_極細4
  6
CONTINUOUS
 62
    6
 10
379.44954675783117
 20
475.25571152232101
 11
389.08250956548034
 21
484.88867432997199
  0
LINE
  8
_0-e_極細4
  6
CONTINUOUS
 62
    6
 10
383.22500005824111
 20
474.78852413561276
 11
392.132743272737
 21
483.69626735010775
  0
LINE
  8
_0-e_極細4
  6
CONTINUOUS
 62
    6
 10
387.46764074536202
 20
474.78852413561276
 11
395.66694832092469
 21
482.98783171117725
  0
LINE
  8
_0-e_極細4
  6
CONTINUOUS
 62
    6
 10
394.4194262552686
 20
477.49766895840025
 11
398.91574313697072
 21
481.99398584010237
  0
ARC
  8
_0-e_極細4
  6
CONTINUOUS
 62
    6
 10
318.29546301801599
 20
477.33752690365623
 40
3
 50
13.150344051143488
 51
81.791013659559468
  0
ARC
  8
_0-e_極細4
  6
CONTINUOUS
 62
    6
 10
319.15216803603869
 20
477.33752690365623
 40
3
 50
98.208986340440532
 51
166.79893379782291
  0
ARC
  8
_0-e_極細4
  6
CONTINUOUS
 62
    6
 10
357.62704911322214
 20
468.77518544409691
 40
8
 50
266.79209095473595
 51
353.6598124940553
  0
LINE
  8
_0-e_極細4
  6
CONTINUOUS
 62
    6
 10
321.21679233723842
 20
478.0200479719399
 11
324.13779822978574
 21
465.51754724038733
  0
ARC
  8
_0-e_極細4
  6
CONTINUOUS
 62
    6
 10
328.03290398874958
 20
466.42757533143345
 40
4
 50
193.15034405115807
 51
266.79209095472902
  0
LINE
  8
_0-e_極細4
  6
CONTINUOUS
 62
    6
 10
316.23144407589132
 20
478.0226338650948
 11
313.53909442509791
 21
466.54470329838227
  0
ARC
  8
_0-e_極細4
  6
CONTINUOUS
 62
    6
 10
309.64479581156627
 20
467.45817924696735
 40
4
 50
266.79209856554775
 51
346.79893379782425
  0
LINE
  8
_0-e_極細4
  6
CONTINUOUS
 62
    6
 10
262.68828601548046
 20
470.36778313561194
 11
290.48604517339152
 21
454.50999934893503
  0
LINE
  8
_0-e_極細4
  6
CONTINUOUS
 62
    6
 10
290.48604517339152
 20
454.50999934893503
 11
341.67972297951235
 21
451.64073913561265
  0
LINE
  8
_0-e_極細4
  6
CONTINUOUS
 62
    6
 10
238.73425497951246
 20
470.36778313561194
 11
262.68828601548046
 21
470.36778313561194
  0
LINE
  8
_0-e_極細4
  6
CONTINUOUS
 62
    6
 10
238.73425497951246
 20
470.36778313561194
 11
242.71893083950306
 21
486.36778513561262
  0
LINE
  8
_0-e_極細4
  6
CONTINUOUS
 62
    6
 10
242.71893083950306
 20
486.36778513561262
 11
254.73425697951313
 21
486.36778513561262
  0
LINE
  8
_0-e_極細4
  6
CONTINUOUS
 62
    6
 10
254.73425697951313
 20
482.38963121892471
 11
254.73425697951313
 21
486.36778513561262
  0
LINE
  8
_0-e_極細4
  6
CONTINUOUS
 62
    6
 10
254.73425697951313
 20
482.38963121892471
 11
292.56856671582807
 21
464.40897335585237
  0
LINE
  8
_0-e_極細4
  6
CONTINUOUS
 62
    6
 10
292.56856671582807
 20
464.40897335585237
 11
309.42095902964354
 21
463.4644470207088
  0
LINE
  8
_0-e_極細4
  6
CONTINUOUS
 62
    6
 10
363.90665697951079
 20
429.24442513561394
 11
368.12478905161549
 21
303.49612298616671
  0
ARC
  8
_0-e_極細4
  6
CONTINUOUS
 62
    6
 10
394.11017357029812
 20
304.36778313561285
 40
26
 50
181.92122338276789
 51
269.99999999999977
  0
LINE
  8
_0-e_極細4
  6
CONTINUOUS
 62
    6
 10
394.11017471123193
 20
288.36778513561262
 11
498.11579464686508
 21
288.36778513561262
  0
ARC
  8
_0-e_極細4
  6
CONTINUOUS
 62
    6
 10
394.11017471123193
 20
304.36778513561262
 40
16
 50
181.92122487639202
 51
269.99999999999977
  0
LINE
  8
_0-e_極細4
  6
CONTINUOUS
 62
    6
 10
394.11017357029812
 20
278.36778313561285
 11
407.54148617182216
 21
278.36778313561285
  0
ARC
  8
_0-e_極細4
  6
CONTINUOUS
 62
    6
 10
407.54148617182216
 20
268.36778313561285
 40
10
 50
4.7950413206381022
 51
89.999999999999915
  0
LINE
  8
_0-e_極細4
  6
CONTINUOUS
 62
    6
 10
417.50648714622218
 20
269.20369914825392
 11
420.45675301348854
 21
234.0334167305557
  0
ARC
  8
_0-e_極細4
  6
CONTINUOUS
 62
    6
 10
424.44275340324964
 20
234.36778313561285
 40
4
 50
184.79504132064682
 51
269.99999999999977
  0
LINE
  8
_0-e_極細4
  6
CONTINUOUS
 62
    6
 10
424.44275340324964
 20
230.36778313561285
 11
438.73329297951148
 21
230.36778313561285
  0
LINE
  8
_0-e_極細4
  6
CONTINUOUS
 62
    6
 10
439.9434689224712
 20
266.53076010991958
 11
438.73329297951148
 21
230.36778313561285
  0
LINE
  8
_0-e_極細4
  6
CONTINUOUS
 62
    6
 10
438.73329297951148
 20
230.36778313561285
 11
499.91574313697072
 21
230.36778313561285
  0
LINE
  8
_0-e_極細4
  6
CONTINUOUS
 62
    6
 10
440.73425897951381
 20
266.36778313561285
 11
499.91574313697072
 21
266.36778313561285
  0
ARC
  8
_0-e_極細4
  6
CONTINUOUS
 62
    6
 10
440.73425897951381
 20
268.36778313561285
 40
2
 50
179.99999999999983
 51
269.99999999999977
  0
LINE
  8
_0-e_極細4
  6
CONTINUOUS
 62
    6
 10
438.73425897951381
 20
268.36778313561285
 11
438.73425897951381
 21
276.36778313561285
  0
LINE
  8
_0-e_極細4
  6
CONTINUOUS
 62
    6
 10
440.73425897951381
 20
278.36778313561285
 11
499.91574313697072
 21
278.36778313561285
  0
ARC
  8
_0-e_極細4
  6
CONTINUOUS
 62
    6
 10
440.73425897951381
 20
276.36778313561285
 40
2
 50
89.999999999999915
 51
179.99999999999983
  0
LINE
  8
_0-e_極細4
  6
CONTINUOUS
 62
    6
 10
372.94210497951133
 20
458.16663313561116
 11
373.40896268664653
 21
444.24897542847725
  0
LINE
  8
_0-e_極細4
  6
CONTINUOUS
 62
    6
 10
373.40896268664653
 20
444.24897542847725
 11
378.11916886756387
 21
303.83137847293551
  0
LINE
  8
_0-e_極細4
  6
CONTINUOUS
 62
    6
 10
373.40896268664653
 20
444.24897542847725
 11
356.85186085811017
 21
460.8060772570127
  0
LINE
  8
_0-e_極細4
  6
CONTINUOUS
 62
    6
 10
327.80906667632405
 20
462.4338431349081
 11
356.85186085811017
 21
460.8060772570127
  0
LINE
  8
_0-e_極細4
  6
CONTINUOUS
 62
    6
 10
357.17937448837199
 20
460.78772105104531
 11
356.85186085811017
 21
460.8060772570127
  0
LINE
  8
_0-e_極細4
  6
CONTINUOUS
 62
    6
 10
352.74159236517914
 20
435.73382721217808
 11
358.65206097951193
 21
434.99720713561351
  0
LINE
  8
_0-e_極細4
  6
CONTINUOUS
 62
    6
 10
347.34059097951138
 20
445.8512911356122
 11
347.48700294100888
 21
441.48661028339598
  0
ARC
  8
_0-e_極細4
  6
CONTINUOUS
 62
    6
 10
353.48363004417331
 20
441.68776541163356
 40
6
 50
181.92125000262268
 51
262.89587342325314
  0
LINE
  8
_0-e_極細4
  6
CONTINUOUS
 62
    6
 10
422.57177016886124
 20
230.83233100941493
 11
420.90730127705172
 21
232.49679990122354
  0
LINE
  8
_0-e_極細4
  6
CONTINUOUS
 62
    6
 10
427.27895872978149
 20
230.36778313561285
 11
420.16771756335072
 21
237.47902430204726
  0
LINE
  8
_0-e_極細4
  6
CONTINUOUS
 62
    6
 10
431.52159941690331
 20
230.36778313561285
 11
419.77923489492093
 21
242.11014765759342
  0
LINE
  8
_0-e_極細4
  6
CONTINUOUS
 62
    6
 10
377.63771534268596
 20
284.25166720982929
 11
373.99405764451365
 21
287.8953249080007
  0
LINE
  8
_0-e_極細4
  6
CONTINUOUS
 62
    6
 10
435.7642401040215
 20
230.36778313561285
 11
419.39075222649296
 21
246.74127101314048
  0
LINE
  8
_0-e_極細4
  6
CONTINUOUS
 62
    6
 10
386.67992649689984
 20
279.45209674273451
 11
369.19448717742068
 21
296.93753606221458
  0
LINE
  8
_0-e_極細4
  6
CONTINUOUS
 62
    6
 10
438.77453288598224
 20
231.60013104076938
 11
419.00226955806863
 21
251.37239436868663
  0
LINE
  8
_0-e_極細4
  6
CONTINUOUS
 62
    6
 10
391.91395773984402
 20
278.46070618690851
 11
368.20309662159559
 21
302.17156730515967
  0
LINE
  8
_0-e_極細4
  6
CONTINUOUS
 62
    6
 10
438.91191336617919
 20
235.70539124769425
 11
418.61378688963885
 21
256.00351772423369
  0
LINE
  8
_0-e_極細4
  6
CONTINUOUS
 62
    6
 10
396.24952147825968
 20
278.36778313561285
 11
368.02078870653202
 21
306.59651590733961
  0
LINE
  8
_0-e_極細4
  6
CONTINUOUS
 62
    6
 10
439.04929384637251
 20
239.81065145461912
 11
418.22530422121088
 21
260.63464107978075
  0
LINE
  8
_0-e_極細4
  6
CONTINUOUS
 62
    6
 10
400.49216216538059
 20
278.36778313561285
 11
389.93884216461754
 21
288.921103136375
  0
LINE
  8
_0-e_極細4
  6
CONTINUOUS
 62
    6
 10
378.66349271199431
 20
300.19645258899823
 11
367.87353293669764
 21
310.98641236429307
  0
LINE
  8
_0-e_極細4
  6
CONTINUOUS
 62
    6
 10
439.18667432656946
 20
243.91591166154399
 11
417.83682155278382
 21
265.2657644353269
  0
LINE
  8
_0-e_極細4
  6
CONTINUOUS
 62
    6
 10
404.73480285249968
 20
278.36778313561285
 11
394.73480085249901
 21
288.36778513561171
  0
LINE
  8
_0-e_極細4
  6
CONTINUOUS
 62
    6
 10
378.07918328146059
 20
305.02340270665195
 11
367.72627716686691
 21
315.37630882124563
  0
LINE
  8
_0-e_極細4
  6
CONTINUOUS
 62
    6
 10
439.32405480676277
 20
248.02117186846795
 11
417.41935905755815
 21
269.92586761767348
  0
LINE
  8
_0-e_極細4
  6
CONTINUOUS
 62
    6
 10
409.09957065388187
 20
278.24565602134885
 11
398.97744153961719
 21
288.36778513561171
  0
LINE
  8
_0-e_極細4
  6
CONTINUOUS
 62
    6
 10
377.93192739308176
 20
309.41329928214805
 11
367.57902139703253
 21
319.76620527819819
  0
LINE
  8
_0-e_極細4
  6
CONTINUOUS
 62
    6
 10
439.461435286957
 20
252.12643207539281
 11
403.22008222673901
 21
288.36778513561171
  0
LINE
  8
_0-e_極細4
  6
CONTINUOUS
 62
    6
 10
377.78467150470567
 20
313.80319585764505
 11
367.43176562719907
 21
324.15610173515165
  0
LINE
  8
_0-e_極細4
  6
CONTINUOUS
 62
    6
 10
439.59881576715122
 20
256.23169228231677
 11
407.46272291385719
 21
288.36778513561171
  0
LINE
  8
_0-e_極細4
  6
CONTINUOUS
 62
    6
 10
377.63741561632776
 20
318.19309243314115
 11
367.28450985736561
 21
328.54599819210421
  0
LINE
  8
_0-e_極細4
  6
CONTINUOUS
 62
    6
 10
439.73619624734727
 20
260.33695248924164
 11
411.70536360097628
 21
288.36778513561171
  0
LINE
  8
_0-e_極細4
  6
CONTINUOUS
 62
    6
 10
377.49015972795166
 20
322.58298900863906
 11
367.13725408753123
 21
332.93589464905676
  0
LINE
  8
_0-e_極細4
  6
CONTINUOUS
 62
    6
 10
439.87357672754149
 20
264.44221269616651
 11
415.94800428809538
 21
288.36778513561171
  0
LINE
  8
_0-e_極細4
  6
CONTINUOUS
 62
    6
 10
377.34290383957284
 20
326.97288558413425
 11
366.98999831769777
 21
337.32579110600932
  0
LINE
  8
_0-e_極細4
  6
CONTINUOUS
 62
    6
 10
438.73425897951381
 20
269.8241711313151
 11
420.19064497521356
 21
288.36778513561262
  0
LINE
  8
_0-e_極細4
  6
CONTINUOUS
 62
    6
 10
377.19564795119675
 20
331.36278215963125
 11
366.8427425478643
 21
341.71568756296278
  0
LINE
  8
_0-e_極細4
  6
CONTINUOUS
 62
    6
 10
438.73425897951381
 20
274.0668118184351
 11
424.43328566233538
 21
288.36778513561262
  0
LINE
  8
_0-e_極細4
  6
CONTINUOUS
 62
    6
 10
377.04839206281792
 20
335.75267873512735
 11
366.69548677802993
 21
346.10558401991625
  0
LINE
  8
_0-e_極細4
  6
CONTINUOUS
 62
    6
 10
242.43328766233333
 20
470.36778313561194
 11
239.47179232386259
 21
473.3292784740845
  0
LINE
  8
_0-e_極細4
  6
CONTINUOUS
 62
    6
 10
439.29118087212407
 20
277.75253061294302
 11
428.67592634945356
 21
288.36778513561262
  0
LINE
  8
_0-e_極細4
  6
CONTINUOUS
 62
    6
 10
376.90113617444183
 20
340.14257531062435
 11
366.54823100819647
 21
350.49548047686881
  0
LINE
  8
_0-e_極細4
  6
CONTINUOUS
 62
    6
 10
246.67592834945242
 20
470.36778313561194
 11
240.31771778971176
 21
476.72599369535351
  0
LINE
  8
_0-e_極細4
  6
CONTINUOUS
 62
    6
 10
442.91856903657333
 20
278.36778313561285
 11
432.91856703657265
 21
288.36778513561262
  0
LINE
  8
_0-e_極細4
  6
CONTINUOUS
 62
    6
 10
376.75388028606392
 20
344.53247188612045
 11
366.400975238363
 21
354.88537693382136
  0
LINE
  8
_0-e_極細4
  6
CONTINUOUS
 62
    6
 10
250.91856903657333
 20
470.36778313561194
 11
241.16364325556094
 21
480.1227089166216
  0
LINE
  8
_0-e_極細4
  6
CONTINUOUS
 62
    6
 10
444.43312308291513
 20
281.09586977638924
 11
437.16120772369175
 21
288.36778513561262
  0
LINE
  8
_0-e_極細4
  6
CONTINUOUS
 62
    6
 10
376.60662439768782
 20
348.92236846161745
 11
366.25371946852863
 21
359.27527339077483
  0
LINE
  8
_0-e_極細4
  6
CONTINUOUS
 62
    6
 10
255.16120972369242
 20
470.36778313561194
 11
242.00956872141285
 21
483.51942413789243
  0
LINE
  8
_0-e_極細4
  6
CONTINUOUS
 62
    6
 10
444.5705036330213
 20
285.20112991340307
 11
441.40384841081266
 21
288.36778513561262
  0
LINE
  8
_0-e_極細4
  6
CONTINUOUS
 62
    6
 10
376.45936850931173
 20
353.31226503711537
 11
366.10646369869789
 21
363.66516984772738
  0
LINE
  8
_0-e_極細4
  6
CONTINUOUS
 62
    6
 10
259.40385041081061
 20
470.36778313561194
 11
243.40384841080993
 21
486.36778513561262
  0
LINE
  8
_0-e_極細4
  6
CONTINUOUS
 62
    6
 10
376.31211262093291
 20
357.70216161261055
 11
365.9592079288617
 21
368.05506630468176
  0
LINE
  8
_0-e_極細4
  6
CONTINUOUS
 62
    6
 10
264.91910754380513
 20
469.09516668973833
 11
247.64648909793175
 21
486.36778513561262
  0
LINE
  8
_0-e_極細4
  6
CONTINUOUS
 62
    6
 10
376.16485673255409
 20
362.09205818810756
 11
365.81195215903006
 21
372.44496276163432
  0
LINE
  8
_0-e_極細4
  6
CONTINUOUS
 62
    6
 10
274.79650681367673
 20
463.46040810698582
 11
256.89342065488597
 21
481.36349426577476
  0
LINE
  8
_0-e_極細4
  6
CONTINUOUS
 62
    6
 10
254.73425697951313
 20
483.52265794115124
 11
251.88912978504993
 21
486.36778513561262
  0
LINE
  8
_0-e_極細4
  6
CONTINUOUS
 62
    6
 10
376.01760084417799
 20
366.48195476360365
 11
365.66469638919659
 21
376.83485921858687
  0
LINE
  8
_0-e_極細4
  6
CONTINUOUS
 62
    6
 10
284.67390608354651
 20
457.82564952423422
 11
264.97845120146701
 21
477.52110440631373
  0
LINE
  8
_0-e_極細4
  6
CONTINUOUS
 62
    6
 10
375.87034495580008
 20
370.87185133909975
 11
365.51744061936222
 21
381.22475567553943
  0
LINE
  8
_0-e_極細4
  6
CONTINUOUS
 62
    6
 10
292.33587462962203
 20
454.40632166527689
 11
273.06348174804896
 21
473.67871454685178
  0
LINE
  8
_0-e_極細4
  6
CONTINUOUS
 62
    6
 10
375.72308906742398
 20
375.26174791459675
 11
365.37018484952875
 21
385.61465213249198
  0
LINE
  8
_0-e_極細4
  6
CONTINUOUS
 62
    6
 10
296.83042191841412
 20
454.15441506360571
 11
281.1485122946309
 21
469.83632468738983
  0
LINE
  8
_0-e_極細4
  6
CONTINUOUS
 62
    6
 10
375.57583317904789
 20
379.65164449009285
 11
365.22292907969529
 21
390.00454858944454
  0
LINE
  8
_0-e_極細4
  6
CONTINUOUS
 62
    6
 10
301.32496920720439
 20
453.90250846193544
 11
289.23354284121012
 21
465.99393482792971
  0
LINE
  8
_0-e_極細4
  6
CONTINUOUS
 62
    6
 10
375.42857729066907
 20
384.04154106558985
 11
365.07567330986092
 21
394.394445046398
  0
LINE
  8
_0-e_極細4
  6
CONTINUOUS
 62
    6
 10
305.81951649599648
 20
453.65060186026244
 11
295.2091413335005
 21
464.26097702275842
  0
LINE
  8
_0-e_極細4
  6
CONTINUOUS
 62
    6
 10
375.28132140229297
 20
388.43143764108595
 11
364.92841754002745
 21
398.78434150335056
  0
LINE
  8
_0-e_極細4
  6
CONTINUOUS
 62
    6
 10
310.31406378478857
 20
453.39869525859126
 11
299.70368795601678
 21
464.00907108736033
  0
LINE
  8
_0-e_極細4
  6
CONTINUOUS
 62
    6
 10
375.13406551391415
 20
392.82133421658386
 11
364.78116177019399
 21
403.17423796030312
  0
LINE
  8
_0-e_極細4
  6
CONTINUOUS
 62
    6
 10
314.80861107357794
 20
453.14678865692008
 11
304.19823457853488
 21
463.75716515196314
  0
LINE
  8
_0-e_極細4
  6
CONTINUOUS
 62
    6
 10
374.98680962553806
 20
397.21123079207905
 11
364.63390600035962
 21
407.56413441725567
  0
LINE
  8
_0-e_極細4
  6
CONTINUOUS
 62
    6
 10
319.30315836237003
 20
452.89488205524799
 11
308.69278120105298
 21
463.50525921656686
  0
LINE
  8
_0-e_極細4
  6
CONTINUOUS
 62
    6
 10
374.83955373716014
 20
401.60112736757605
 11
364.48665023052888
 21
411.95403087420914
  0
LINE
  8
_0-e_極細4
  6
CONTINUOUS
 62
    6
 10
323.79770565115939
 20
452.6429754535759
 11
312.12262403564125
 21
464.31805706909404
  0
LINE
  8
_0-e_極細4
  6
CONTINUOUS
 62
    6
 10
374.69229784878405
 20
405.99102394307306
 11
364.33939446069269
 21
416.3439273311626
  0
LINE
  8
_0-e_極細4
  6
CONTINUOUS
 62
    6
 10
328.29225293994966
 20
452.39106885190472
 11
313.6530038461791
 21
467.03031794567619
  0
LINE
  8
_0-e_極細4
  6
CONTINUOUS
 62
    6
 10
374.54504196040796
 20
410.38092051856916
 11
364.19213869085831
 21
420.73382378811516
  0
LINE
  8
_0-e_極細4
  6
CONTINUOUS
 62
    6
 10
332.78680022874175
 20
452.13916225023445
 11
314.45910450171084
 21
470.46685797726354
  0
LINE
  8
_0-e_極細4
  6
CONTINUOUS
 62
    6
 10
374.39778607202913
 20
414.77081709406525
 11
364.04488292102758
 21
425.12372024506772
  0
LINE
  8
_0-e_極細4
  6
CONTINUOUS
 62
    6
 10
353.53346694304525
 20
435.63513622304731
 11
347.48023503204638
 21
441.68836813404801
  0
LINE
  8
_0-e_極細4
  6
CONTINUOUS
 62
    6
 10
337.28134751753385
 20
451.88725564856145
 11
326.38647163577423
 21
462.78213153031925
  0
LINE
  8
_0-e_極細4
  6
CONTINUOUS
 62
    6
 10
324.38746018763629
 20
464.78114297845991
 11
315.26520515724258
 21
473.9033980088509
  0
LINE
  8
_0-e_極細4
  6
CONTINUOUS
 62
    6
 10
374.25053018365031
 20
419.16071366956226
 11
363.89104367435937
 21
429.5202001788532
  0
LINE
  8
_0-e_極細4
  6
CONTINUOUS
 62
    6
 10
358.38014732864701
 20
435.03109652456646
 11
347.32833532630173
 21
446.08290852691084
  0
LINE
  8
_0-e_極細4
  6
CONTINUOUS
 62
    6
 10
341.77673037081001
 20
451.63451348240346
 11
331.16552038705447
 21
462.24572346615719
  0
LINE
  8
_0-e_極細4
  6
CONTINUOUS
 62
    6
 10
322.99277842932349
 20
470.41846542388907
 11
316.0713058127734
 21
477.33993804043826
  0
LINE
  8
_0-e_極細4
  6
CONTINUOUS
 62
    6
 10
374.10327429527422
 20
423.55061024506017
 11
335.66006764403608
 21
461.99381689629831
  0
LINE
  8
_0-e_極細4
  6
CONTINUOUS
 62
    6
 10
321.6993708081485
 20
475.95451373218589
 11
317.69436929907567
 21
479.95951524125599
  0
LINE
  8
_0-e_極細4
  6
CONTINUOUS
 62
    6
 10
373.95601840689631
 20
427.94050682055536
 11
340.15461490101586
 21
461.74191032643671
  0
LINE
  8
_0-e_極細4
  6
CONTINUOUS
 62
    6
 10
373.80876251852021
 20
432.33040339605236
 11
344.64916215799474
 21
461.49000375657602
  0
LINE
  8
_0-e_極細4
  6
CONTINUOUS
 62
    6
 10
373.66150663014412
 20
436.72029997154846
 11
349.14370941497361
 21
461.23809718671714
  0
LINE
  8
_0-e_極細4
  6
CONTINUOUS
 62
    6
 10
373.5142507417653
 20
441.11019654704455
 11
353.63825667195522
 21
460.98619061685554
  0
LINE
  8
_0-e_極細4
  6
CONTINUOUS
 62
    6
 10
368.54444041340901
 20
494.58864404066503
 11
365.5781190559868
 21
467.89173382388822
  0
ARC
  8
_0-e_極細4
  6
CONTINUOUS
 62
    6
 10
370.53220789909972
 20
494.36778113561309
 40
2
 50
89.999999999999915
 51
173.65981249406067
  0
LINE
  8
_0-e_極細4
  6
CONTINUOUS
 62
    6
 10
373.22108879869336
 20
460.18672376728341
 11
365.57173739501593
 21
467.83607517095993
  0
LINE
  8
_0-e_極細4
  6
CONTINUOUS
 62
    6
 10
374.87154752779168
 20
462.778905725306
 11
365.99617883962526
 21
471.65427441347151
  0
LINE
  8
_0-e_極細4
  6
CONTINUOUS
 62
    6
 10
377.6625925309985
 20
464.23050140921737
 11
366.42044265088805
 21
475.472651289326
  0
LINE
  8
_0-e_極細4
  6
CONTINUOUS
 62
    6
 10
381.76795149172392
 20
464.36778313561194
 11
366.84470646215357
 21
479.2910281651823
  0
LINE
  8
_0-e_極細4
  6
CONTINUOUS
 62
    6
 10
386.01059217884028
 20
464.36778313561194
 11
367.26897027341636
 21
483.10940504103678
  0
LINE
  8
_0-e_極細4
  6
CONTINUOUS
 62
    6
 10
388.73425497951246
 20
465.8867610220625
 11
380.25323086596052
 21
474.36778513561262
  0
LINE
  8
_0-e_極細4
  6
CONTINUOUS
 62
    6
 10
376.73425497951246
 20
477.8867610220625
 11
367.69323408468188
 21
486.92778191689308
  0
LINE
  8
_0-e_極細4
  6
CONTINUOUS
 62
    6
 10
388.73425497951246
 20
470.12940170918159
 11
384.49587155307961
 21
474.36778513561262
  0
LINE
  8
_0-e_極細4
  6
CONTINUOUS
 62
    6
 10
376.73425497951246
 20
482.12940170918159
 11
368.11749789594467
 21
490.74615879274847
  0
LINE
  8
_0-e_極細4
  6
CONTINUOUS
 62
    6
 10
376.73851224020052
 20
486.36778513561262
 11
368.54176170720746
 21
494.56453566860478
  0
LINE
  8
_0-e_極細4
  6
CONTINUOUS
 62
    6
 10
380.98115292731961
 20
486.36778513561262
 11
370.98115692731824
 21
496.36778113561309
  0
LINE
  8
_0-e_極細4
  6
CONTINUOUS
 62
    6
 10
385.2237936144378
 20
486.36778513561262
 11
375.22379761443733
 21
496.36778113561309
  0
LINE
  8
_0-e_極細4
  6
CONTINUOUS
 62
    6
 10
388.73425497951246
 20
487.09996445765887
 11
379.46643830155551
 21
496.36778113561309
  0
LINE
  8
_0-e_極細4
  6
CONTINUOUS
 62
    6
 10
388.73425497951246
 20
491.34260514477796
 11
383.70907898867733
 21
496.36778113561309
  0
LINE
  8
_0-e_極細4
  6
CONTINUOUS
 62
    6
 10
388.73425497951246
 20
495.58524583189705
 11
387.95171967579552
 21
496.36778113561309
  0
LINE
  8
_0-e_極細4
  6
CONTINUOUS
 62
    6
 10
370.53220789909972
 20
496.36778113561309
 11
398.91574313697072
 21
496.36778113561309
  0
LINE
  8
_0-e_極細4
  6
CONTINUOUS
 62
    6
 10
376.73425497951246
 20
486.36778513561262
 11
398.91574313697072
 21
486.36778513561262
  0
LINE
  8
_0-e_極細4
  6
CONTINUOUS
 62
    6
 10
376.73425497951246
 20
474.36778513561262
 11
398.91574313697072
 21
474.36778513561262
  0
LINE
  8
_0-e_極細4
  6
CONTINUOUS
 62
    6
 10
378.93873297951211
 20
464.36778313561194
 11
398.91574313697072
 21
464.36778313561194
  0
LINE
  8
_1-1_寸法4
  6
CONTINUOUS
 62
    7
 10
459.40463011568534
 20
471.53776258738549
 11
448.0909216167006
 21
460.22405408840075
  0
LINE
  8
_1-1_寸法4
  6
CONTINUOUS
 62
    7
 10
459.40463011568534
 20
471.53776258738549
 11
443.94981689506017
 21
467.39665786574523
  0
LINE
  8
_1-1_寸法4
  6
CONTINUOUS
 62
    7
 10
459.40463011568534
 20
471.53776258738549
 11
308.29278478228696
 21
384.29329800640721
  0
LINE
  8
_1-1_寸法4
  6
CONTINUOUS
 62
    7
 10
308.29278478228696
 20
384.29329800640721
 11
154.69278478228716
 21
384.29329800640812
  0
TEXT
  8
_1-1_寸法4
 62
    7
 10
154.69278478228694
 20
384.29329800640721
 40
24
 41
0.7999999999999997
 50
0
  1
防臭インナー１号
  0
LINE
  8
_1-1_寸法4
  6
CONTINUOUS
 62
    7
 10
410.27970417544418
 20
393.05170821311481
 11
398.96599567645944
 21
381.73799971413007
  0
LINE
  8
_1-1_寸法4
  6
CONTINUOUS
 62
    7
 10
410.27970417544418
 20
393.05170821311481
 11
394.82489095481901
 21
388.91060349147455
  0
LINE
  8
_1-1_寸法4
  6
CONTINUOUS
 62
    7
 10
410.27970417544418
 20
393.05170821311481
 11
308.29278478228696
 21
334.16953284765646
  0
LINE
  8
_1-1_寸法4
  6
CONTINUOUS
 62
    7
 10
308.29278478228696
 20
334.16953284765646
 11
135.49278478228689
 21
334.16953284765646
  0
TEXT
  8
_1-1_寸法4
 62
    7
 10
135.49278478228712
 20
334.16953284765646
 40
24
 41
0.7999999999999997
 50
0
  1
縦引きトラップ本体
  0
LINE
  8
_1-1_寸法4
  6
CONTINUOUS
 62
    7
 10
435.69409359629969
 20
500.79170800334691
 11
424.38038509731496
 21
489.47799950436217
  0
LINE
  8
_1-1_寸法4
  6
CONTINUOUS
 62
    7
 10
435.69409359629969
 20
500.79170800334691
 11
420.23928037567453
 21
496.65060328170665
  0
LINE
  8
_1-1_寸法4
  6
CONTINUOUS
 62
    7
 10
435.69409359629969
 20
500.79170800334691
 11
308.29278478228696
 21
427.23652806446648
  0
LINE
  8
_1-1_寸法4
  6
CONTINUOUS
 62
    7
 10
308.29278478228696
 20
427.23652806446648
 11
154.69278478228716
 21
427.23652806446648
  0
TEXT
  8
_1-1_寸法4
 62
    7
 10
154.69278478228694
 20
427.23652806446648
 40
24
 41
0.7999999999999997
 50
0
  1
防臭インナー２号
  0
LINE
  8
_1-1_寸法4
  6
CONTINUOUS
 62
    7
 10
442.86938833793681
 20
214.36778313561285
 11
442.86938833793681
 21
166.36778313561285
  0
LINE
  8
_1-1_寸法4
  6
CONTINUOUS
 62
    7
 10
442.86938833793681
 20
174.36778313561285
 11
458.32420155856198
 21
178.50888785725317
  0
LINE
  8
_1-1_寸法4
  6
CONTINUOUS
 62
    7
 10
442.86938833793681
 20
174.36778313561285
 11
458.32420155856198
 21
170.22667841397254
  0
LINE
  8
_1-1_寸法4
  6
CONTINUOUS
 62
    7
 10
556.96209793600656
 20
214.36778313561285
 11
556.96209793600428
 21
166.36778313561285
  0
LINE
  8
_1-1_寸法4
  6
CONTINUOUS
 62
    7
 10
556.96209793600462
 20
174.36778313561285
 11
541.50728471537957
 21
170.22667841397254
  0
LINE
  8
_1-1_寸法4
  6
CONTINUOUS
 62
    7
 10
556.96209793600462
 20
174.36778313561285
 11
541.50728471537957
 21
178.50888785725328
  0
LINE
  8
_1-1_寸法4
  6
CONTINUOUS
 62
    7
 10
442.86938833793681
 20
174.36778313561285
 11
556.96209793600462
 21
174.36778313561285
  0
TEXT
  8
_1-1_寸法4
 62
    7
 10
445.91574313697072
 20
174.36778313561285
 40
24
 41
1
 50
0
  1
Rc2(59.6)
  0
LINE
  8
_1-1_寸法4
  6
CONTINUOUS
 62
    7
 10
453.90342596842981
 20
562.86370106431525
 11
439.66625596326344
 21
570.16459075283888
  0
LINE
  8
_1-1_寸法4
  6
CONTINUOUS
 62
    7
 10
453.90342596842981
 20
562.86370106431525
 11
445.22411991021977
 21
576.30504200738778
  0
LINE
  8
_1-1_寸法4
  6
CONTINUOUS
 62
    7
 10
453.90342596842981
 20
562.86370106431525
 11
422.90368406519735
 21
590.92228189927948
  0
LINE
  8
_1-1_寸法4
  6
CONTINUOUS
 62
    7
 10
422.90368406519735
 20
590.92228189927948
 11
307.70368406519742
 21
590.92228189927948
  0
TEXT
  8
_1-1_寸法4
 62
    7
 10
307.70368406519742
 20
590.92228189927982
 40
24
 41
0.7999999999999997
 50
-0.0000000000001696
  1
ストレーナー
  0
TEXT
  8
_1-1_寸法4
 62
    7
 10
607.08469159772937
 20
581.86177323393451
 40
24
 41
0.7999999999999998
 50
0
  1
Ｃ部
  0
TEXT
  8
_1-1_寸法4
 62
    7
 10
181.43310118964143
 20
270.38760697605198
 40
24
 41
0.7999999999999997
 50
-0.0000000000006785
  1
（ＨＦＴ－５Ｂ）
  0
LINE
  8
_1-1_寸法4
  6
CONTINUOUS
 62
    7
 10
373.26322343857498
 20
288.83058035629915
 11
361.94951493959024
 21
277.5168718573143
  0
LINE
  8
_1-1_寸法4
  6
CONTINUOUS
 62
    7
 10
373.26322343857498
 20
288.83058035629915
 11
357.80841021794993
 21
284.68947563465872
  0
LINE
  8
_1-1_寸法4
  6
CONTINUOUS
 62
    7
 10
373.26322343857498
 20
288.83058035629915
 11
335.0331011896418
 21
266.75840898472529
  0
LINE
  8
_1-1_寸法4
  6
CONTINUOUS
 62
    7
 10
335.0331011896418
 20
266.75840898472529
 11
200.63310118964182
 21
266.75840898472529
  0
TEXT
  8
_1-1_寸法4
 62
    7
 10
200.63310118964182
 20
290.75840898472529
 40
24
 41
0.7999999999999997
 50
0
  1
防水マス縦引き
  0
LINE
  8
_0-e_極細4
  6
CONTINUOUS
 62
    6
 10
737.14320025845825
 20
470.36778313561194
 11
709.34544110054719
 21
454.50999934893503
  0
LINE
  8
_0-e_極細4
  6
CONTINUOUS
 62
    6
 10
761.09723129442898
 20
470.36778313561194
 11
757.11255543443838
 21
486.36778513561262
  0
LINE
  8
_0-e_極細4
  6
CONTINUOUS
 62
    6
 10
757.11255543443838
 20
486.36778513561262
 11
745.0972292944283
 21
486.36778513561262
  0
LINE
  8
_0-e_極細4
  6
CONTINUOUS
 62
    6
 10
745.0972292944283
 20
482.38963121892471
 11
745.0972292944283
 21
486.36778513561262
  0
LINE
  8
_0-e_極細4
  6
CONTINUOUS
 62
    6
 10
745.0972292944283
 20
482.38963121892471
 11
707.26291955811337
 21
464.40897335585237
  0
LINE
  8
_0-e_極細4
  6
CONTINUOUS
 62
    6
 10
737.14320025845825
 20
470.36778313561194
 11
761.09723129442898
 21
470.36778313561194
  0
LINE
  8
_0-a_極細1
  6
CONTINUOUS
 62
    7
 10
825.4168007896975
 20
625.5790997400394
 11
844.61679886969762
 21
625.5790997400394
  0
LINE
  8
_0-a_極細1
  6
CONTINUOUS
 62
    7
 10
825.4168007896975
 20
626.64576630003955
 11
844.61679886969762
 21
626.64576630003955
  0
LINE
  8
_0-a_極細1
  6
CONTINUOUS
 62
    7
 10
825.24492489696934
 20
627.71243286003971
 11
844.61679886969762
 21
627.71243286003971
  0
LINE
  8
_0-a_極細1
  6
CONTINUOUS
 62
    7
 10
824.17825833696918
 20
628.77909942003987
 11
844.61679886969762
 21
628.77909942003987
  0
LINE
  8
_0-a_極細1
  6
CONTINUOUS
 62
    7
 10
823.11159177696902
 20
629.84576598003912
 11
844.61679886969762
 21
629.84576598003912
  0
LINE
  8
_0-a_極細1
  6
CONTINUOUS
 62
    7
 10
823.45534356242354
 20
630.91243254003928
 11
844.61679886969762
 21
630.91243254003928
  0
LINE
  8
_0-a_極細1
  6
CONTINUOUS
 62
    7
 10
824.52201012242369
 20
631.97909910003943
 11
844.61679886969762
 21
631.97909910003943
  0
LINE
  8
_0-a_極細1
  6
CONTINUOUS
 62
    7
 10
825.4168007896975
 20
633.04576566003959
 11
844.61679886969762
 21
633.04576566003959
  0
LINE
  8
_0-a_極細1
  6
CONTINUOUS
 62
    7
 10
825.4168007896975
 20
634.11243222004066
 11
844.61679886969762
 21
634.11243222004066
  0
LINE
  8
_0-a_極細1
  6
CONTINUOUS
 62
    7
 10
825.4168007896975
 20
635.17909878004082
 11
844.61679886969762
 21
635.17909878004082
  0
LINE
  8
_0-a_極細1
  6
CONTINUOUS
 62
    7
 10
825.4168007896975
 20
636.24576534004098
 11
844.61679886969762
 21
636.24576534004098
  0
LINE
  8
_0-a_極細1
  6
CONTINUOUS
 62
    7
 10
825.4168007896975
 20
637.31243190004022
 11
844.61679886969762
 21
637.31243190004022
  0
LINE
  8
_0-a_極細1
  6
CONTINUOUS
 62
    7
 10
825.4168007896975
 20
638.37909846004038
 11
844.61679886969762
 21
638.37909846004038
  0
LINE
  8
_0-a_極細1
  6
CONTINUOUS
 62
    7
 10
825.4168007896975
 20
639.44576502004054
 11
844.61679886969762
 21
639.44576502004054
  0
LINE
  8
_0-a_極細1
  6
CONTINUOUS
 62
    7
 10
824.71159161696926
 20
640.5124315800407
 11
844.99291042848711
 21
640.5124315800407
  0
LINE
  8
_0-a_極細1
  6
CONTINUOUS
 62
    7
 10
823.6449250569691
 20
641.57909814004086
 11
845.56179926048719
 21
641.57909814004086
  0
LINE
  8
_0-a_極細1
  6
CONTINUOUS
 62
    7
 10
822.92201028242528
 20
642.64576470004101
 11
846.13068809248728
 21
642.64576470004101
  0
LINE
  8
_0-a_極細1
  6
CONTINUOUS
 62
    7
 10
823.98867684242543
 20
643.71243126004117
 11
846.69957692448736
 21
643.71243126004117
  0
LINE
  8
_0-a_極細1
  6
CONTINUOUS
 62
    7
 10
825.05534340242559
 20
644.77909782004133
 11
847.26846575648744
 21
644.77909782004133
  0
LINE
  8
_0-a_極細1
  6
CONTINUOUS
 62
    7
 10
825.4168007896975
 20
645.84576438003967
 11
847.83735458848753
 21
645.84576438003967
  0
LINE
  8
_0-a_極細1
  6
CONTINUOUS
 62
    7
 10
825.4168007896975
 20
646.91243094003983
 11
848.40624342048761
 21
646.91243094003983
  0
LINE
  8
_0-a_極細1
  6
CONTINUOUS
 62
    7
 10
879.32648707430565
 20
599.55099810851277
 11
879.32648707430565
 21
681.87069866144827
  0
LINE
  8
_0-a_極細1
  6
CONTINUOUS
 62
    7
 10
878.25982051430731
 20
598.48433154851352
 11
878.25982051430731
 21
681.63997040790252
  0
LINE
  8
_0-a_極細1
  6
CONTINUOUS
 62
    7
 10
877.19315395430715
 20
597.41766498851337
 11
877.19315395430715
 21
681.17016637884751
  0
LINE
  8
_0-a_極細1
  6
CONTINUOUS
 62
    7
 10
876.12648739430699
 20
596.35099842851321
 11
876.12648739430699
 21
680.37934897285538
  0
LINE
  8
_0-a_極細1
  6
CONTINUOUS
 62
    7
 10
875.05982083430683
 20
595.28433186851305
 11
875.05982083430683
 21
678.99790497315951
  0
LINE
  8
_0-a_極細1
  6
CONTINUOUS
 62
    7
 10
873.99315427430668
 20
594.2176653085138
 11
873.99315427430668
 21
674.84031824204737
  0
LINE
  8
_0-a_極細1
  6
CONTINUOUS
 62
    7
 10
872.92648771430652
 20
593.15099874851364
 11
872.92648771430652
 21
672.63093013665582
  0
LINE
  8
_0-a_極細1
  6
CONTINUOUS
 62
    7
 10
871.85982115430636
 20
592.30797382390426
 11
871.85982115430636
 21
671.30990552632954
  0
LINE
  8
_0-a_極細1
  6
CONTINUOUS
 62
    7
 10
870.7931545943062
 20
592.30797382390426
 11
870.7931545943062
 21
670.37536925226902
  0
LINE
  8
_0-a_極細1
  6
CONTINUOUS
 62
    7
 10
869.72648803430604
 20
592.30797382390426
 11
869.72648803430604
 21
669.68986066522518
  0
LINE
  8
_0-a_極細1
  6
CONTINUOUS
 62
    7
 10
868.65982147430589
 20
592.30797382390426
 11
868.65982147430589
 21
669.19254448572553
  0
LINE
  8
_0-a_極細1
  6
CONTINUOUS
 62
    7
 10
867.59315491430573
 20
592.30797382390426
 11
867.59315491430573
 21
668.85141965638411
  0
LINE
  8
_0-a_極細1
  6
CONTINUOUS
 62
    7
 10
866.52648835430557
 20
592.30797382390426
 11
866.52648835430557
 21
668.64869372101691
  0
LINE
  8
_0-a_極細1
  6
CONTINUOUS
 62
    7
 10
865.45982179430541
 20
592.30797382390426
 11
865.45982179430541
 21
668.57507788344208
  0
LINE
  8
_0-a_極細1
  6
CONTINUOUS
 62
    7
 10
864.39315523430525
 20
592.30797382390426
 11
864.39315523430525
 21
668.57463286390555
  0
LINE
  8
_0-a_極細1
  6
CONTINUOUS
 62
    7
 10
863.3264886743051
 20
592.30797382390426
 11
863.3264886743051
 21
668.57463286390555
  0
LINE
  8
_0-a_極細1
  6
CONTINUOUS
 62
    7
 10
862.25982211430494
 20
592.30797382390426
 11
862.25982211430494
 21
668.57463286390555
  0
LINE
  8
_0-a_極細1
  6
CONTINUOUS
 62
    7
 10
861.19315555430478
 20
592.30797382390426
 11
861.19315555430478
 21
668.57463286390555
  0
LINE
  8
_0-a_極細1
  6
CONTINUOUS
 62
    7
 10
860.12648899430462
 20
592.30797382390426
 11
860.12648899430462
 21
668.57463286390555
  0
LINE
  8
_0-a_極細1
  6
CONTINUOUS
 62
    7
 10
859.05982243430446
 20
592.30797382390426
 11
859.05982243430446
 21
668.57463286390555
  0
LINE
  8
_0-a_極細1
  6
CONTINUOUS
 62
    7
 10
857.99315587430704
 20
592.30797382390426
 11
857.99315587430704
 21
668.48028067868597
  0
LINE
  8
_0-a_極細1
  6
CONTINUOUS
 62
    7
 10
856.92648931430688
 20
592.30797382390426
 11
856.92648931430688
 21
668.16988180205988
  0
LINE
  8
_0-a_極細1
  6
CONTINUOUS
 62
    7
 10
855.85982275430672
 20
592.30797382390426
 11
855.85982275430672
 21
667.59994472444794
  0
LINE
  8
_0-a_極細1
  6
CONTINUOUS
 62
    7
 10
854.79315619430656
 20
592.30797382390426
 11
854.79315619430656
 21
666.6517040572611
  0
LINE
  8
_0-a_極細1
  6
CONTINUOUS
 62
    7
 10
853.7264896343064
 20
592.30797382390426
 11
853.7264896343064
 21
664.81110753426344
  0
LINE
  8
_0-a_極細1
  6
CONTINUOUS
 62
    7
 10
852.65982307430625
 20
592.30797382390426
 11
852.65982307430625
 21
602.97463942390402
  0
LINE
  8
_0-a_極細1
  6
CONTINUOUS
 62
    7
 10
851.59315651430609
 20
592.30797382390426
 11
851.59315651430609
 21
602.97463942390402
  0
LINE
  8
_0-a_極細1
  6
CONTINUOUS
 62
    7
 10
850.52648995430593
 20
592.30797382390426
 11
850.52648995430593
 21
602.97463942390402
  0
LINE
  8
_0-a_極細1
  6
CONTINUOUS
 62
    7
 10
849.45982339430577
 20
592.30797382390426
 11
849.45982339430577
 21
602.97463942390402
  0
LINE
  8
_0-a_極細1
  6
CONTINUOUS
 62
    7
 10
848.39315683430561
 20
592.30797382390426
 11
848.39315683430561
 21
602.97463942390402
  0
LINE
  8
_0-a_極細1
  6
CONTINUOUS
 62
    7
 10
847.32649027430546
 20
592.30797382390426
 11
847.32649027430546
 21
602.97463942390402
  0
LINE
  8
_0-a_極細1
  6
CONTINUOUS
 62
    7
 10
846.2598237143053
 20
592.30797382390426
 11
846.2598237143053
 21
602.97463942390402
  0
LINE
  8
_0-a_極細1
  6
CONTINUOUS
 62
    7
 10
845.19315715430514
 20
592.30797382390426
 11
845.19315715430514
 21
602.97463942390402
  0
LINE
  8
_0-a_極細1
  6
CONTINUOUS
 62
    7
 10
844.12649059430498
 20
592.30797382390426
 11
844.12649059430498
 21
602.97463942390402
  0
LINE
  8
_0-a_極細1
  6
CONTINUOUS
 62
    7
 10
843.05982403430482
 20
592.30797382390426
 11
843.05982403430482
 21
602.97463942390402
  0
LINE
  8
_0-a_極細1
  6
CONTINUOUS
 62
    7
 10
841.9931574743074
 20
581.64130822390359
 11
841.9931574743074
 21
613.64130502390469
  0
LINE
  8
_0-a_極細1
  6
CONTINUOUS
 62
    7
 10
840.92649091430724
 20
581.64130822390359
 11
840.92649091430724
 21
613.64130502390469
  0
LINE
  8
_0-a_極細1
  6
CONTINUOUS
 62
    7
 10
839.85982435430708
 20
581.64130822390359
 11
839.85982435430708
 21
585.3393414755277
  0
LINE
  8
_0-a_極細1
  6
CONTINUOUS
 62
    7
 10
839.85982435430708
 20
592.84546177015579
 11
839.85982435430708
 21
613.64130502390469
  0
LINE
  8
_0-a_極細1
  6
CONTINUOUS
 62
    7
 10
838.79315779430692
 20
581.64130822390359
 11
838.79315779430692
 21
582.42669124629754
  0
LINE
  8
_0-a_極細1
  6
CONTINUOUS
 62
    7
 10
838.79315779430692
 20
592.84546177015579
 11
838.79315779430692
 21
613.64130502390469
  0
LINE
  8
_0-a_極細1
  6
CONTINUOUS
 62
    7
 10
837.72649123430676
 20
592.84546177015579
 11
837.72649123430676
 21
613.64130502390469
  0
LINE
  8
_0-a_極細1
  6
CONTINUOUS
 62
    7
 10
836.65982467430661
 20
592.84546177015579
 11
836.65982467430661
 21
613.64130502390469
  0
LINE
  8
_0-a_極細1
  6
CONTINUOUS
 62
    7
 10
835.59315811430645
 20
592.84546177015579
 11
835.59315811430645
 21
613.64130502390469
  0
LINE
  8
_0-a_極細1
  6
CONTINUOUS
 62
    7
 10
834.52649155430629
 20
592.84546177015579
 11
834.52649155430629
 21
613.64130502390469
  0
LINE
  8
_0-a_極細1
  6
CONTINUOUS
 62
    7
 10
833.45982499430613
 20
592.84546177015579
 11
833.45982499430613
 21
613.64130502390469
  0
LINE
  8
_0-a_極細1
  6
CONTINUOUS
 62
    7
 10
832.39315843430597
 20
592.84546177015579
 11
832.39315843430597
 21
613.64130502390469
  0
LINE
  8
_0-a_極細1
  6
CONTINUOUS
 62
    7
 10
831.32649187430582
 20
592.84546177015579
 11
831.32649187430582
 21
613.64130502390469
  0
LINE
  8
_0-a_極細1
  6
CONTINUOUS
 62
    7
 10
830.25982531430566
 20
592.84546177015579
 11
830.25982531430566
 21
613.64130502390469
  0
LINE
  8
_0-a_極細1
  6
CONTINUOUS
 62
    7
 10
829.1931587543055
 20
592.84546177015579
 11
829.1931587543055
 21
613.64130502390469
  0
LINE
  8
_0-a_極細1
  6
CONTINUOUS
 62
    7
 10
828.12649219430716
 20
592.84546177015579
 11
828.12649219430716
 21
613.64130502390469
  0
LINE
  8
_0-a_極細1
  6
CONTINUOUS
 62
    7
 10
813.41680198969664
 20
576.84546337015615
 11
813.41680198969664
 21
592.30797382390426
  0
ARC
  8
_0-a_極細1
  6
CONTINUOUS
 62
    7
 10
797.41680358969973
 20
592.84546177015579
 40
15.999998399999999
 50
358.07490068720375
 51
50.029499419969063
  0
LINE
  8
_0-a_極細1
  6
CONTINUOUS
 62
    7
 10
879.97146200089867
 20
674.64576150003938
 11
886.68025115566672
 21
674.64576150003938
  0
LINE
  8
_0-a_極細1
  6
CONTINUOUS
 62
    7
 10
879.97146200089867
 20
675.71242806003954
 11
895.90825023286709
 21
675.71242806003954
  0
LINE
  8
_0-a_極細1
  6
CONTINUOUS
 62
    7
 10
879.97146200089867
 20
676.7790946200397
 11
905.13624931006746
 21
676.7790946200397
  0
LINE
  8
_0-a_極細1
  6
CONTINUOUS
 62
    7
 10
879.97146200089867
 20
677.84576118003986
 11
914.36424838726782
 21
677.84576118003986
  0
LINE
  8
_0-a_極細1
  6
CONTINUOUS
 62
    7
 10
879.97146200089867
 20
678.91242774004002
 11
916.8834583096974
 21
678.91242774004002
  0
LINE
  8
_0-a_極細1
  6
CONTINUOUS
 62
    7
 10
879.97146200089867
 20
679.97909430004017
 11
916.8834583096974
 21
679.97909430004017
  0
LINE
  8
_0-a_極細1
  6
CONTINUOUS
 62
    7
 10
879.97146200089867
 20
681.04576086004033
 11
916.8834583096974
 21
681.04576086004033
  0
LINE
  8
_0-a_極細1
  6
CONTINUOUS
 62
    7
 10
881.67152695350308
 20
682.11242742004049
 11
916.8834583096974
 21
682.11242742004049
  0
LINE
  8
_0-a_極細1
  6
CONTINUOUS
 62
    7
 10
889.16058883270273
 20
683.17909398004065
 11
916.8834583096974
 21
683.17909398004065
  0
LINE
  8
_0-a_極細1
  6
CONTINUOUS
 62
    7
 10
896.64965071190329
 20
684.24576054004081
 11
916.8834583096974
 21
684.24576054004081
  0
LINE
  8
_0-a_極細1
  6
CONTINUOUS
 62
    7
 10
904.13871259110385
 20
685.31242710004096
 11
916.8834583096974
 21
685.31242710004096
  0
LINE
  8
_0-a_極細1
  6
CONTINUOUS
 62
    7
 10
911.62777447030351
 20
686.37909366004021
 11
916.8834583096974
 21
686.37909366004021
  0
LINE
  8
_0-a_極細1
  6
CONTINUOUS
 62
    7
 10
916.8834583096974
 20
687.20362300100476
 11
916.8834583096974
 21
690.89866804307474
  0
LINE
  8
_0-a_極細1
  6
CONTINUOUS
 62
    7
 10
879.97146200089867
 20
685.64129782390535
 11
916.8834583096974
 21
690.89866804307474
  0
LINE
  8
_0-a_極細1
  6
CONTINUOUS
 62
    7
 10
845.41679878969683
 20
648.84545617015681
 11
845.41679878969683
 21
653.64130102390425
  0
LINE
  8
_0-a_極細1
  6
CONTINUOUS
 62
    7
 10
845.41679878969683
 20
616.31212609015472
 11
845.41679878969683
 21
624.312125290155
  0
LINE
  8
_0-a_極細1
  6
CONTINUOUS
 62
    7
 10
825.4168007896975
 20
639.80722240731245
 11
825.4168007896975
 21
632.87388976731233
  0
LINE
  8
_0-a_極細1
  6
CONTINUOUS
 62
    7
 10
825.4168007896975
 20
627.54055696731155
 11
825.4168007896975
 21
624.87389056731206
  0
LINE
  8
_0-a_極細1
  6
CONTINUOUS
 62
    7
 10
844.61679886969762
 20
639.80722240731245
 11
844.61679886969762
 21
624.87389056731206
  0
LINE
  8
_0-a_極細1
  6
CONTINUOUS
 62
    7
 10
822.75013438969711
 20
642.47388880731194
 11
825.4168007896975
 21
645.14055520731142
  0
LINE
  8
_0-a_極細1
  6
CONTINUOUS
 62
    7
 10
825.4168007896975
 20
639.80722240731245
 11
822.75013438969711
 21
642.47388880731194
  0
LINE
  8
_0-a_極細1
  6
CONTINUOUS
 62
    7
 10
825.4168007896975
 20
627.54055696731155
 11
822.75013438969711
 21
630.20722336731194
  0
LINE
  8
_0-a_極細1
  6
CONTINUOUS
 62
    7
 10
822.75013438969711
 20
630.20722336731194
 11
825.4168007896975
 21
632.87388976731233
  0
LINE
  8
_0-a_極細1
  6
CONTINUOUS
 62
    7
 10
844.61679886969762
 20
639.80722240731245
 11
848.88346510969825
 21
647.80722160731182
  0
LINE
  8
_0-a_極細1
  6
CONTINUOUS
 62
    7
 10
825.4168007896975
 20
647.80722160731182
 11
825.4168007896975
 21
645.14055520731142
  0
ARC
  8
_0-a_極細1
  6
CONTINUOUS
 62
    7
 10
858.48346414969785
 20
680.30796502390456
 40
2.6666664
 50
24.054549000005153
 51
89.999999999999915
  0
ARC
  8
_0-a_極細1
  6
CONTINUOUS
 62
    7
 10
860.08346398969809
 20
673.37463238390444
 40
1.0666665599999394
 50
269.99999999999977
 51
359.99999999999966
  0
ARC
  8
_0-a_極細1
  6
CONTINUOUS
 62
    7
 10
858.48346414969785
 20
680.30796502390456
 40
2.6666664
 50
0
 51
24.054549000005153
  0
LINE
  8
_0-a_極細1
  6
CONTINUOUS
 62
    7
 10
849.68346502969746
 20
656.30796742390464
 11
849.68346502970019
 21
672.30796582390428
  0
LINE
  8
_0-a_極細1
  6
CONTINUOUS
 62
    7
 10
849.68346502970019
 20
672.30796582390428
 11
860.08346398969809
 21
672.30796582390428
  0
LINE
  8
_0-a_極細1
  6
CONTINUOUS
 62
    7
 10
861.15013054969825
 20
673.37463238390444
 11
861.15013054969825
 21
680.30796502390456
  0
LINE
  8
_0-a_極細1
  6
CONTINUOUS
 62
    7
 10
842.75013238969916
 20
592.30797382390426
 11
872.08346278969623
 21
592.30797382390426
  0
LINE
  8
_0-a_極細1
  6
CONTINUOUS
 62
    7
 10
838.32248483246315
 20
581.64130822390359
 11
842.75013238969916
 21
581.64130822390359
  0
LINE
  8
_0-a_極細1
  6
CONTINUOUS
 62
    7
 10
842.75013238969916
 20
606.70797238390458
 11
849.68346502969746
 21
606.70797238390458
  0
LINE
  8
_0-a_極細1
  6
CONTINUOUS
 62
    7
 10
842.75013238969916
 20
602.97463942390402
 11
853.41679798969801
 21
602.97463942390402
  0
LINE
  8
_0-a_極細1
  6
CONTINUOUS
 62
    7
 10
842.75013238969916
 20
581.64130822390359
 11
842.75013238969916
 21
613.64130502390469
  0
LINE
  8
_0-a_極細1
  6
CONTINUOUS
 62
    7
 10
879.97146200089867
 20
600.19597303510398
 11
872.08346278969623
 21
592.30797382390426
  0
LINE
  8
_0-a_極細1
  6
CONTINUOUS
 62
    7
 10
853.41679798969801
 20
602.97463942390402
 11
853.41679798969801
 21
662.97463342390381
  0
ARC
  8
_0-a_極細1
  6
CONTINUOUS
 62
    7
 10
859.01679742969793
 20
662.97463342390381
 40
5.5999994400000608
 50
89.999999999999915
 51
179.99999999999983
  0
LINE
  8
_0-a_極細1
  6
CONTINUOUS
 62
    7
 10
865.36999146104574
 20
668.57463286390555
 11
859.01679742969793
 21
668.57463286390555
  0
ARC
  8
_0-a_極細1
  6
CONTINUOUS
 62
    7
 10
865.36999146104574
 20
677.64129862390416
 40
9.0666657599999372
 50
269.99999999999977
 51
356.64911199999284
  0
ARC
  8
_0-a_極細1
  6
CONTINUOUS
 62
    7
 10
865.36999146104574
 20
677.64129862390416
 40
5.3333328
 50
269.99999999999977
 51
356.64911200000449
  0
ARC
  8
_0-a_極細1
  6
CONTINUOUS
 62
    7
 10
879.97146200089867
 20
676.30796542390397
 40
9.3333324000000015
 50
89.999999999999915
 51
175.84900999999539
  0
ARC
  8
_0-a_極細1
  6
CONTINUOUS
 62
    7
 10
859.01679742969793
 20
662.97463342390381
 40
9.3333324000000015
 50
89.999999999999915
 51
179.99999999999983
  0
LINE
  8
_0-a_極細1
  6
CONTINUOUS
 62
    7
 10
861.41679718969647
 20
672.30796582390428
 11
861.41679718969647
 21
685.64129782390535
  0
LINE
  8
_0-a_極細1
  6
CONTINUOUS
 62
    7
 10
849.68346502969746
 20
606.70797238390458
 11
849.68346502969746
 21
662.97463342390381
  0
LINE
  8
_0-a_極細1
  6
CONTINUOUS
 62
    7
 10
865.36999146104574
 20
672.30796582390428
 11
859.01679742969793
 21
672.30796582390428
  0
LINE
  8
_0-a_極細1
  6
CONTINUOUS
 62
    7
 10
828.0834671896979
 20
613.64130502390469
 11
849.68346502969746
 21
613.64130502390469
  0
LINE
  8
_0-a_極細1
  6
CONTINUOUS
 62
    7
 10
916.8834583096974
 20
678.13695724100523
 11
879.97146200089867
 21
673.87029100100642
  0
LINE
  8
_0-a_極細1
  6
CONTINUOUS
 62
    7
 10
879.97146200089594
 20
572.53696780100506
 11
872.08346278969623
 21
576.80363404100478
  0
LINE
  8
_0-a_極細1
  6
CONTINUOUS
 62
    7
 10
872.08346278969623
 20
576.80363404100478
 11
872.08346278969623
 21
592.30797382390426
  0
LINE
  8
_0-a_極細1
  6
CONTINUOUS
 62
    7
 10
916.8834583096974
 20
606.43158307821011
 11
916.8834583096974
 21
690.82270530576295
  0
LINE
  8
_0-a_極細1
  6
CONTINUOUS
 62
    7
 10
896.08346038969705
 20
603.470298041006
 11
916.8834583096974
 21
603.470298041006
  0
LINE
  8
_0-a_極細1
  6
CONTINUOUS
 62
    7
 10
916.8834583096974
 20
603.470298041006
 11
916.8834583096974
 21
606.43158307821011
  0
LINE
  8
_0-a_極細1
  6
CONTINUOUS
 62
    7
 10
896.08346038969705
 20
560.80363564100423
 11
896.08346038969705
 21
603.470298041006
  0
LINE
  8
_0-a_極細1
  6
CONTINUOUS
 62
    7
 10
879.97146200089867
 20
681.87028728766688
 11
916.8834583096974
 21
687.12766034193498
  0
LINE
  8
_0-a_極細1
  6
CONTINUOUS
 62
    7
 10
879.97146200089867
 20
600.19597303510398
 11
879.97146200089867
 21
681.90796486390479
  0
ARC
  8
_0-a_極細1
  6
CONTINUOUS
 62
    7
 10
879.97146200089867
 20
676.30796542390397
 40
5.5999994400000608
 50
89.999999999999915
 51
175.84900999999911
  0
LINE
  8
_0-a_極細1
  6
CONTINUOUS
 62
    7
 10
829.41680038969719
 20
576.84546337015615
 11
813.41680198969664
 21
576.84546337015615
  0
ARC
  8
_0-a_極細1
  6
CONTINUOUS
 62
    7
 10
829.41680038969719
 20
587.51212897015591
 40
10.6666656
 50
269.99999999999977
 51
359.99999999999966
  0
LINE
  8
_0-a_極細1
  6
CONTINUOUS
 62
    7
 10
840.08346598969877
 20
587.51212897015591
 11
840.08346598969877
 21
592.84546177015579
  0
LINE
  8
_0-a_極細1
  6
CONTINUOUS
 62
    7
 10
840.08346598969877
 20
592.84546177015579
 11
828.0834671896979
 21
592.84546177015579
  0
LINE
  8
_0-a_極細1
  6
CONTINUOUS
 62
    7
 10
845.41679878969683
 20
616.31212609015472
 11
828.0834671896979
 21
616.31212609015472
  0
LINE
  8
_0-a_極細1
  6
CONTINUOUS
 62
    7
 10
828.0834671896979
 20
592.84546177015579
 11
828.0834671896979
 21
616.31212609015563
  0
LINE
  8
_0-a_極細1
  6
CONTINUOUS
 62
    7
 10
843.81679894969932
 20
653.64130102390425
 11
843.81679894969932
 21
658.97463382390504
  0
ARC
  8
_0-a_極細1
  6
CONTINUOUS
 62
    7
 10
847.01679862969706
 20
656.30796742390464
 40
2.6666664
 50
269.99999999999977
 51
359.99999999999966
  0
CIRCLE
  8
_0-a_極細1
  6
CONTINUOUS
 62
    7
 10
850.88442414221447
 20
639.86071521159045
 40
99.281077021678612
  0
ARC
  8
_0-a_極細1
  6
CONTINUOUS
 62
    7
 10
909.4167923896963
 20
537.70962728373922
 40
26.666664000000004
 50
119.99999999999912
 51
161.13978923390184
  0
LINE
  8
_0-a_極細1
  6
CONTINUOUS
 62
    7
 10
869.41679638969765
 20
542.32465299117246
 11
869.41679638969765
 21
572.53696780100506
  0
LINE
  8
_0-a_極細1
  6
CONTINUOUS
 62
    7
 10
893.97269628840388
 20
559.44878238468516
 11
896.08346038969705
 21
561.55954648597651
  0
LINE
  8
_0-a_極細1
  6
CONTINUOUS
 62
    7
 10
869.41679638969765
 20
542.43535406438548
 11
896.08346038969705
 21
569.10201806438579
  0
LINE
  8
_0-a_極細1
  6
CONTINUOUS
 62
    7
 10
869.41679638969765
 20
546.20658985359057
 11
896.08346038969705
 21
572.87325385359088
  0
LINE
  8
_0-a_極細1
  6
CONTINUOUS
 62
    7
 10
869.41679638969765
 20
549.97782564279566
 11
896.08346038969705
 21
576.64448964279507
  0
LINE
  8
_0-a_極細1
  6
CONTINUOUS
 62
    7
 10
869.41679638969765
 20
553.74906143199985
 11
896.08346038969705
 21
580.41572543200016
  0
LINE
  8
_0-a_極細1
  6
CONTINUOUS
 62
    7
 10
869.41679638969765
 20
557.52029722120494
 11
896.08346038969705
 21
584.18696122120434
  0
LINE
  8
_0-a_極細1
  6
CONTINUOUS
 62
    7
 10
915.36679720949689
 20
603.470298041006
 11
916.8834583096974
 21
604.98695914120469
  0
LINE
  8
_0-a_極細1
  6
CONTINUOUS
 62
    7
 10
869.41679638969765
 20
561.29153301040913
 11
896.08346038969705
 21
587.95819701041034
  0
LINE
  8
_0-a_極細1
  6
CONTINUOUS
 62
    7
 10
911.59556142029271
 20
603.470298041006
 11
916.8834583096974
 21
608.75819493040979
  0
LINE
  8
_0-a_極細1
  6
CONTINUOUS
 62
    7
 10
869.41679638969765
 20
565.06276879961331
 11
876.89099539108668
 21
572.53696780100506
  0
LINE
  8
_0-a_極細1
  6
CONTINUOUS
 62
    7
 10
877.97233514003403
 20
573.6183075499506
 11
896.08346038969705
 21
591.72943279961362
  0
LINE
  8
_0-a_極細1
  6
CONTINUOUS
 62
    7
 10
907.82432563108853
 20
603.470298041006
 11
916.8834583096974
 21
612.52943071961488
  0
LINE
  8
_0-a_極細1
  6
CONTINUOUS
 62
    7
 10
869.41679638969765
 20
568.8340045888184
 11
873.11975960188249
 21
572.53696780100506
  0
LINE
  8
_0-a_極細1
  6
CONTINUOUS
 62
    7
 10
875.52492060197494
 20
574.94212880109842
 11
896.08346038969705
 21
595.50066858881871
  0
LINE
  8
_0-a_極細1
  6
CONTINUOUS
 62
    7
 10
904.05308984188252
 20
603.470298041006
 11
916.8834583096974
 21
616.30066650881906
  0
LINE
  8
_0-a_極細1
  6
CONTINUOUS
 62
    7
 10
873.07750606391858
 20
576.26595005224442
 11
896.08346038969705
 21
599.2719043780229
  0
LINE
  8
_0-a_極細1
  6
CONTINUOUS
 62
    7
 10
900.28185405267834
 20
603.470298041006
 11
916.8834583096974
 21
620.07190229802325
  0
LINE
  8
_0-a_極細1
  6
CONTINUOUS
 62
    7
 10
872.08346278969805
 20
579.04314256722807
 11
896.08346038969705
 21
603.04314016722799
  0
LINE
  8
_0-a_極細1
  6
CONTINUOUS
 62
    7
 10
896.51061826347507
 20
603.470298041006
 11
916.8834583096974
 21
623.84313808722743
  0
LINE
  8
_0-a_極細1
  6
CONTINUOUS
 62
    7
 10
872.08346278969805
 20
582.81437835643226
 11
916.8834583096974
 21
627.61437387643252
  0
LINE
  8
_0-a_極細1
  6
CONTINUOUS
 62
    7
 10
872.08346278969805
 20
586.58561414563735
 11
916.8834583096974
 21
631.38560966563762
  0
LINE
  8
_0-a_極細1
  6
CONTINUOUS
 62
    7
 10
872.08346278969805
 20
590.35684993484153
 11
916.8834583096974
 21
635.15684545484271
  0
LINE
  8
_0-a_極細1
  6
CONTINUOUS
 62
    7
 10
879.97146200089867
 20
602.01608493524634
 11
916.8834583096974
 21
638.9280812440478
  0
LINE
  8
_0-a_極細1
  6
CONTINUOUS
 62
    7
 10
879.97146200089867
 20
605.78732072445143
 11
916.8834583096974
 21
642.69931703325108
  0
LINE
  8
_0-a_極細1
  6
CONTINUOUS
 62
    7
 10
879.97146200089867
 20
609.55855651365653
 11
916.8834583096974
 21
646.47055282245708
  0
LINE
  8
_0-a_極細1
  6
CONTINUOUS
 62
    7
 10
879.97146200089867
 20
613.32979230286071
 11
916.8834583096974
 21
650.24178861166035
  0
LINE
  8
_0-a_極細1
  6
CONTINUOUS
 62
    7
 10
879.97146200089867
 20
617.1010280920658
 11
916.8834583096974
 21
654.01302440086454
  0
LINE
  8
_0-a_極細1
  6
CONTINUOUS
 62
    7
 10
879.97146200089867
 20
620.87226388126999
 11
916.8834583096974
 21
657.78426019006963
  0
LINE
  8
_0-a_極細1
  6
CONTINUOUS
 62
    7
 10
879.97146200089867
 20
624.64349967047599
 11
916.8834583096974
 21
661.55549597927472
  0
LINE
  8
_0-a_極細1
  6
CONTINUOUS
 62
    7
 10
879.97146200089867
 20
628.41473545967926
 11
916.8834583096974
 21
665.32673176847982
  0
LINE
  8
_0-a_極細1
  6
CONTINUOUS
 62
    7
 10
879.97146200089867
 20
632.18597124888345
 11
916.8834583096974
 21
669.09796755768491
  0
LINE
  8
_0-a_極細1
  6
CONTINUOUS
 62
    7
 10
879.97146200089867
 20
635.95720703808854
 11
916.8834583096974
 21
672.86920334688909
  0
LINE
  8
_0-a_極細1
  6
CONTINUOUS
 62
    7
 10
879.97146200089867
 20
639.72844282729363
 11
916.8834583096974
 21
676.64043913609328
  0
LINE
  8
_0-a_極細1
  6
CONTINUOUS
 62
    7
 10
879.97146200089867
 20
643.49967861649873
 11
914.31144048695808
 21
677.83965710255814
  0
LINE
  8
_0-a_極細1
  6
CONTINUOUS
 62
    7
 10
879.97146200089867
 20
647.270914405702
 11
910.04731323698581
 21
677.34676564179097
  0
LINE
  8
_0-a_極細1
  6
CONTINUOUS
 62
    7
 10
879.97146200089867
 20
651.042150194908
 11
905.78318598701264
 21
676.85387418102198
  0
LINE
  8
_0-a_極細1
  6
CONTINUOUS
 62
    7
 10
879.97146200089867
 20
654.81338598411219
 11
901.51905873703765
 21
676.36098272025208
  0
LINE
  8
_0-a_極細1
  6
CONTINUOUS
 62
    7
 10
879.97146200089867
 20
658.58462177331637
 11
897.25493148706539
 21
675.86809125948491
  0
LINE
  8
_0-a_極細1
  6
CONTINUOUS
 62
    7
 10
879.97146200089867
 20
662.35585756252055
 11
892.99080423709313
 21
675.37519979871593
  0
LINE
  8
_0-a_極細1
  6
CONTINUOUS
 62
    7
 10
879.97146200089867
 20
666.12709335172565
 11
888.72667698711996
 21
674.88230833794694
  0
LINE
  8
_0-a_極細1
  6
CONTINUOUS
 62
    7
 10
879.97146200089867
 20
669.89832914093074
 11
884.46254973714497
 21
674.38941687717977
  0
LINE
  8
_0-a_極細1
  6
CONTINUOUS
 62
    7
 10
879.97146200089867
 20
673.66956493013583
 11
880.19842248717271
 21
673.89652541640987
  0
LINE
  8
_0-a_極細1
  6
CONTINUOUS
 62
    7
 10
874.07998985409324
 20
543.3273117395787
 11
896.08346038969705
 21
565.3307822751807
  0
LINE
  8
_0-a_極細1
  6
CONTINUOUS
 62
    7
 10
879.23855426392367
 20
544.71464036020404
 11
887.67763728875218
 21
553.15372338503164
  0
LINE
  8
_0-a_極細1
  6
CONTINUOUS
 62
    7
 10
777.91699792215297
 20
572.53696780100506
 11
879.97146200089594
 21
572.53696780100506
  0
LINE
  8
_0-a_極細1
  6
CONTINUOUS
 62
    7
 10
774.19976616664155
 20
576.80363404100478
 11
872.08346278969623
 21
576.80363404100478
  0
LINE
  8
_0-a_極細1
  6
CONTINUOUS
 62
    7
 10
763.73243597728253
 20
592.30797382390426
 11
813.41680198969664
 21
592.30797382390426
  0
LINE
  8
_0-a_極細1
  6
CONTINUOUS
 62
    7
 10
765.72657291664893
 20
690.89866804307474
 11
916.8834583096974
 21
690.89866804307474
  0
LINE
  8
_0-a_極細1
  6
CONTINUOUS
 62
    7
 10
762.78862111924775
 20
685.64129782390535
 11
879.97146200089867
 21
685.64129782390535
  0
LINE
  8
_0-a_極細1
  6
CONTINUOUS
 62
    7
 10
761.45331946704175
 20
682.97463142390495
 11
858.48346414969785
 21
682.97463142390495
  0
LINE
  8
_0-a_極細1
  6
CONTINUOUS
 62
    7
 10
753.46065717610838
 20
658.97463382390504
 11
843.81679894969932
 21
658.97463382390504
  0
LINE
  8
_0-a_極細1
  6
CONTINUOUS
 62
    7
 10
752.56439714235114
 20
653.64130102390425
 11
847.01679862969706
 21
653.64130102390425
  0
LINE
  8
_0-a_極細1
  6
CONTINUOUS
 62
    7
 10
845.41679878969683
 20
648.84545617015681
 11
752.01073358455562
 21
648.84545617015681
  0
LINE
  8
_0-a_極細1
  6
CONTINUOUS
 62
    7
 10
751.92187925432756
 20
647.80722160731182
 11
848.88346510969825
 21
647.80722160731182
  0
LINE
  8
_0-a_極細1
  6
CONTINUOUS
 62
    7
 10
751.63774370229623
 20
642.47388880731194
 11
822.75013438969711
 21
642.47388880731194
  0
LINE
  8
_0-a_極細1
  6
CONTINUOUS
 62
    7
 10
752.07378529296477
 20
630.20722336731194
 11
822.75013438969711
 21
630.20722336731194
  0
LINE
  8
_0-a_極細1
  6
CONTINUOUS
 62
    7
 10
752.74102221592113
 20
624.87389056731206
 11
844.61679886969762
 21
624.87389056731206
  0
LINE
  8
_0-a_極細1
  6
CONTINUOUS
 62
    7
 10
845.41679878969683
 20
624.312125290155
 11
752.82845234018862
 21
624.312125290155
  0
LINE
  8
_0-a_極細1
  6
CONTINUOUS
 62
    7
 10
828.0834671896979
 20
616.31212609015563
 11
754.43653041210712
 21
616.31212609015563
  0
LINE
  8
_0-d_寸法1
  6
CONTINUOUS
 62
    7
 10
906.25197233992606
 20
680.80906988878576
 11
912.7830372390024
 21
695.41541067914295
  0
LINE
  8
_0-d_寸法1
  6
CONTINUOUS
 62
    7
 10
906.25197233992606
 20
680.80906988878576
 11
919.21121085146956
 21
690.19299962002981
  0
LINE
  8
_0-d_寸法1
  6
CONTINUOUS
 62
    7
 10
906.25197233992606
 20
680.80906988878576
 11
938.98467275961559
 21
721.09917319949034
  0
LINE
  8
_0-d_寸法1
  6
CONTINUOUS
 62
    7
 10
938.98467275961559
 20
721.09917319949034
 11
1009.3846727596157
 21
721.09917319949034
  0
TEXT
  8
_0-d_寸法1
 62
    7
 10
938.98467275961559
 20
721.09917319949034
 40
24
 41
0.7333333333333332
 50
0
  1
パッキン
  0
LINE
  8
_0-d_寸法1
  6
CONTINUOUS
 62
    7
 10
837.39296064821485
 20
632.09510985242503
 11
848.70661253056846
 21
620.78134473709247
  0
LINE
  8
_0-d_寸法1
  6
CONTINUOUS
 62
    7
 10
837.39296064821485
 20
632.09510985242503
 11
841.53398803024038
 21
616.64027590891999
  0
LINE
  8
_0-d_寸法1
  6
CONTINUOUS
 62
    7
 10
837.39296064821485
 20
632.09510985242503
 11
897.24146490570786
 21
528.43326172643572
  0
LINE
  8
_0-d_寸法1
  6
CONTINUOUS
 62
    7
 10
897.24146490570786
 20
528.43326172643572
 11
1073.2414649057077
 21
528.43326172643572
  0
TEXT
  8
_0-d_寸法1
 62
    7
 10
897.24146490570786
 20
528.43326172643572
 40
24
 41
0.7333333333333332
 50
0
  1
防臭インナーパッキン
  0
LINE
  8
_0-d_寸法1
  6
CONTINUOUS
 62
    7
 10
905.15277657008812
 20
611.07157028139625
 11
916.46700999745315
 21
599.75838673514829
  0
LINE
  8
_0-d_寸法1
  6
CONTINUOUS
 62
    7
 10
905.15277657008812
 20
611.07157028139625
 11
909.2945983694093
 21
595.61694921898686
  0
LINE
  8
_0-d_寸法1
  6
CONTINUOUS
 62
    7
 10
905.15277657008812
 20
611.07157028139625
 11
935.02967739987582
 21
559.32880461482671
  0
LINE
  8
_0-d_寸法1
  6
CONTINUOUS
 62
    7
 10
935.02967739987582
 20
559.32880461482671
 11
1058.2296773998755
 21
559.32880461482671
  0
TEXT
  8
_0-d_寸法1
 62
    7
 10
935.02967739987582
 20
559.32880461482671
 40
24
 41
0.7333333333333332
 50
0
  1
ロックフランジ
  0
LINE
  8
_0-a_極細1
  6
CONTINUOUS
 62
    7
 10
798.2598285143082
 20
583.24130806390474
 11
798.2598285143082
 21
592.30797382390426
  0
LINE
  8
_0-a_極細1
  6
CONTINUOUS
 62
    7
 10
797.19316195430804
 20
583.24130806390474
 11
797.19316195430804
 21
592.30797382390426
  0
LINE
  8
_0-a_極細1
  6
CONTINUOUS
 62
    7
 10
796.12649539430788
 20
583.24130806390474
 11
796.12649539430788
 21
592.30797382390426
  0
LINE
  8
_0-a_極細1
  6
CONTINUOUS
 62
    7
 10
795.05982883430772
 20
583.24130806390474
 11
795.05982883430772
 21
592.30797382390426
  0
LINE
  8
_0-a_極細1
  6
CONTINUOUS
 62
    7
 10
793.99316227430756
 20
583.24130806390474
 11
793.99316227430756
 21
592.30797382390426
  0
LINE
  8
_0-a_極細1
  6
CONTINUOUS
 62
    7
 10
792.92649571430741
 20
583.24130806390474
 11
792.92649571430741
 21
592.30797382390426
  0
LINE
  8
_0-a_極細1
  6
CONTINUOUS
 62
    7
 10
791.85982915430725
 20
583.24130806390474
 11
791.85982915430725
 21
592.30797382390426
  0
LINE
  8
_0-a_極細1
  6
CONTINUOUS
 62
    7
 10
790.79316259430709
 20
583.24130806390474
 11
790.79316259430709
 21
592.30797382390426
  0
LINE
  8
_0-a_極細1
  6
CONTINUOUS
 62
    7
 10
789.72649603430693
 20
583.24130806390474
 11
789.72649603430693
 21
592.30797382390426
  0
LINE
  8
_0-a_極細1
  6
CONTINUOUS
 62
    7
 10
788.65982947430678
 20
583.24130806390474
 11
788.65982947430678
 21
592.30797382390426
  0
LINE
  8
_0-a_極細1
  6
CONTINUOUS
 62
    7
 10
787.59316291430662
 20
583.24130806390474
 11
787.59316291430662
 21
592.30797382390426
  0
LINE
  8
_0-a_極細1
  6
CONTINUOUS
 62
    7
 10
786.52649635430646
 20
583.24130806390474
 11
786.52649635430646
 21
592.30797382390426
  0
LINE
  8
_0-a_極細1
  6
CONTINUOUS
 62
    7
 10
785.4598297943063
 20
583.24130806390474
 11
785.4598297943063
 21
592.30797382390426
  0
LINE
  8
_0-a_極細1
  6
CONTINUOUS
 62
    7
 10
784.39316323430614
 20
583.24130806390474
 11
784.39316323430614
 21
592.30797382390426
  0
LINE
  8
_0-a_極細1
  6
CONTINUOUS
 62
    7
 10
783.32649667430599
 20
583.24130806390474
 11
783.32649667430599
 21
592.30797382390426
  0
LINE
  8
_0-a_極細1
  6
CONTINUOUS
 62
    7
 10
782.25983011430583
 20
583.24130806390474
 11
782.25983011430583
 21
592.30797382390426
  0
LINE
  8
_0-a_極細1
  6
CONTINUOUS
 62
    7
 10
781.19316355430567
 20
583.24130806390474
 11
781.19316355430567
 21
592.30797382390426
  0
LINE
  8
_0-a_極細1
  6
CONTINUOUS
 62
    7
 10
780.12649699430551
 20
583.24130806390474
 11
780.12649699430551
 21
592.30797382390426
  0
LINE
  8
_0-a_極細1
  6
CONTINUOUS
 62
    7
 10
779.05983043430535
 20
583.24130806390474
 11
779.05983043430535
 21
592.30797382390426
  0
LINE
  8
_0-a_極細1
  6
CONTINUOUS
 62
    7
 10
777.9931638743052
 20
583.24130806390474
 11
777.9931638743052
 21
592.30797382390426
  0
LINE
  8
_0-a_極細1
  6
CONTINUOUS
 62
    7
 10
776.92649731430504
 20
583.24130806390474
 11
776.92649731430504
 21
592.30797382390426
  0
LINE
  8
_0-a_極細1
  6
CONTINUOUS
 62
    7
 10
775.8598307543067
 20
583.24130806390474
 11
775.8598307543067
 21
592.30797382390426
  0
LINE
  8
_0-a_極細1
  6
CONTINUOUS
 62
    7
 10
774.79316419430654
 20
583.24130806390474
 11
774.79316419430654
 21
592.30797382390426
  0
LINE
  8
_0-a_極細1
  6
CONTINUOUS
 62
    7
 10
773.72649763430638
 20
583.24130806390474
 11
773.72649763430638
 21
592.30797382390426
  0
LINE
  8
_0-a_極細1
  6
CONTINUOUS
 62
    7
 10
772.65983107430623
 20
583.24130806390474
 11
772.65983107430623
 21
592.30797382390426
  0
LINE
  8
_0-a_極細1
  6
CONTINUOUS
 62
    7
 10
798.94380610366318
 20
583.24130806390474
 11
798.94380610366318
 21
592.30797382390426
  0
LINE
  8
_0-a_極細1
  6
CONTINUOUS
 62
    7
 10
772.27714210366469
 20
583.24130806390474
 11
772.27714210366469
 21
592.30797382390426
  0
LINE
  8
_0-a_極細1
  6
CONTINUOUS
 62
    7
 10
772.27714210366469
 20
583.24130806390474
 11
798.94380610366318
 21
583.24130806390474
  0
ARC
  8
_0-a_極細1
  6
CONTINUOUS
 62
    7
 10
789.41680438969854
 20
578.84144183722526
 40
31.999996799999998
 50
55.166292356156141
 51
148.68484545273253
  0
LINE
  8
_0-a_極細1
  6
CONTINUOUS
 62
    7
 10
813.34766233051289
 20
592.30797382390426
 11
813.34766233051289
 21
594.33129102690907
  0
LINE
  8
_0-a_極細1
  6
CONTINUOUS
 62
    7
 10
811.74766233051162
 20
592.30797382390426
 11
811.74766233051162
 21
599.96068745532045
  0
LINE
  8
_0-a_極細1
  6
CONTINUOUS
 62
    7
 10
810.14766233051307
 20
592.30797382390426
 11
810.14766233051307
 21
602.53696240325951
  0
LINE
  8
_0-a_極細1
  6
CONTINUOUS
 62
    7
 10
808.54766233051271
 20
592.30797382390426
 11
808.54766233051271
 21
604.33910925439829
  0
LINE
  8
_0-a_極細1
  6
CONTINUOUS
 62
    7
 10
806.94766233051416
 20
592.30797382390426
 11
806.94766233051416
 21
605.61211263679468
  0
LINE
  8
_0-a_極細1
  6
CONTINUOUS
 62
    7
 10
805.34766233051289
 20
592.30797382390426
 11
805.34766233051289
 21
606.59405541630201
  0
LINE
  8
_0-a_極細1
  6
CONTINUOUS
 62
    7
 10
803.74766233051162
 20
592.30797382390426
 11
803.74766233051162
 21
607.45308817014609
  0
LINE
  8
_0-a_極細1
  6
CONTINUOUS
 62
    7
 10
802.14766233051125
 20
592.30797382390426
 11
802.14766233051125
 21
608.20000193970225
  0
LINE
  8
_0-a_極細1
  6
CONTINUOUS
 62
    7
 10
800.54766233051271
 20
592.30797382390426
 11
800.54766233051271
 21
608.8431717323723
  0
LINE
  8
_0-a_極細1
  6
CONTINUOUS
 62
    7
 10
798.94766233051143
 20
592.30797382390426
 11
798.94766233051143
 21
609.38915111487802
  0
LINE
  8
_0-a_極細1
  6
CONTINUOUS
 62
    7
 10
797.34766233051289
 20
592.30797382390426
 11
797.34766233051289
 21
609.84307546390062
  0
LINE
  8
_0-a_極細1
  6
CONTINUOUS
 62
    7
 10
795.74766233051162
 20
592.30797382390426
 11
795.74766233051162
 21
610.20894146555509
  0
LINE
  8
_0-a_極細1
  6
CONTINUOUS
 62
    7
 10
794.14766233051125
 20
592.30797382390426
 11
794.14766233051125
 21
610.48980322203931
  0
LINE
  8
_0-a_極細1
  6
CONTINUOUS
 62
    7
 10
792.54766233051271
 20
592.30797382390426
 11
792.54766233051271
 21
610.68790983219094
  0
LINE
  8
_0-a_極細1
  6
CONTINUOUS
 62
    7
 10
790.94766233051143
 20
592.30797382390426
 11
790.94766233051143
 21
610.80480006449886
  0
LINE
  8
_0-a_極細1
  6
CONTINUOUS
 62
    7
 10
789.34766233051289
 20
592.30797382390426
 11
789.34766233051289
 21
610.84136393987444
  0
LINE
  8
_0-a_極細1
  6
CONTINUOUS
 62
    7
 10
787.74766233051162
 20
592.30797382390426
 11
787.74766233051162
 21
610.79787718264868
  0
LINE
  8
_0-a_極細1
  6
CONTINUOUS
 62
    7
 10
786.14766233051125
 20
592.30797382390426
 11
786.14766233051125
 21
610.674011720865
  0
LINE
  8
_0-a_極細1
  6
CONTINUOUS
 62
    7
 10
784.54766233051271
 20
592.30797382390426
 11
784.54766233051271
 21
610.46882318325822
  0
LINE
  8
_0-a_極細1
  6
CONTINUOUS
 62
    7
 10
782.94766233051143
 20
592.30797382390426
 11
782.94766233051143
 21
610.18071426365566
  0
LINE
  8
_0-a_極細1
  6
CONTINUOUS
 62
    7
 10
781.34766233051289
 20
592.30797382390426
 11
781.34766233051289
 21
609.80737055943007
  0
LINE
  8
_0-a_極細1
  6
CONTINUOUS
 62
    7
 10
779.74766233051162
 20
592.30797382390426
 11
779.74766233051162
 21
609.34566264417606
  0
LINE
  8
_0-a_極細1
  6
CONTINUOUS
 62
    7
 10
778.14766233051125
 20
592.30797382390426
 11
778.14766233051125
 21
608.79150414850972
  0
LINE
  8
_0-a_極細1
  6
CONTINUOUS
 62
    7
 10
776.54766233051271
 20
592.30797382390426
 11
776.54766233051271
 21
608.13964959572911
  0
LINE
  8
_0-a_極細1
  6
CONTINUOUS
 62
    7
 10
774.94766233051143
 20
592.30797382390426
 11
774.94766233051143
 21
607.38340608762462
  0
LINE
  8
_0-a_極細1
  6
CONTINUOUS
 62
    7
 10
773.34766233051016
 20
592.30797382390426
 11
773.34766233051016
 21
606.5142167013704
  0
LINE
  8
_0-a_極細1
  6
CONTINUOUS
 62
    7
 10
771.74766233051162
 20
592.30797382390426
 11
771.74766233051162
 21
605.52104479701973
  0
LINE
  8
_0-a_極細1
  6
CONTINUOUS
 62
    7
 10
770.14766233051125
 20
592.30797382390426
 11
770.14766233051125
 21
604.38943509507078
  0
LINE
  8
_0-a_極細1
  6
CONTINUOUS
 62
    7
 10
768.54766233051271
 20
592.30797382390426
 11
768.54766233051271
 21
603.10002186395957
  0
LINE
  8
_0-a_極細1
  6
CONTINUOUS
 62
    7
 10
766.94766233051143
 20
592.30797382390426
 11
766.94766233051143
 21
601.6260298371011
  0
LINE
  8
_0-a_極細1
  6
CONTINUOUS
 62
    7
 10
765.34766233051016
 20
592.30797382390426
 11
765.34766233051016
 21
599.9287886531414
  0
LINE
  8
_0-a_極細1
  6
CONTINUOUS
 62
    7
 10
763.74766233051162
 20
592.30797382390426
 11
763.74766233051162
 21
597.94889957354678
  0
LINE
  8
_0-a_極細1
  6
CONTINUOUS
 62
    7
 10
762.14766233051125
 20
595.33522411090178
 11
762.14766233051125
 21
595.58640187169328
  0
TEXT
  8
_0-7_枠細線
 62
    5
 10
769.79903707383949
 20
473.66985301776862
 40
40
 41
0.8
 50
0
  1
Ｃ部拡大図
  0
ARC
  8
_0-1_計細線
  6
CONTINUOUS
 62
    3
 10
820.47922052150307
 20
865.86428260452919
 40
1
 50
89.999999999999915
 51
179.99999999998698
  0
LINE
  8
_0-1_計細線
  6
CONTINUOUS
 62
    3
 10
819.47922052150307
 20
858.86428260452919
 11
819.47922052150307
 21
865.86428260452942
  0
ARC
  8
_0-1_計細線
  6
CONTINUOUS
 62
    3
 10
1414.4792205215026
 20
865.86428260452931
 40
1
 50
0
 51
89.999999999999915
  0
LINE
  8
_0-1_計細線
  6
CONTINUOUS
 62
    3
 10
1415.4792205215026
 20
858.86428260452931
 11
1415.4792205215026
 21
865.86428260452931
  0
ARC
  8
_0-1_計細線
  6
CONTINUOUS
 62
    3
 10
1405.4792205215026
 20
865.86428260452931
 40
1
 50
89.999999999999915
 51
179.99999999999983
  0
LINE
  8
_0-1_計細線
  6
CONTINUOUS
 62
    3
 10
1414.7792205215028
 20
858.86428260452931
 11
1415.4792205215026
 21
858.86428260452931
  0
LINE
  8
_0-1_計細線
  6
CONTINUOUS
 62
    3
 10
1405.1792205215029
 20
866.16428260452938
 11
1405.1792205215029
 21
858.86428260452931
  0
LINE
  8
_0-1_計細線
  6
CONTINUOUS
 62
    3
 10
1405.1792205215029
 20
858.86428260452931
 11
1414.7792205215028
 21
858.86428260452931
  0
LINE
  8
_0-1_計細線
  6
CONTINUOUS
 62
    3
 10
1414.7792205215028
 20
858.86428260452931
 11
1414.7792205215028
 21
866.16428260452938
  0
LINE
  8
_0-1_計細線
  6
CONTINUOUS
 62
    3
 10
1414.7792205215028
 20
866.16428260452938
 11
1405.1792205215029
 21
866.16428260452938
  0
LINE
  8
_0-1_計細線
  6
CONTINUOUS
 62
    3
 10
1414.4792205215026
 20
866.86428260452931
 11
1404.9792205215031
 21
866.86428260452931
  0
LINE
  8
_0-1_計細線
  6
CONTINUOUS
 62
    3
 10
819.47922052150307
 20
858.86428260453067
 11
1335.4792205215031
 21
858.86428260453067
  0
LINE
  8
_0-1_計細線
  6
CONTINUOUS
 62
    3
 10
1404.9792205215031
 20
866.86428260452931
 11
820.47922052150352
 21
866.86428260452931
  0
ARC
  8
_0-1_計細線
  6
CONTINUOUS
 62
    3
 10
831.47922052150307
 20
846.36428260452942
 40
1
 50
179.99999999999983
 51
269.99999999999977
  0
LINE
  8
_0-1_計細線
  6
CONTINUOUS
 62
    3
 10
830.47922052150307
 20
846.36428260452942
 11
830.47922052150307
 21
858.86428260453079
  0
ARC
  8
_0-1_計細線
  6
CONTINUOUS
 62
    3
 10
1404.1792205215029
 20
846.36428260452931
 40
1
 50
269.99999999999977
 51
359.99999999999966
  0
LINE
  8
_0-1_計細線
  6
CONTINUOUS
 62
    3
 10
1405.1792205215029
 20
858.86428260452931
 11
1405.1792205215029
 21
846.36428260452931
  0
LINE
  8
_0-1_計細線
  6
CONTINUOUS
 62
    3
 10
1404.4792205215026
 20
865.86428260452931
 11
1404.4792205215026
 21
846.06428260452935
  0
LINE
  8
_0-1_計細線
  6
CONTINUOUS
 62
    3
 10
1403.4792205215026
 20
866.86428260452931
 11
1403.4792205215026
 21
846.86428260452931
  0
LINE
  8
_0-1_計細線
  6
CONTINUOUS
 62
    3
 10
1335.4792205215026
 20
862.96428260452944
 11
1403.4792205215026
 21
862.96428260452944
  0
LINE
  8
_0-0_計極細
  6
CONTINUOUS
 62
    2
 10
1335.4792205215026
 20
865.7642826045294
 11
1403.4792205215026
 21
865.7642826045294
  0
LINE
  8
_0-1_計細線
  6
CONTINUOUS
 62
    3
 10
1335.4792205215026
 20
846.86428260452931
 11
1403.4792205215026
 21
846.86428260452931
  0
LINE
  8
_0-5_寸法線
  6
CONTINUOUS
 62
    7
 10
854.47922052150307
 20
822.36428260452931
 11
863.20450794183932
 21
808.95274430974291
  0
LINE
  8
_0-5_寸法線
  6
CONTINUOUS
 62
    7
 10
854.47922052150307
 20
822.36428260452931
 11
855.32977193544195
 21
806.3869060272483
  0
LINE
  8
_0-5_寸法線
  6
CONTINUOUS
 62
    7
 10
854.47922052150307
 20
822.36428260452931
 11
867.61977382617624
 21
782.03501128674043
  0
LINE
  8
_0-5_寸法線
  6
CONTINUOUS
 62
    7
 10
867.61977382617624
 20
782.03501128674043
 11
944.4197738261762
 21
782.03501128674043
  0
TEXT
  8
_0-5_寸法線
 62
    7
 10
867.61977382617624
 20
782.03501128674043
 40
24
 41
0.8000000000000001
 50
0
  1
アンカー
  0
LINE
  8
_0-0_計極細
  6
CENTER1
 62
    2
 10
854.47922052150307
 20
817.58140087879065
 11
854.47922052150307
 21
862.63510095632819
  0
LINE
  8
_0-1_計細線
  6
CONTINUOUS
 62
    3
 10
848.47922067458376
 20
857.36428260452931
 11
846.47922067458376
 21
855.36428260452931
  0
LINE
  8
_0-1_計細線
  6
CONTINUOUS
 62
    3
 10
846.47922067458376
 20
845.36428260452931
 11
846.47922067458376
 21
855.36428260452931
  0
LINE
  8
_0-1_計細線
  6
CONTINUOUS
 62
    3
 10
862.47922036842238
 20
845.36428260452931
 11
862.47922036842238
 21
855.36428260452931
  0
LINE
  8
_0-1_計細線
  6
CONTINUOUS
 62
    3
 10
848.47922067458376
 20
841.36428260452931
 11
846.47922067458376
 21
839.36428260452931
  0
LINE
  8
_0-1_計細線
  6
CONTINUOUS
 62
    3
 10
848.47922067458376
 20
843.36428260452931
 11
848.47922067458376
 21
841.36428260452931
  0
LINE
  8
_0-1_計細線
  6
CONTINUOUS
 62
    3
 10
846.47922067458376
 20
845.36428260452931
 11
848.47922067458376
 21
843.36428260452931
  0
LINE
  8
_0-1_計細線
  6
CONTINUOUS
 62
    3
 10
860.47922036842238
 20
841.36428260452931
 11
862.47922036842238
 21
839.36428260452931
  0
LINE
  8
_0-1_計細線
  6
CONTINUOUS
 62
    3
 10
860.47922036842238
 20
843.36428260452931
 11
860.47922036842238
 21
841.36428260452931
  0
LINE
  8
_0-1_計細線
  6
CONTINUOUS
 62
    3
 10
862.47922036842238
 20
845.36428260452931
 11
860.47922036842238
 21
843.36428260452931
  0
LINE
  8
_0-1_計細線
  6
CONTINUOUS
 62
    3
 10
846.47922067458376
 20
839.36428260452931
 11
846.47922067458376
 21
825.36428260452931
  0
ARC
  8
_0-1_計細線
  6
CONTINUOUS
 62
    3
 10
849.47922067458376
 20
825.36428260452931
 40
3
 50
179.99999999999983
 51
269.99999999999977
  0
LINE
  8
_0-1_計細線
  6
CONTINUOUS
 62
    3
 10
849.47922067458376
 20
822.36428260452931
 11
859.47922036842238
 21
822.36428260452931
  0
LINE
  8
_0-1_計細線
  6
CONTINUOUS
 62
    3
 10
862.47922036842238
 20
839.36428260452931
 11
862.47922036842238
 21
825.36428260452931
  0
ARC
  8
_0-1_計細線
  6
CONTINUOUS
 62
    3
 10
859.47922036842238
 20
825.36428260452931
 40
3
 50
269.99999999999977
 51
359.99999999999966
  0
LINE
  8
_0-1_計細線
  6
CONTINUOUS
 62
    3
 10
848.47922067458376
 20
857.36428260452931
 11
860.47922036842238
 21
857.36428260452931
  0
LINE
  8
_0-1_計細線
  6
CONTINUOUS
 62
    3
 10
862.47922036842238
 20
855.36428260452931
 11
860.47922036842238
 21
857.36428260452931
  0
LINE
  8
_0-0_計極細
  6
DASHED2
 62
    2
 10
1380.4792205215026
 20
817.58140087879065
 11
1380.4792205215026
 21
862.63510095632819
  0
LINE
  8
_0-1_計細線
  6
DASHED2
 62
    3
 10
1388.4792203684219
 20
855.36428260452931
 11
1386.4792203684219
 21
857.36428260452931
  0
LINE
  8
_0-1_計細線
  6
DASHED2
 62
    3
 10
1374.4792206745833
 20
857.36428260452931
 11
1386.4792203684219
 21
857.36428260452931
  0
ARC
  8
_0-1_計細線
  6
DASHED2
 62
    3
 10
1385.4792203684219
 20
825.36428260452931
 40
3
 50
269.99999999999977
 51
359.99999999999966
  0
LINE
  8
_0-1_計細線
  6
DASHED2
 62
    3
 10
1388.4792203684219
 20
839.36428260452931
 11
1388.4792203684219
 21
825.36428260452931
  0
LINE
  8
_0-1_計細線
  6
DASHED2
 62
    3
 10
1375.4792206745833
 20
822.36428260452931
 11
1385.4792203684219
 21
822.36428260452931
  0
ARC
  8
_0-1_計細線
  6
DASHED2
 62
    3
 10
1375.4792206745833
 20
825.36428260452931
 40
3
 50
179.99999999999983
 51
269.99999999999977
  0
LINE
  8
_0-1_計細線
  6
DASHED2
 62
    3
 10
1372.4792206745833
 20
839.36428260452931
 11
1372.4792206745833
 21
825.36428260452931
  0
LINE
  8
_0-1_計細線
  6
DASHED2
 62
    3
 10
1388.4792203684219
 20
845.36428260452931
 11
1386.4792203684219
 21
843.36428260452931
  0
LINE
  8
_0-1_計細線
  6
DASHED2
 62
    3
 10
1386.4792203684219
 20
843.36428260452931
 11
1386.4792203684219
 21
841.36428260452931
  0
LINE
  8
_0-1_計細線
  6
DASHED2
 62
    3
 10
1386.4792203684219
 20
841.36428260452931
 11
1388.4792203684219
 21
839.36428260452931
  0
LINE
  8
_0-1_計細線
  6
DASHED2
 62
    3
 10
1372.4792206745833
 20
845.36428260452931
 11
1374.4792206745833
 21
843.36428260452931
  0
LINE
  8
_0-1_計細線
  6
DASHED2
 62
    3
 10
1374.4792206745833
 20
843.36428260452931
 11
1374.4792206745833
 21
841.36428260452931
  0
LINE
  8
_0-1_計細線
  6
DASHED2
 62
    3
 10
1374.4792206745833
 20
841.36428260452931
 11
1372.4792206745833
 21
839.36428260452931
  0
LINE
  8
_0-1_計細線
  6
DASHED2
 62
    3
 10
1388.4792203684219
 20
845.36428260452931
 11
1388.4792203684219
 21
855.36428260452931
  0
LINE
  8
_0-1_計細線
  6
DASHED2
 62
    3
 10
1372.4792206745833
 20
845.36428260452931
 11
1372.4792206745833
 21
855.36428260452931
  0
LINE
  8
_0-1_計細線
  6
DASHED2
 62
    3
 10
1374.4792206745833
 20
857.36428260452931
 11
1372.4792206745833
 21
855.36428260452931
  0
LINE
  8
_0-1_計細線
  6
CONTINUOUS
 62
    3
 10
862.47922036842238
 20
845.36428260452931
 11
1335.4792205215031
 21
845.36428260452931
  0
LINE
  8
_0-1_計細線
  6
CONTINUOUS
 62
    3
 10
831.47922052150307
 20
845.36428260452931
 11
846.47922067458376
 21
845.36428260452931
  0
LINE
  8
_0-5_寸法線
  6
CONTINUOUS
 62
    7
 10
819.47922052150318
 20
882.86428260452931
 11
819.47922052150352
 21
954.86428260452931
  0
LINE
  8
_0-5_寸法線
  6
CONTINUOUS
 62
    7
 10
819.47922052150352
 20
946.86428260452931
 11
834.93403374212858
 21
951.00538732616963
  0
LINE
  8
_0-5_寸法線
  6
CONTINUOUS
 62
    7
 10
819.47922052150352
 20
946.86428260452931
 11
834.93403374212858
 21
942.72317788288899
  0
LINE
  8
_0-5_寸法線
  6
CONTINUOUS
 62
    7
 10
854.47922052150318
 20
882.86428260452931
 11
854.47922052150352
 21
954.86428260452931
  0
LINE
  8
_0-5_寸法線
  6
CONTINUOUS
 62
    7
 10
854.47922052150352
 20
946.86428260452931
 11
839.02440730087847
 21
942.72317788288899
  0
LINE
  8
_0-5_寸法線
  6
CONTINUOUS
 62
    7
 10
854.47922052150352
 20
946.86428260452931
 11
839.02440730087847
 21
951.00538732616974
  0
LINE
  8
_0-5_寸法線
  6
CONTINUOUS
 62
    7
 10
819.47922052150352
 20
946.86428260452931
 11
854.47922052150352
 21
946.86428260452931
  0
TEXT
  8
_0-5_寸法線
 62
    7
 10
824.97922052150352
 20
946.86428260452931
 40
24
 41
1
 50
0
  1
35
  0
LINE
  8
_0-5_寸法線
  6
CONTINUOUS
 62
    7
 10
854.47922052150352
 20
946.86428260452931
 11
869.93403374212869
 21
951.00538732616951
  0
LINE
  8
_0-5_寸法線
  6
CONTINUOUS
 62
    7
 10
854.47922052150352
 20
946.86428260452931
 11
869.93403374212858
 21
942.72317788288888
  0
LINE
  8
_0-5_寸法線
  6
CONTINUOUS
 62
    7
 10
1380.4792205215031
 20
882.86428260452931
 11
1380.4792205215035
 21
954.86428260452931
  0
LINE
  8
_0-5_寸法線
  6
CONTINUOUS
 62
    7
 10
1380.4792205215035
 20
946.86428260452931
 11
1365.0244073008785
 21
942.72317788288899
  0
LINE
  8
_0-5_寸法線
  6
CONTINUOUS
 62
    7
 10
1380.4792205215035
 20
946.86428260452931
 11
1365.0244073008785
 21
951.00538732616974
  0
LINE
  8
_0-5_寸法線
  6
CONTINUOUS
 62
    7
 10
854.47922052150352
 20
946.86428260452931
 11
1380.4792205215035
 21
946.86428260452931
  0
TEXT
  8
_0-5_寸法線
 62
    7
 10
1099.4792205215035
 20
946.86428260452931
 40
24
 41
1
 50
0
  1
526
  0
LINE
  8
_0-5_寸法線
  6
CONTINUOUS
 62
    7
 10
1380.4792205215035
 20
946.86428260452931
 11
1395.9340337421286
 21
951.00538732616951
  0
LINE
  8
_0-5_寸法線
  6
CONTINUOUS
 62
    7
 10
1380.4792205215035
 20
946.86428260452931
 11
1395.9340337421286
 21
942.72317788288888
  0
LINE
  8
_0-5_寸法線
  6
CONTINUOUS
 62
    7
 10
1415.4792205215031
 20
882.86428260452931
 11
1415.4792205215035
 21
954.86428260452931
  0
LINE
  8
_0-5_寸法線
  6
CONTINUOUS
 62
    7
 10
1415.4792205215035
 20
946.86428260452931
 11
1400.0244073008785
 21
942.72317788288899
  0
LINE
  8
_0-5_寸法線
  6
CONTINUOUS
 62
    7
 10
1415.4792205215035
 20
946.86428260452931
 11
1400.0244073008785
 21
951.00538732616974
  0
LINE
  8
_0-5_寸法線
  6
CONTINUOUS
 62
    7
 10
1380.4792205215035
 20
946.86428260452931
 11
1415.4792205215035
 21
946.86428260452931
  0
TEXT
  8
_0-5_寸法線
 62
    7
 10
1385.9792205215035
 20
946.86428260452931
 40
24
 41
1
 50
0
  1
35
  0
ARC
  8
_0-1_計細線
  6
CONTINUOUS
 62
    3
 10
1393.3179965215031
 20
844.56428260452935
 40
0.8
 50
89.999999999999915
 51
179.99999999999983
  0
LINE
  8
_0-1_計細線
  6
CONTINUOUS
 62
    3
 10
1393.3179965215031
 20
845.36428260452931
 11
1404.1792205215029
 21
845.36428260452931
  0
LINE
  8
_0-1_計細線
  6
CONTINUOUS
 62
    3
 10
1392.5179965215034
 20
844.56428260452935
 11
1392.5179965215034
 21
842.86428260452931
  0
LINE
  8
_0-1_計細線
  6
CONTINUOUS
 62
    3
 10
1393.3179965215036
 20
846.06428260452935
 11
1404.4792205215026
 21
846.06428260452935
  0
ARC
  8
_0-1_計細線
  6
CONTINUOUS
 62
    3
 10
1393.3179965215036
 20
844.56428260452935
 40
1.5
 50
89.999999999999915
 51
179.99999999999983
  0
LINE
  8
_0-1_計細線
  6
CONTINUOUS
 62
    3
 10
1391.8179965215036
 20
844.56428260452935
 11
1391.8179965215036
 21
842.86428260452954
  0
ARC
  8
_0-1_計細線
  6
CONTINUOUS
 62
    3
 10
1391.0179965215034
 20
842.86428260452965
 40
0.8
 50
284.47751218588252
 51
359.99999999999147
  0
ARC
  8
_0-1_計細線
  6
CONTINUOUS
 62
    3
 10
1391.0179965215034
 20
842.86428260452931
 40
1.5
 50
277.66225566074115
 51
359.99999999999966
  0
TEXT
  8
_0-5_寸法線
 62
    7
 10
1474.9602265409401
 20
643.81348889384617
 40
24
 41
0.7999999999999999
 50
0
  1
※（　）内はトラップ切断時
  0
LINE
  8
_0-1_計細線
  6
CONTINUOUS
 62
    3
 10
1335.4792205215026
 20
844.2713466045293
 11
1391.4792205215026
 21
844.2713466045293
  0
LINE
  8
_0-1_計細線
  6
CONTINUOUS
 62
    3
 10
1388.4792205215026
 20
819.86428260452931
 11
1388.4792205215026
 21
827.86428260452931
  0
ARC
  8
_0-1_計細線
  6
CONTINUOUS
 62
    3
 10
1390.9792205215026
 20
815.5341546045297
 40
5
 50
119.99999999999989
 51
179.99999999999983
  0
LINE
  8
_0-1_計細線
  6
CONTINUOUS
 62
    3
 10
1335.4792205215026
 20
827.86428260452931
 11
1333.4792205215026
 21
827.86428260452931
  0
LINE
  8
_0-1_計細線
  6
CONTINUOUS
 62
    3
 10
1333.4792205215026
 20
827.86428260452931
 11
1333.4792205215026
 21
837.86428260452931
  0
LINE
  8
_0-1_計細線
  6
CONTINUOUS
 62
    3
 10
1309.9792205215026
 20
827.86428260452931
 11
1309.9792205215026
 21
837.86428260452931
  0
LINE
  8
_0-1_計細線
  6
CONTINUOUS
 62
    3
 10
1282.4792205215026
 20
819.86428260452931
 11
1282.4792205215026
 21
837.86428260452931
  0
ARC
  8
_0-1_計細線
  6
CONTINUOUS
 62
    3
 10
1279.9792205215026
 20
815.5341546045297
 40
5
 50
0
 51
60.000000000000107
  0
LINE
  8
_0-1_計細線
  6
CONTINUOUS
 62
    3
 10
1305.9792205215026
 20
827.86428260452931
 11
1305.9792205215026
 21
837.86428260452931
  0
LINE
  8
_0-1_計細線
  6
CONTINUOUS
 62
    3
 10
1335.4792205215026
 20
819.86428260452931
 11
1282.4792205215026
 21
819.86428260452931
  0
LINE
  8
_0-1_計細線
  6
CONTINUOUS
 62
    3
 10
1309.9792205215026
 20
827.86428260452931
 11
1305.9792205215026
 21
827.86428260452931
  0
LINE
  8
_0-0_計極細
  6
CONTINUOUS
 62
    2
 10
1383.9792205215026
 20
822.86428260452931
 11
1383.9792205215026
 21
825.77134660452839
  0
LINE
  8
_0-0_計極細
  6
CONTINUOUS
 62
    2
 10
1385.4582205215038
 20
822.06428260452822
 11
1383.9792205215026
 21
822.86428260452931
  0
LINE
  8
_0-0_計極細
  6
CONTINUOUS
 62
    2
 10
1375.7292205215026
 20
829.77134660452839
 11
1379.7792205215037
 21
829.77134660452839
  0
LINE
  8
_0-0_計極細
  6
CONTINUOUS
 62
    2
 10
1382.720444521502
 20
840.77134660452839
 11
1381.5292205215037
 21
840.77134660452839
  0
LINE
  8
_0-0_計極細
  6
CONTINUOUS
 62
    2
 10
1379.7792205215037
 20
828.47134660452912
 11
1379.7792205215037
 21
839.02134660452839
  0
ARC
  8
_0-0_計極細
  6
CONTINUOUS
 62
    2
 10
1381.5292205215037
 20
839.02134660452839
 40
1.75
 50
89.999999999999915
 51
179.99999999999983
  0
ARC
  8
_0-0_計極細
  6
CONTINUOUS
 62
    2
 10
1385.4582205215038
 20
841.52134660452839
 40
1.75
 50
89.999999999999915
 51
173.71630243577096
  0
ARC
  8
_0-0_計極細
  6
CONTINUOUS
 62
    2
 10
1382.720444521502
 20
841.77134660452839
 40
1
 50
269.99999999999977
 51
356.64911200002888
  0
ARC
  8
_0-0_計極細
  6
CONTINUOUS
 62
    2
 10
1385.4582205215038
 20
841.52134660452839
 40
1.05
 50
89.999999999999915
 51
172.98761645885341
  0
ARC
  8
_0-0_計極細
  6
CONTINUOUS
 62
    2
 10
1382.720444521502
 20
841.77134660452839
 40
1.7
 50
269.99999999999977
 51
355.89100209803809
  0
LINE
  8
_0-0_計極細
  6
CONTINUOUS
 62
    2
 10
1382.720444521502
 20
840.07134660452948
 11
1381.5292205215037
 21
840.07134660452948
  0
ARC
  8
_0-0_計極細
  6
CONTINUOUS
 62
    2
 10
1381.5292205215037
 20
839.02134660452839
 40
1.05
 50
89.999999999999915
 51
179.99999999999983
  0
LINE
  8
_0-0_計極細
  6
CONTINUOUS
 62
    2
 10
1380.4792205215026
 20
827.77134660452839
 11
1380.4792205215026
 21
839.02134660452839
  0
LINE
  8
_0-0_計極細
  6
CONTINUOUS
 62
    2
 10
1385.4582205215038
 20
827.25034660452957
 11
1385.4582205215038
 21
842.57134660452948
  0
LINE
  8
_0-0_計極細
  6
CONTINUOUS
 62
    2
 10
1385.4582205215038
 20
827.25034660452957
 11
1383.9792205215026
 21
825.77134660452839
  0
LINE
  8
_0-0_計極細
  6
CONTINUOUS
 62
    2
 10
1378.4792205215026
 20
823.77134660452839
 11
1378.4792205215026
 21
829.77134660452839
  0
LINE
  8
_0-0_計極細
  6
CONTINUOUS
 62
    2
 10
1376.2292205215026
 20
825.87212260452952
 11
1376.2292205215026
 21
829.77134660452839
  0
LINE
  8
_0-0_計極細
  6
CONTINUOUS
 62
    2
 10
1378.4792205215026
 20
827.77134660452839
 11
1380.4792205215026
 21
827.77134660452839
  0
LINE
  8
_0-0_計極細
  6
CONTINUOUS
 62
    2
 10
1378.4792205215026
 20
828.47134660452912
 11
1379.7792205215037
 21
828.47134660452912
  0
LINE
  8
_0-0_計極細
  6
CONTINUOUS
 62
    2
 10
1377.6490365215022
 20
823.77134660452839
 11
1378.4792205215026
 21
823.77134660452839
  0
LINE
  8
_0-0_計極細
  6
CONTINUOUS
 62
    2
 10
1378.4792205215026
 20
825.77134660452839
 11
1383.9792205215026
 21
825.77134660452839
  0
LINE
  8
_0-0_計極細
  6
CONTINUOUS
 62
    2
 10
1379.7792205215037
 20
840.77134660452839
 11
1381.7292205215026
 21
840.77134660452839
  0
LINE
  8
_0-0_計極細
  6
CONTINUOUS
 62
    2
 10
1379.7792205215037
 20
837.77134660452839
 11
1379.7792205215037
 21
840.77134660452839
  0
ARC
  8
_0-0_計極細
  6
CONTINUOUS
 62
    2
 10
1379.2792205215037
 20
837.77134660452839
 40
0.5
 50
269.99999999999977
 51
359.99999999999966
  0
LINE
  8
_0-0_計極細
  6
CONTINUOUS
 62
    2
 10
1375.2292205215026
 20
836.17745860452897
 11
1375.2292205215026
 21
835.67745860452897
  0
LINE
  8
_0-0_計極細
  6
CONTINUOUS
 62
    2
 10
1378.829220521503
 20
834.67745860452897
 11
1379.6292205215022
 21
836.17745860452897
  0
LINE
  8
_0-0_計極細
  6
CONTINUOUS
 62
    2
 10
1374.7292205215026
 20
832.87745860452969
 11
1375.2292205215026
 21
833.37745860452969
  0
LINE
  8
_0-0_計極細
  6
CONTINUOUS
 62
    2
 10
1375.2292205215026
 20
832.37745860452969
 11
1374.7292205215026
 21
832.87745860452969
  0
LINE
  8
_0-0_計極細
  6
CONTINUOUS
 62
    2
 10
1375.2292205215026
 20
834.67745860452897
 11
1374.7292205215026
 21
835.17745860452897
  0
LINE
  8
_0-0_計極細
  6
CONTINUOUS
 62
    2
 10
1374.7292205215026
 20
835.17745860452897
 11
1375.2292205215026
 21
835.67745860452897
  0
LINE
  8
_0-0_計極細
  6
CONTINUOUS
 62
    2
 10
1378.829220521503
 20
834.67745860452897
 11
1378.829220521503
 21
831.87745860452969
  0
LINE
  8
_0-0_計極細
  6
CONTINUOUS
 62
    2
 10
1375.2292205215026
 20
832.37745860452969
 11
1375.2292205215026
 21
831.87745860452969
  0
LINE
  8
_0-0_計極細
  6
CONTINUOUS
 62
    2
 10
1375.2292205215026
 20
834.67745860452897
 11
1375.2292205215026
 21
833.37745860452969
  0
ARC
  8
_0-0_計極細
  6
CONTINUOUS
 62
    2
 10
1375.9792205215026
 20
824.87212260452952
 40
2
 50
269.99999999999977
 51
359.99999999999966
  0
LINE
  8
_0-0_計極細
  6
CONTINUOUS
 62
    2
 10
1377.9792205215026
 20
824.87212260452952
 11
1377.9792205215026
 21
825.87212260452952
  0
LINE
  8
_0-0_計極細
  6
CONTINUOUS
 62
    2
 10
1377.9792205215026
 20
825.87212260452952
 11
1375.7292205215026
 21
825.87212260452952
  0
LINE
  8
_0-0_計極細
  6
CONTINUOUS
 62
    2
 10
1378.9792205215026
 20
830.27212260452916
 11
1378.9792205215026
 21
831.77212260452916
  0
LINE
  8
_0-0_計極細
  6
CONTINUOUS
 62
    2
 10
1378.9792205215026
 20
836.37212260452952
 11
1378.9792205215026
 21
837.27134660452839
  0
LINE
  8
_0-0_計極細
  6
CONTINUOUS
 62
    2
 10
1375.7292205215026
 20
825.87212260452952
 11
1375.7292205215026
 21
830.27212260452916
  0
ARC
  8
_0-0_計極細
  6
CONTINUOUS
 62
    2
 10
1373.7292205215026
 20
815.86428260452931
 40
1
 50
89.999999999999915
 51
179.99999999999983
  0
LINE
  8
_0-0_計極細
  6
CONTINUOUS
 62
    2
 10
1373.7292205215026
 20
816.86428260452931
 11
1362.4792205215026
 21
816.86428260452931
  0
LINE
  8
_0-0_計極細
  6
CONTINUOUS
 62
    2
 10
1363.0363805215029
 20
825.77134660452839
 11
1372.9775245215033
 21
825.77134660452839
  0
LINE
  8
_0-0_計極細
  6
CONTINUOUS
 62
    2
 10
1365.2655325215028
 20
824.07134660452948
 11
1370.2655325215028
 21
824.07134660452948
  0
LINE
  8
_0-0_計極細
  6
CONTINUOUS
 62
    2
 10
1365.2655325215028
 20
824.07134660452948
 11
1365.2655325215028
 21
825.77134660452839
  0
LINE
  8
_0-0_計極細
  6
CONTINUOUS
 62
    2
 10
1366.7655325215028
 20
824.07134660452948
 11
1366.7655325215028
 21
825.77134660452839
  0
ARC
  8
_0-0_計極細
  6
CONTINUOUS
 62
    2
 10
1368.4792205215026
 20
823.2463706045296
 40
6
 50
55.166293999997656
 51
179.99999999999983
  0
ARC
  8
_0-0_計極細
  6
CONTINUOUS
 62
    2
 10
1373.7292205215026
 20
815.86428260452931
 40
1
 50
0
 51
89.999999999999915
  0
LINE
  8
_0-0_計極細
  6
CONTINUOUS
 62
    2
 10
1362.4792205215026
 20
822.86428260452931
 11
1383.9792205215026
 21
822.86428260452931
  0
LINE
  8
_0-0_計極細
  6
CONTINUOUS
 62
    2
 10
1362.3820925215032
 20
822.06428260452822
 11
1385.4582205215038
 21
822.06428260452822
  0
LINE
  8
_0-0_計極細
  6
CONTINUOUS
 62
    2
 10
1335.4792205215026
 20
822.06428260452822
 11
1360.4792045215027
 21
822.06428260452822
  0
LINE
  8
_0-0_計極細
  6
CONTINUOUS
 62
    2
 10
1335.4792205215026
 20
843.27134660452839
 11
1385.4582205215038
 21
843.27134660452839
  0
LINE
  8
_0-0_計極細
  6
CONTINUOUS
 62
    2
 10
1335.6792205215033
 20
838.27134660452839
 11
1378.6792205215033
 21
838.27134660452839
  0
LINE
  8
_0-0_計極細
  6
CONTINUOUS
 62
    2
 10
1335.6792205215033
 20
837.27134660452839
 11
1379.2792205215037
 21
837.27134660452839
  0
LINE
  8
_0-0_計極細
  6
CONTINUOUS
 62
    2
 10
1335.4792205215026
 20
836.17745860452897
 11
1379.6292205215022
 21
836.17745860452897
  0
LINE
  8
_0-0_計極細
  6
CONTINUOUS
 62
    2
 10
1335.4792205215026
 20
835.17745860452897
 11
1374.7292205215026
 21
835.17745860452897
  0
LINE
  8
_0-0_計極細
  6
CONTINUOUS
 62
    2
 10
1335.4792205215026
 20
832.87745860452969
 11
1374.7292205215026
 21
832.87745860452969
  0
LINE
  8
_0-0_計極細
  6
CONTINUOUS
 62
    2
 10
1335.4792205215026
 20
831.87745860452969
 11
1378.829220521503
 21
831.87745860452969
  0
LINE
  8
_0-0_計極細
  6
CONTINUOUS
 62
    2
 10
1378.9792205215026
 20
830.27212260452916
 11
1335.4792205215026
 21
830.27212260452916
  0
LINE
  8
_0-0_計極細
  6
CONTINUOUS
 62
    2
 10
1378.9792205215026
 20
831.77212260452916
 11
1335.4792205215026
 21
831.77212260452916
  0
LINE
  8
_0-0_計極細
  6
CONTINUOUS
 62
    2
 10
1378.9792205215026
 20
836.37212260452952
 11
1335.4792205215026
 21
836.37212260452952
  0
LINE
  8
_0-0_計極細
  6
CONTINUOUS
 62
    2
 10
1335.4792205215026
 20
815.5341546045297
 11
1284.9792205215026
 21
815.5341546045297
  0
LINE
  8
_0-1_計細線
  6
CONTINUOUS
 62
    3
 10
1391.4792205215026
 20
827.86428260452931
 11
1391.4792205215026
 21
844.27134660452839
  0
LINE
  8
_0-0_計極細
  6
CONTINUOUS
 62
    2
 10
1385.4582205215038
 20
843.27134660452839
 11
1391.4792205215026
 21
844.27134660452839
  0
LINE
  8
_0-0_計極細
  6
CONTINUOUS
 62
    2
 10
1385.4582205215038
 20
842.56428013042978
 11
1391.4792205215026
 21
843.56428558985908
  0
LINE
  8
_0-0_計極細
  6
CONTINUOUS
 62
    2
 10
1391.4792205215026
 20
841.86428260452931
 11
1385.4582205215038
 21
841.06428260452822
  0
LINE
  8
_0-1_計細線
  6
CONTINUOUS
 62
    3
 10
1388.4792205215026
 20
827.86428260452931
 11
1391.4792205215026
 21
827.86428260452931
  0
LINE
  8
_0-1_計細線
  6
CONTINUOUS
 62
    3
 10
1279.4792205215026
 20
827.86428260452931
 11
1279.4792205215026
 21
841.86428260452931
  0
LINE
  8
_0-1_計細線
  6
CONTINUOUS
 62
    3
 10
1282.4792205215026
 20
827.86428260452931
 11
1279.4792205215026
 21
827.86428260452931
  0
LINE
  8
_0-1_計細線
  6
CONTINUOUS
 62
    3
 10
1335.4792205215026
 20
837.86428260452931
 11
1279.4792205215026
 21
837.86428260452931
  0
LINE
  8
_0-1_計細線
  6
CONTINUOUS
 62
    3
 10
1279.7404445215025
 20
841.86429932453257
 11
1335.4792205215026
 21
841.86429932453257
  0
LINE
  8
_0-1_計細線
  6
CONTINUOUS
 62
    3
 10
1276.9793466815286
 20
843.86429932453257
 11
1276.9793466815286
 21
845.36428260452931
  0
ARC
  8
_0-1_計細線
  6
CONTINUOUS
 62
    3
 10
1278.9793466815286
 20
843.86429932453257
 40
2
 50
179.99999999999983
 51
269.99999999999977
  0
LINE
  8
_0-1_計細線
  6
CONTINUOUS
 62
    3
 10
1278.9793466815286
 20
841.86429932453257
 11
1284.4792205215026
 21
841.86429932453257
  0
LINE
  8
_0-1_計細線
  6
CONTINUOUS
 62
    3
 10
1376.579220521503
 20
709.3642826045284
 11
1376.9792205215026
 21
734.3642826045284
  0
LINE
  8
_0-1_計細線
  6
CONTINUOUS
 62
    3
 10
1376.9792205215026
 20
734.3642826045284
 11
1377.9792205215026
 21
734.3642826045284
  0
ARC
  8
_0-1_計細線
  6
CONTINUOUS
 62
    3
 10
1377.9792205215026
 20
742.3642826045284
 40
8
 50
269.99999999999977
 51
359.99999999999966
  0
LINE
  8
_0-1_計細線
  6
CONTINUOUS
 62
    3
 10
1363.0625485215032
 20
709.3642826045284
 11
1376.579220521503
 21
709.3642826045284
  0
LINE
  8
_0-1_計細線
  6
CONTINUOUS
 62
    3
 10
1385.9792205215026
 20
742.3642826045284
 11
1385.9792205215026
 21
815.5341546045297
  0
LINE
  8
_0-1_計細線
  6
CONTINUOUS
 62
    3
 10
1335.4792205215026
 20
704.3642826045284
 11
1362.9792205215026
 21
704.3642826045284
  0
LINE
  8
_0-0_計極細
  6
CONTINUOUS
 62
    2
 10
1374.7292205215026
 20
758.8642826045284
 11
1374.7292205215026
 21
785.86428260452931
  0
ARC
  8
_0-0_計極細
  6
CONTINUOUS
 62
    2
 10
1382.4792205215026
 20
795.78585060452906
 40
1
 50
277.18075600000537
 51
359.99999999999966
  0
LINE
  8
_0-0_計極細
  6
CONTINUOUS
 62
    2
 10
1374.7292205215026
 20
794.79369060452927
 11
1382.6042205215026
 21
794.79369060452927
  0
ARC
  8
_0-0_計極細
  6
CONTINUOUS
 62
    2
 10
1361.4792205215026
 20
767.07212260452843
 40
1
 50
269.99999999999977
 51
359.99999999999966
  0
ARC
  8
_0-0_計極細
  6
CONTINUOUS
 62
    2
 10
1361.4792045215027
 20
767.07212260452843
 40
1
 50
179.99999999999983
 51
269.99999999999977
  0
LINE
  8
_0-0_計極細
  6
CONTINUOUS
 62
    2
 10
1362.4707485215031
 20
766.94234660452867
 11
1362.470764521503
 21
766.94236260452863
  0
ARC
  8
_0-0_計極細
  6
CONTINUOUS
 62
    2
 10
1375.4792205215026
 20
744.8642826045284
 40
8
 50
269.99999999999977
 51
359.99999999999966
  0
LINE
  8
_0-0_計極細
  6
CONTINUOUS
 62
    2
 10
1363.4792205215026
 20
734.3642826045284
 11
1373.4792205215026
 21
734.3642826045284
  0
LINE
  8
_0-0_計極細
  6
CONTINUOUS
 62
    2
 10
1360.4807965215032
 20
736.76161060452841
 11
1360.4792205215026
 21
736.8642826045284
  0
LINE
  8
_0-0_計極細
  6
CONTINUOUS
 62
    2
 10
1362.7292205215026
 20
746.8642826045284
 11
1360.4792205215026
 21
746.8642826045284
  0
LINE
  8
_0-0_計極細
  6
CONTINUOUS
 62
    2
 10
1360.4792205215026
 20
736.8642826045284
 11
1360.4792205215026
 21
746.8642826045284
  0
LINE
  8
_0-0_計極細
  6
CONTINUOUS
 62
    2
 10
1373.7292205215026
 20
709.3642826045284
 11
1373.4792205215026
 21
734.3642826045284
  0
LINE
  8
_0-0_計極細
  6
CONTINUOUS
 62
    2
 10
1375.4792205215026
 20
736.8642826045284
 11
1360.4792205215026
 21
736.8642826045284
  0
LINE
  8
_0-0_計極細
  6
CONTINUOUS
 62
    2
 10
1383.4792205215026
 20
744.8642826045284
 11
1383.4792205215026
 21
795.78585060452906
  0
ARC
  8
_0-0_計極細
  6
CONTINUOUS
 62
    2
 10
1362.7292205215026
 20
758.8642826045284
 40
12
 50
269.99999999999977
 51
359.99999999999966
  0
ARC
  8
_0-0_計極細
  6
CONTINUOUS
 62
    2
 10
1362.7292205215026
 20
758.8642826045284
 40
10
 50
269.99999999999977
 51
359.99999999999966
  0
LINE
  8
_0-0_計極細
  6
CONTINUOUS
 62
    2
 10
1383.4792205215026
 20
795.78585060452906
 11
1383.4792205215026
 21
822.06428260452822
  0
LINE
  8
_0-0_計極細
  6
CONTINUOUS
 62
    2
 10
1374.7292205215026
 20
758.8642826045284
 11
1374.7292205215026
 21
815.86428260452931
  0
LINE
  8
_0-0_計極細
  6
CONTINUOUS
 62
    2
 10
1372.7292205215026
 20
758.8642826045284
 11
1372.7292205215026
 21
815.86428260452931
  0
LINE
  8
_0-0_計極細
  6
CONTINUOUS
 62
    2
 10
1362.4792205215026
 20
767.07212260452843
 11
1362.4792205215026
 21
823.2463706045296
  0
LINE
  8
_0-0_計極細
  6
CONTINUOUS
 62
    2
 10
1360.4792045215027
 20
767.07212260452843
 11
1360.4792045215027
 21
822.06428260452822
  0
LINE
  8
_0-0_計極細
  6
CONTINUOUS
 62
    2
 10
1336.4757965215022
 20
737.36083460452892
 11
1336.4103245215038
 21
746.85400260452889
  0
ARC
  8
_0-0_計極細
  6
CONTINUOUS
 62
    2
 10
1336.975780521504
 20
737.3642826045284
 40
0.5
 50
180.39513700000634
 51
269.99999999999977
  0
LINE
  8
_0-0_計極細
  6
CONTINUOUS
 62
    2
 10
1335.4792205215026
 20
746.8642826045284
 11
1336.410252521503
 21
746.8642826045284
  0
LINE
  8
_0-0_計極細
  6
CONTINUOUS
 62
    2
 10
1360.4792205215026
 20
736.8642826045284
 11
1335.4792205215026
 21
736.8642826045284
  0
LINE
  8
_0-0_計極細
  6
CONTINUOUS
 62
    2
 10
1336.410252521503
 20
746.8642826045284
 11
1362.7292205215026
 21
746.8642826045284
  0
LINE
  8
_0-0_計極細
  6
CONTINUOUS
 62
    2
 10
1335.4792205215026
 20
748.8642826045284
 11
1362.7292205215026
 21
748.8642826045284
  0
LINE
  8
_0-0_計極細
  6
CONTINUOUS
 62
    2
 10
1361.4792205215026
 20
766.07212260452843
 11
1335.4792205215026
 21
766.07212260452843
  0
LINE
  8
_0-0_計極細
  6
CONTINUOUS
 62
    2
 10
1360.9792205215026
 20
704.3642826045284
 11
1360.4792205215026
 21
736.8642826045284
  0
LINE
  8
_0-0_計極細
  6
CONTINUOUS
 62
    2
 10
1363.0625538548356
 20
709.3642826045284
 11
1363.4792205215026
 21
734.3642826045284
  0
LINE
  8
_0-1_計細線
  6
CONTINUOUS
 62
    3
 10
1362.9792205215026
 20
704.3642826045284
 11
1363.0625538548356
 21
709.3642826045284
  0
LINE
  8
_0-1_計細線
  6
CONTINUOUS
 62
    3
 10
1267.3805308589986
 20
786.00076060452784
 11
1269.8652306002314
 21
711.92845360452839
  0
LINE
  8
_0-1_計細線
  6
CONTINUOUS
 62
    3
 10
1217.1500976002317
 20
795.36250360452914
 11
1231.0458586971713
 21
787.43539071118948
  0
LINE
  8
_0-1_計細線
  6
CONTINUOUS
 62
    3
 10
1231.0458586971713
 20
787.43539071118948
 11
1256.6426946002321
 21
786.00076060452875
  0
LINE
  8
_0-1_計細線
  6
CONTINUOUS
 62
    3
 10
1270.0750566002316
 20
807.47471560452914
 11
1269.6183413176991
 21
803.36428360452874
  0
LINE
  8
_0-1_計細線
  6
CONTINUOUS
 62
    3
 10
1205.1699636002322
 20
795.36428260452931
 11
1207.1623012811842
 21
803.36428260452931
  0
ARC
  8
_0-1_計細線
  6
CONTINUOUS
 62
    3
 10
1271.0689386002318
 20
807.36428260452931
 40
0.9999989999999999
 50
89.999999999999915
 51
173.65980800004397
  0
LINE
  8
_0-1_計細線
  6
CONTINUOUS
 62
    3
 10
1262.1736326002319
 20
778.04730460452856
 11
1265.128866600232
 21
777.67899460452873
  0
LINE
  8
_0-1_計細線
  6
CONTINUOUS
 62
    3
 10
1259.4731316002317
 20
783.10603660452807
 11
1259.5463346002325
 21
780.92369560452835
  0
ARC
  8
_0-1_計細線
  6
CONTINUOUS
 62
    3
 10
1262.544648600232
 20
781.02427360452793
 40
3
 50
181.92122399998544
 51
262.89591000000803
  0
ARC
  8
_0-1_計細線
  6
CONTINUOUS
 62
    3
 10
1264.7578506002319
 20
774.70202560452935
 40
3
 50
1.9212239999858056
 51
82.89590999999119
  0
ARC
  8
_0-1_計細線
  6
CONTINUOUS
 62
    3
 10
1256.4748176002313
 20
783.0054616045295
 40
3
 50
1.9212239999852234
 51
86.792087999984048
  0
ARC
  8
_0-1_計細線
  6
CONTINUOUS
 62
    3
 10
1289.5735806002313
 20
694.36428160452897
 40
5.0000009999999993
 50
4.7950419999943836
 51
89.999999999999915
  0
ARC
  8
_0-1_計細線
  6
CONTINUOUS
 62
    3
 10
1282.8579216002317
 20
712.36428160452897
 40
12.999999000000003
 50
181.92122399999965
 51
269.99999999999977
  0
ARC
  8
_0-1_計細線
  6
CONTINUOUS
 62
    3
 10
1298.024214600232
 20
677.36428360452874
 40
2.0000010000000001
 50
184.79504200001637
 51
269.99999999999977
  0
LINE
  8
_0-1_計細線
  6
CONTINUOUS
 62
    3
 10
1294.5560796002319
 20
694.78224160452874
 11
1296.0312126002318
 21
677.19709960452883
  0
LINE
  8
_0-1_計細線
  6
CONTINUOUS
 62
    3
 10
1383.6699641002324
 20
799.66235733343865
 11
1389.366504600232
 21
798.52048110452824
  0
LINE
  8
_0-1_計細線
  6
CONTINUOUS
 62
    3
 10
1389.366504600232
 20
802.20808410452855
 11
1383.6699641002324
 21
801.06620787561997
  0
ARC
  8
_0-1_計細線
  6
CONTINUOUS
 62
    3
 10
1389.1699626002319
 20
797.53998510452811
 40
0.9999989999999999
 50
0
 51
78.665252999996241
  0
ARC
  8
_0-1_計細線
  6
CONTINUOUS
 62
    3
 10
1389.1699626002319
 20
803.18858010452868
 40
0.9999989999999999
 50
281.3347470000034
 51
359.99999999999966
  0
LINE
  8
_0-1_計細線
  6
CONTINUOUS
 62
    3
 10
1394.1699636002322
 20
797.57465310452835
 11
1390.1699646002321
 21
797.57465310452835
  0
LINE
  8
_0-1_計細線
  6
CONTINUOUS
 62
    3
 10
1394.1699636002322
 20
803.17465410452905
 11
1390.1699646002321
 21
803.17465410452905
  0
ARC
  8
_0-1_計細線
  6
CONTINUOUS
 62
    3
 10
1394.1699636002322
 20
798.57465510452903
 40
0.9999989999999999
 50
269.99999999999977
 51
359.99999999999966
  0
LINE
  8
_0-1_計細線
  6
CONTINUOUS
 62
    3
 10
1395.1699626002319
 20
798.57465510452903
 11
1395.1699626002319
 21
802.17465510452939
  0
ARC
  8
_0-1_計細線
  6
CONTINUOUS
 62
    3
 10
1394.1699636002322
 20
802.17465510452939
 40
0.9999989999999999
 50
0
 51
89.999999999999915
  0
LINE
  8
_0-1_計細線
  6
CONTINUOUS
 62
    3
 10
1362.1988549787693
 20
704.36428360452874
 11
1362.3661776002318
 21
699.3642826045284
  0
LINE
  8
_0-1_計細線
  6
CONTINUOUS
 62
    3
 10
1465.1699646002321
 20
795.36428260452931
 11
1463.1776269192787
 21
803.36428260452931
  0
LINE
  8
_0-1_計細線
  6
CONTINUOUS
 62
    3
 10
1395.0677256002318
 20
792.36428260452931
 11
1390.1699646002321
 21
792.36428260452931
  0
LINE
  8
_0-1_計細線
  6
CONTINUOUS
 62
    3
 10
1396.1699646002321
 20
797.36428360452874
 11
1390.1699646002321
 21
797.36428360452874
  0
LINE
  8
_0-1_計細線
  6
CONTINUOUS
 62
    3
 10
1396.1699646002321
 20
803.36428360452874
 11
1390.1699646002321
 21
803.36428360452874
  0
LINE
  8
_0-1_計細線
  6
CONTINUOUS
 62
    3
 10
1399.2709866002315
 20
808.36428160452897
 11
1390.1699646002321
 21
808.36428160452897
  0
LINE
  8
_0-1_計細線
  6
CONTINUOUS
 62
    3
 10
1457.1699636002322
 20
801.36428260452931
 11
1457.1699636002322
 21
803.36428360452874
  0
ARC
  8
_0-1_計細線
  6
CONTINUOUS
 62
    3
 10
1437.983940600232
 20
793.36428160452897
 40
0.9999989999999999
 50
269.99999999999977
 51
295.41928799998146
  0
LINE
  8
_0-1_計細線
  6
CONTINUOUS
 62
    3
 10
1457.1884886002322
 20
801.38401060452861
 11
1438.4131776002323
 21
792.4610926045284
  0
LINE
  8
_0-1_計細線
  6
CONTINUOUS
 62
    3
 10
1426.4178216002319
 20
799.20683560452881
 11
1427.7675456002316
 21
793.45273960452914
  0
LINE
  8
_0-1_計細線
  6
CONTINUOUS
 62
    3
 10
1423.9083996002319
 20
799.22635360452887
 11
1422.470166600232
 21
792.94761760452866
  0
ARC
  8
_0-1_計細線
  6
CONTINUOUS
 62
    3
 10
1425.3824676002323
 20
798.86428360452874
 40
1.5
 50
98.144501000001384
 51
160.17912799998555
  0
ARC
  8
_0-1_計細線
  6
CONTINUOUS
 62
    3
 10
1424.9574576002324
 20
798.86428360452874
 40
1.5
 50
13.201087000018896
 51
81.855499000033006
  0
ARC
  8
_0-1_計細線
  6
CONTINUOUS
 62
    3
 10
1429.7146956002316
 20
793.90948060452911
 40
2.0000010000000001
 50
193.20108700001492
 51
273.20791200001452
  0
ARC
  8
_0-1_計細線
  6
CONTINUOUS
 62
    3
 10
1420.5206586002314
 20
793.39417960452874
 40
2.0000010000000001
 50
273.20791200001452
 51
347.0981779999961
  0
LINE
  8
_0-1_計細線
  6
CONTINUOUS
 62
    3
 10
1439.2940676002318
 20
787.4353906045294
 11
1413.6972306002317
 21
786.00076060452875
  0
LINE
  8
_0-1_計細線
  6
CONTINUOUS
 62
    3
 10
1438.1514276002322
 20
792.37919560452838
 11
1429.8266136002321
 21
791.9126146045287
  0
LINE
  8
_0-1_計細線
  6
CONTINUOUS
 62
    3
 10
1410.8667966002322
 20
783.10603660452807
 11
1410.7935906002322
 21
780.92369560452835
  0
ARC
  8
_0-1_計細線
  6
CONTINUOUS
 62
    3
 10
1413.8651106002317
 20
783.0054616045295
 40
3
 50
93.207911999989946
 51
178.07877600001422
  0
ARC
  8
_0-1_計細線
  6
CONTINUOUS
 62
    3
 10
1399.2709866002315
 20
807.36428260452931
 40
0.9999989999999999
 50
6.340191999956045
 51
89.999999999999915
  0
ARC
  8
_0-1_計細線
  6
CONTINUOUS
 62
    3
 10
1405.7235696002317
 20
794.56798360452876
 40
3.9999990000000003
 50
186.34019199999435
 51
273.20791200000167
  0
LINE
  8
_0-1_計細線
  6
CONTINUOUS
 62
    3
 10
1396.1699646002321
 20
797.36428360452874
 11
1396.1699646002321
 21
803.36428360452874
  0
LINE
  8
_0-1_計細線
  6
CONTINUOUS
 62
    3
 10
1390.1699646002321
 20
792.36428260452931
 11
1390.1699646002321
 21
797.36428360452874
  0
ARC
  8
_0-1_計細線
  6
CONTINUOUS
 62
    3
 10
1395.0677256002318
 20
789.36428260452931
 40
3
 50
358.07877599997943
 51
89.999999999999545
  0
LINE
  8
_0-1_計細線
  6
CONTINUOUS
 62
    3
 10
1390.1699646002321
 20
803.36428360452874
 11
1390.1699646002321
 21
808.36428160452897
  0
LINE
  8
_0-1_計細線
  6
CONTINUOUS
 62
    3
 10
1400.2648716002313
 20
807.47471560452914
 11
1401.7480326002319
 21
794.12625760452875
  0
ARC
  8
_0-1_計細線
  6
CONTINUOUS
 62
    3
 10
1405.582077600232
 20
774.70202560452935
 40
3
 50
97.104090000000198
 51
178.07877600001422
  0
LINE
  8
_0-1_計細線
  6
CONTINUOUS
 62
    3
 10
1408.1662956002319
 20
778.04730460452856
 11
1405.2110616002319
 21
777.67899460452873
  0
LINE
  8
_0-1_計細線
  6
CONTINUOUS
 62
    3
 10
1397.832609600232
 20
782.30487760452934
 11
1406.1111606002323
 21
790.58342860452876
  0
ARC
  8
_0-1_計細線
  6
CONTINUOUS
 62
    3
 10
1407.7952766002318
 20
781.02427360452793
 40
3
 50
277.10409000000845
 51
358.07877600001439
  0
LINE
  8
_0-1_計細線
  6
CONTINUOUS
 62
    3
 10
1420.6325766002319
 20
791.39731360452834
 11
1405.9474056002318
 21
790.57425160452885
  0
ARC
  8
_0-1_計細線
  6
CONTINUOUS
 62
    3
 10
1387.482003600232
 20
712.36428160452897
 40
12.999999000000003
 50
269.99999999999977
 51
358.07877599999961
  0
ARC
  8
_0-1_計細線
  6
CONTINUOUS
 62
    3
 10
1387.482003600232
 20
712.36428160452897
 40
8.0000009999999975
 50
269.99999999999977
 51
358.0787759999979
  0
ARC
  8
_0-1_計細線
  6
CONTINUOUS
 62
    3
 10
1364.1699636002322
 20
698.36428360452874
 40
0.9999989999999999
 50
0
 51
89.999999999999915
  0
ARC
  8
_0-1_計細線
  6
CONTINUOUS
 62
    3
 10
1364.1699636002322
 20
694.36428160452897
 40
0.9999989999999999
 50
269.99999999999977
 51
359.99999999999966
  0
LINE
  8
_0-1_計細線
  6
CONTINUOUS
 62
    3
 10
1365.1699626002319
 20
694.36428160452897
 11
1365.1699626002319
 21
698.36428360452874
  0
ARC
  8
_0-1_計細線
  6
CONTINUOUS
 62
    3
 10
1380.7663476002317
 20
694.36428160452897
 40
5.0000009999999993
 50
89.999999999999915
 51
175.20495800000475
  0
LINE
  8
_0-1_計細線
  6
CONTINUOUS
 62
    3
 10
1387.482003600232
 20
699.3642826045284
 11
1380.7663476002317
 21
699.3642826045284
  0
LINE
  8
_0-1_計細線
  6
CONTINUOUS
 62
    3
 10
1402.583763600232
 20
774.80260360452894
 11
1400.4746976002316
 21
711.92845360452839
  0
LINE
  8
_0-1_計細線
  6
CONTINUOUS
 62
    3
 10
1398.0660396002318
 20
789.26370760452892
 11
1395.4775076002325
 21
712.09607860452843
  0
LINE
  8
_0-1_計細線
  6
CONTINUOUS
 62
    3
 10
1465.1699646002321
 20
795.36428260452931
 11
1453.1929506002321
 21
795.36428260452931
  0
ARC
  8
_0-1_計細線
  6
CONTINUOUS
 62
    3
 10
1372.3157136002319
 20
677.36428360452874
 40
2.0000010000000001
 50
269.99999999999977
 51
355.204957999984
  0
LINE
  8
_0-1_計細線
  6
CONTINUOUS
 62
    3
 10
1363.1060106002319
 20
677.3565316045283
 11
1365.1696926002323
 21
675.36631060452828
  0
LINE
  8
_0-1_計細線
  6
CONTINUOUS
 62
    3
 10
1375.783848600232
 20
694.78224160452874
 11
1374.3087156002321
 21
677.19709960452883
  0
LINE
  8
_0-1_計細線
  6
CONTINUOUS
 62
    3
 10
1362.566964600232
 20
693.3642826045284
 11
1363.1025456002321
 21
677.35987060452817
  0
LINE
  8
_0-1_計細線
  6
CONTINUOUS
 62
    3
 10
1364.5680846002315
 20
693.3642826045284
 11
1365.1704456002321
 21
675.3642826045284
  0
LINE
  8
_0-1_計細線
  6
CONTINUOUS
 62
    3
 10
1463.1776269192787
 20
803.36428360452874
 11
1457.1699636002322
 21
803.36428360452874
  0
LINE
  8
_0-1_計細線
  6
CONTINUOUS
 62
    3
 10
1398.0583199929742
 20
789.60165399727202
 11
1401.8883594703111
 21
793.43169347460798
  0
LINE
  8
_0-1_計細線
  6
CONTINUOUS
 62
    3
 10
1205.1699636002322
 20
795.36428260452931
 11
1335.4791962665545
 21
795.36428260452931
  0
LINE
  8
_0-1_計細線
  6
CONTINUOUS
 62
    3
 10
1282.8579216002317
 20
699.3642826045284
 11
1335.4791962665545
 21
699.3642826045284
  0
LINE
  8
_0-1_計細線
  6
CONTINUOUS
 62
    3
 10
1271.0689386002318
 20
808.36428160452897
 11
1335.4791962665545
 21
808.36428160452897
  0
LINE
  8
_0-1_計細線
  6
CONTINUOUS
 62
    3
 10
1207.1623012811842
 20
803.36428360452874
 11
1335.4791962665545
 21
803.36428360452874
  0
LINE
  8
_0-1_計細線
  6
CONTINUOUS
 62
    3
 10
1298.024214600232
 20
675.3642826045284
 11
1335.4791947665549
 21
675.3642826045284
  0
LINE
  8
_0-1_計細線
  6
CONTINUOUS
 62
    3
 10
1256.6426946002321
 20
786.00076060452875
 11
1335.4791962665545
 21
786.00076060452875
  0
LINE
  8
_0-1_計細線
  6
CONTINUOUS
 62
    3
 10
1387.482003600232
 20
704.36428360452874
 11
1335.4791947665549
 21
704.36428360452874
  0
LINE
  8
_0-1_計細線
  6
CONTINUOUS
 62
    3
 10
1364.1699636002322
 20
693.3642826045284
 11
1335.4791947665549
 21
693.3642826045284
  0
LINE
  8
_0-1_計細線
  6
CONTINUOUS
 62
    3
 10
1364.1699636002322
 20
699.3642826045284
 11
1335.4791947665549
 21
699.3642826045284
  0
LINE
  8
_0-1_計細線
  6
CONTINUOUS
 62
    3
 10
1363.1023986002319
 20
677.36428360452874
 11
1335.4791947665549
 21
677.36428360452874
  0
LINE
  8
_0-1_計細線
  6
CONTINUOUS
 62
    3
 10
1372.3157136002319
 20
675.3642826045284
 11
1335.4791947665549
 21
675.3642826045284
  0
LINE
  8
_0-1_計細線
  6
CONTINUOUS
 62
    3
 10
1457.1699636002322
 20
803.36428360452874
 11
1402.1699646002321
 21
803.36428360452874
  0
LINE
  8
_0-1_計細線
  6
CONTINUOUS
 62
    3
 10
1425.1699626002319
 20
800.36428360452874
 11
1402.1699646002321
 21
800.36428360452874
  0
LINE
  8
_0-1_計細線
  6
CONTINUOUS
 62
    3
 10
1453.1898306002317
 20
795.36250360452914
 11
1439.2940680215852
 21
787.43538986592148
  0
LINE
  8
_0-1_計細線
  6
CONTINUOUS
 62
    3
 10
1284.9792205215026
 20
808.36428160452897
 11
1284.9792205215026
 21
815.5341546045297
  0
LINE
  8
_0-0_計極細
  6
CONTINUOUS
 62
    2
 10
1231.0458586971713
 20
787.43539071118948
 11
1335.4791962665545
 21
787.43539071118948
  0
LINE
  8
_0-0_計極細
  6
CENTER1
 62
    2
 10
1395.210489600232
 20
783.21829060452865
 11
1410.7447596002316
 21
798.75256060452875
  0
LINE
  8
_0-5_寸法線
  6
CONTINUOUS
 62
    7
 10
1284.7085538548349
 20
834.27511971015201
 11
1270.852147394284
 21
826.27511971015201
  0
LINE
  8
_0-5_寸法線
  6
CONTINUOUS
 62
    7
 10
1284.7085538548349
 20
834.27511971015201
 11
1268.7085538548349
 21
834.27511971015201
  0
LINE
  8
_0-5_寸法線
  6
CONTINUOUS
 62
    7
 10
1284.7085538548349
 20
834.27511971015201
 11
1202.7501684352785
 21
812.31443652402277
  0
LINE
  8
_0-5_寸法線
  6
CONTINUOUS
 62
    7
 10
1202.7501684352785
 20
812.31443652402277
 11
992.52522277974867
 21
812.31443652402277
  0
TEXT
  8
_0-5_寸法線
 62
    7
 10
992.52522277974856
 20
812.31443652402277
 40
24
 41
0.7999999999999998
 50
0
  1
縦引き排水トラップ一式
  0
LINE
  8
_0-5_寸法線
  6
CONTINUOUS
 62
    7
 10
1205.1699898551797
 20
779.36428461222067
 11
1205.1699898551728
 21
475.3642826045284
  0
LINE
  8
_0-5_寸法線
  6
CONTINUOUS
 62
    7
 10
1205.1699898551731
 20
483.3642826045284
 11
1220.6248030757981
 21
487.50538732616872
  0
LINE
  8
_0-5_寸法線
  6
CONTINUOUS
 62
    7
 10
1205.1699898551731
 20
483.3642826045284
 11
1220.6248030757981
 21
479.22317788288808
  0
LINE
  8
_0-5_寸法線
  6
CONTINUOUS
 62
    7
 10
1465.1699898551792
 20
779.36428461222067
 11
1465.1699898551724
 21
475.3642826045284
  0
LINE
  8
_0-5_寸法線
  6
CONTINUOUS
 62
    7
 10
1465.1699898551726
 20
483.3642826045284
 11
1449.7151766345476
 21
479.22317788288814
  0
LINE
  8
_0-5_寸法線
  6
CONTINUOUS
 62
    7
 10
1465.1699898551726
 20
483.3642826045284
 11
1449.7151766345476
 21
487.50538732616877
  0
LINE
  8
_0-5_寸法線
  6
CONTINUOUS
 62
    7
 10
1205.1699898551731
 20
483.3642826045284
 11
1465.1699898551726
 21
483.3642826045284
  0
TEXT
  8
_0-5_寸法線
 62
    7
 10
1305.1699898551728
 20
483.3642826045284
 40
24
 41
1
 50
0
  1
φ260
  0
LINE
  8
_0-5_寸法線
  6
CONTINUOUS
 62
    7
 10
1270.1699898551788
 20
693.53307894873296
 11
1270.1699898551749
 21
531.3642826045284
  0
LINE
  8
_0-5_寸法線
  6
CONTINUOUS
 62
    7
 10
1270.1699898551751
 20
539.3642826045284
 11
1285.6248030758002
 21
543.50538732616872
  0
LINE
  8
_0-5_寸法線
  6
CONTINUOUS
 62
    7
 10
1270.1699898551751
 20
539.3642826045284
 11
1285.6248030758002
 21
535.22317788288808
  0
LINE
  8
_0-5_寸法線
  6
CONTINUOUS
 62
    7
 10
1400.1699898551788
 20
693.53307894873296
 11
1400.1699898551749
 21
531.3642826045284
  0
LINE
  8
_0-5_寸法線
  6
CONTINUOUS
 62
    7
 10
1400.1699898551751
 20
539.3642826045284
 11
1384.7151766345501
 21
535.22317788288808
  0
LINE
  8
_0-5_寸法線
  6
CONTINUOUS
 62
    7
 10
1400.1699898551751
 20
539.3642826045284
 11
1384.7151766345501
 21
543.50538732616883
  0
LINE
  8
_0-5_寸法線
  6
CONTINUOUS
 62
    7
 10
1270.1699898551751
 20
539.3642826045284
 11
1400.1699898551751
 21
539.3642826045284
  0
TEXT
  8
_0-5_寸法線
 62
    7
 10
1305.1699898551751
 20
539.3642826045284
 40
24
 41
1
 50
0
  1
φ130
  0
LINE
  8
_0-5_寸法線
  6
CONTINUOUS
 62
    7
 10
1296.169989855179
 20
659.35192871449317
 11
1296.1699898551776
 21
587.3642826045284
  0
LINE
  8
_0-5_寸法線
  6
CONTINUOUS
 62
    7
 10
1296.1699898551778
 20
595.3642826045284
 11
1311.6248030758029
 21
599.50538732616872
  0
LINE
  8
_0-5_寸法線
  6
CONTINUOUS
 62
    7
 10
1296.1699898551778
 20
595.3642826045284
 11
1311.6248030758029
 21
591.22317788288808
  0
LINE
  8
_0-5_寸法線
  6
CONTINUOUS
 62
    7
 10
1374.169989855179
 20
659.35192871449317
 11
1374.1699898551776
 21
587.3642826045284
  0
LINE
  8
_0-5_寸法線
  6
CONTINUOUS
 62
    7
 10
1374.1699898551778
 20
595.3642826045284
 11
1358.7151766345528
 21
591.22317788288808
  0
LINE
  8
_0-5_寸法線
  6
CONTINUOUS
 62
    7
 10
1374.1699898551778
 20
595.3642826045284
 11
1358.7151766345528
 21
599.50538732616883
  0
LINE
  8
_0-5_寸法線
  6
CONTINUOUS
 62
    7
 10
1296.1699898551778
 20
595.3642826045284
 11
1374.1699898551778
 21
595.3642826045284
  0
TEXT
  8
_0-5_寸法線
 62
    7
 10
1311.1699898551778
 20
595.3642826045284
 40
24
 41
1
 50
0
  1
φ78
  0
LINE
  8
_0-5_寸法線
  6
CONTINUOUS
 62
    7
 10
1285.9907925379625
 20
746.06244481303247
 11
1272.634986726398
 21
737.25208437070228
  0
LINE
  8
_0-5_寸法線
  6
CONTINUOUS
 62
    7
 10
1285.9907925379625
 20
746.06244481303247
 11
1270.0191451959706
 21
745.11035175925929
  0
LINE
  8
_0-5_寸法線
  6
CONTINUOUS
 62
    7
 10
1285.9907925379625
 20
746.06244481303247
 11
1202.7501684352785
 21
718.35350201686833
  0
LINE
  8
_0-5_寸法線
  6
CONTINUOUS
 62
    7
 10
1202.7501684352785
 20
718.35350201686833
 11
1068.3501684352786
 21
718.35350201686924
  0
TEXT
  8
_0-5_寸法線
 62
    7
 10
1068.3501684352786
 20
718.35350201686833
 40
24
 41
0.7999999999999998
 50
0
  1
防水マス縦引き
  0
TEXT
  8
_0-7_枠細線
 62
    5
 10
1539.8715071507147
 20
176
 40
32
 41
0.6
 50
0
  1
ＨＳＴＢ－１５Ｌ６００
  0
LINE
  8
_0-5_寸法線
  6
CONTINUOUS
 62
    7
 10
1418.1792205215027
 20
845.36428260452919
 11
1553.1699646002321
 21
845.36428260452874
  0
LINE
  8
_0-5_寸法線
  6
CONTINUOUS
 62
    7
 10
1545.1699646002321
 20
845.36428260452874
 11
1549.3110693218723
 21
829.90946938390357
  0
LINE
  8
_0-5_寸法線
  6
CONTINUOUS
 62
    7
 10
1545.1699646002321
 20
845.36428260452874
 11
1541.0288598785917
 21
829.90946938390368
  0
LINE
  8
_0-5_寸法線
  6
CONTINUOUS
 62
    7
 10
1431.4792205215026
 20
866.86428260452931
 11
1553.1699646002321
 21
866.86428260452885
  0
LINE
  8
_0-5_寸法線
  6
CONTINUOUS
 62
    7
 10
1545.1699646002321
 20
866.86428260452885
 11
1541.0288598785919
 21
882.31909582515391
  0
LINE
  8
_0-5_寸法線
  6
CONTINUOUS
 62
    7
 10
1545.1699646002321
 20
866.86428260452885
 11
1549.3110693218725
 21
882.31909582515391
  0
LINE
  8
_0-5_寸法線
  6
CONTINUOUS
 62
    7
 10
1545.1699646002321
 20
805.36428260452874
 11
1545.1699646002321
 21
930.86428260452885
  0
TEXT
  8
_0-5_寸法線
 62
    7
 10
1545.1699646002323
 20
877.14930182300816
 40
24
 41
1
 50
90
  1
21.5
  0
LINE
  8
_0-5_寸法線
  6
CONTINUOUS
 62
    7
 10
1388.3157136002319
 20
675.3642826045284
 11
1609.1699646002321
 21
675.3642826045276
  0
LINE
  8
_0-5_寸法線
  6
CONTINUOUS
 62
    7
 10
1601.1699646002321
 20
675.3642826045276
 11
1597.0288598785919
 21
690.81909582515266
  0
LINE
  8
_0-5_寸法線
  6
CONTINUOUS
 62
    7
 10
1601.1699646002321
 20
675.3642826045276
 11
1605.3110693218725
 21
690.81909582515266
  0
LINE
  8
_0-5_寸法線
  6
CONTINUOUS
 62
    7
 10
1479.1776269192787
 20
803.36428260452931
 11
1609.1699646002321
 21
803.36428260452885
  0
LINE
  8
_0-5_寸法線
  6
CONTINUOUS
 62
    7
 10
1601.1699646002321
 20
803.36428260452885
 11
1605.3110693218723
 21
787.9094693839038
  0
LINE
  8
_0-5_寸法線
  6
CONTINUOUS
 62
    7
 10
1601.1699646002321
 20
803.36428260452885
 11
1597.0288598785917
 21
787.9094693839038
  0
LINE
  8
_0-5_寸法線
  6
CONTINUOUS
 62
    7
 10
1601.1699646002321
 20
675.3642826045276
 11
1601.1699646002321
 21
803.36428260452885
  0
TEXT
  8
_0-5_寸法線
 62
    7
 10
1601.1699646002323
 20
721.36428260452794
 40
24
 41
1
 50
90
  1
128
  0
LINE
  8
_0-5_寸法線
  6
CONTINUOUS
 62
    7
 10
1601.1699646002321
 20
803.36428260452885
 11
1597.0288598785919
 21
818.81909582515391
  0
LINE
  8
_0-5_寸法線
  6
CONTINUOUS
 62
    7
 10
1601.1699646002321
 20
803.36428260452885
 11
1605.3110693218725
 21
818.81909582515391
  0
LINE
  8
_0-5_寸法線
  6
CONTINUOUS
 62
    7
 10
1431.4792205215026
 20
866.86428260452931
 11
1609.1699646002321
 21
866.86428260452874
  0
LINE
  8
_0-5_寸法線
  6
CONTINUOUS
 62
    7
 10
1601.1699646002321
 20
866.86428260452874
 11
1605.3110693218725
 21
851.40946938390368
  0
LINE
  8
_0-5_寸法線
  6
CONTINUOUS
 62
    7
 10
1601.1699646002321
 20
866.86428260452874
 11
1597.0288598785919
 21
851.40946938390368
  0
LINE
  8
_0-5_寸法線
  6
CONTINUOUS
 62
    7
 10
1601.1699646002321
 20
803.36428260452885
 11
1601.1699646002321
 21
937.86428260452885
  0
TEXT
  8
_0-5_寸法線
 62
    7
 10
1601.1699646002321
 20
805.86428260452885
 40
24
 41
1
 50
89.999999999999901
  1
63(43)～113
  0
LINE
  8
_0-5_寸法線
  6
CONTINUOUS
 62
    7
 10
1388.3157136002319
 20
675.3642826045284
 11
1665.1699646002321
 21
675.36428260452749
  0
LINE
  8
_0-5_寸法線
  6
CONTINUOUS
 62
    7
 10
1657.1699646002321
 20
675.36428260452749
 11
1653.0288598785919
 21
690.81909582515254
  0
LINE
  8
_0-5_寸法線
  6
CONTINUOUS
 62
    7
 10
1657.1699646002321
 20
675.36428260452749
 11
1661.3110693218725
 21
690.81909582515254
  0
LINE
  8
_0-5_寸法線
  6
CONTINUOUS
 62
    7
 10
1431.4792205215026
 20
866.86428260452931
 11
1665.1699646002321
 21
866.86428260452851
  0
LINE
  8
_0-5_寸法線
  6
CONTINUOUS
 62
    7
 10
1657.1699646002321
 20
866.86428260452851
 11
1661.3110693218723
 21
851.40946938390334
  0
LINE
  8
_0-5_寸法線
  6
CONTINUOUS
 62
    7
 10
1657.1699646002321
 20
866.86428260452851
 11
1653.0288598785917
 21
851.40946938390346
  0
LINE
  8
_0-5_寸法線
  6
CONTINUOUS
 62
    7
 10
1657.1699646002321
 20
675.36428260452749
 11
1657.1699646002321
 21
866.86428260452851
  0
TEXT
  8
_0-5_寸法線
 62
    7
 10
1657.1699646002319
 20
693.11428260452794
 40
24
 41
1
 50
89.999999999999844
  1
191(171)～241
  0
ARC
  8
_0-5_寸法線
  6
CONTINUOUS
 62
    7
 10
1335.4782234079203
 20
1148.8642826045293
 40
82.848314867910403
 50
89.999999999999687
 51
119.65063029456734
  0
ARC
  8
_0-5_寸法線
  6
CONTINUOUS
 62
    7
 10
1335.4782234079203
 20
1148.8642826045293
 40
91.879621615350516
 50
89.999999999999574
 51
128.40547950605566
  0
ARC
  8
_0-5_寸法線
  6
CONTINUOUS
 62
    7
 10
1335.4782234079203
 20
1148.8642826045293
 40
93.886577118409832
 50
89.999999999999716
 51
129.92521477628787
  0
ARC
  8
_0-1_計細線
  6
CONTINUOUS
 62
    3
 10
1335.4782234079203
 20
1148.8642826045293
 40
93.886577118409832
 50
89.999999999999716
 51
129.92521477628787
  0
ARC
  8
_0-5_寸法線
  6
CONTINUOUS
 62
    7
 10
1335.4782234079203
 20
1148.8642826045293
 40
93.886577118409832
 50
89.999999999999716
 51
129.92521477628787
  0
ARC
  8
_0-1_計細線
  6
CONTINUOUS
 62
    3
 10
1335.4782234079203
 20
1148.8642826045293
 40
93.886577118409832
 50
89.999999999999716
 51
129.92521477628787
  0
ARC
  8
_0-1_計細線
  6
CONTINUOUS
 62
    3
 10
1335.4782234079203
 20
1148.8642826045293
 40
93.886577118409832
 50
89.999999999999716
 51
129.92521477628787
  0
ARC
  8
_0-5_寸法線
  6
CONTINUOUS
 62
    7
 10
1335.4782234079203
 20
1148.8642826045293
 40
91.879621615350516
 50
231.59452049394329
 51
269.99999999999977
  0
ARC
  8
_0-5_寸法線
  6
CONTINUOUS
 62
    7
 10
1335.4782234079203
 20
1148.8642826045293
 40
93.886577118409832
 50
230.07478522371102
 51
269.99999999999977
  0
ARC
  8
_0-5_寸法線
  6
CONTINUOUS
 62
    7
 10
1335.4782234079203
 20
1148.8642826045293
 40
82.848314867910403
 50
240.34936970543191
 51
269.99999999999977
  0
ARC
  8
_0-5_寸法線
  6
CONTINUOUS
 62
    7
 10
1335.4782234079203
 20
1148.8642826045293
 40
82.848314867910403
 50
60.349369705432665
 51
90.000000000000313
  0
ARC
  8
_0-5_寸法線
  6
CONTINUOUS
 62
    7
 10
1335.4782234079203
 20
1148.8642826045293
 40
91.879621615350516
 50
51.594520493944366
 51
90.000000000000426
  0
ARC
  8
_0-5_寸法線
  6
CONTINUOUS
 62
    7
 10
1335.4782234079203
 20
1148.8642826045293
 40
93.886577118409832
 50
50.074785223712141
 51
90.000000000000284
  0
ARC
  8
_0-1_計細線
  6
CONTINUOUS
 62
    3
 10
1335.4782234079203
 20
1148.8642826045293
 40
93.886577118409832
 50
50.074785223712141
 51
90.000000000000284
  0
ARC
  8
_0-5_寸法線
  6
CONTINUOUS
 62
    7
 10
1335.4782234079203
 20
1148.8642826045293
 40
122.98746950120835
 50
269.99999999999955
 51
89.999999999999943
  0
ARC
  8
_0-5_寸法線
  6
CONTINUOUS
 62
    7
 10
1335.4782234079203
 20
1148.8642826045293
 40
93.886577118409832
 50
50.074785223712141
 51
90.000000000000284
  0
ARC
  8
_0-1_計細線
  6
CONTINUOUS
 62
    3
 10
1335.4782234079203
 20
1148.8642826045293
 40
130.00993494017567
 50
269.99999999999955
 51
89.999999999999943
  0
ARC
  8
_0-1_計細線
  6
CONTINUOUS
 62
    3
 10
1335.4782234079203
 20
1148.8642826045293
 40
93.886577118409832
 50
50.074785223712141
 51
90.000000000000284
  0
ARC
  8
_0-1_計細線
  6
CONTINUOUS
 62
    3
 10
1335.4782234079203
 20
1148.8642826045293
 40
128.00274871882576
 50
269.99999999999943
 51
89.999999999999943
  0
ARC
  8
_0-1_計細線
  6
CONTINUOUS
 62
    3
 10
1335.4782234079203
 20
1148.8642826045293
 40
93.886577118409832
 50
50.074785223712141
 51
90.000000000000284
  0
ARC
  8
_0-5_寸法線
  6
CONTINUOUS
 62
    7
 10
1335.4782234079203
 20
1148.8642826045293
 40
91.879621615350516
 50
269.99999999999949
 51
308.405479506056
  0
ARC
  8
_0-5_寸法線
  6
CONTINUOUS
 62
    7
 10
1335.4782234079203
 20
1148.8642826045293
 40
93.886577118409832
 50
269.99999999999949
 51
309.92521477628827
  0
ARC
  8
_0-5_寸法線
  6
CONTINUOUS
 62
    7
 10
1335.4782234079203
 20
1148.8642826045293
 40
82.848314867910403
 50
269.99999999999949
 51
299.65063029456741
  0
ARC
  8
_0-5_寸法線
  6
CONTINUOUS
 62
    7
 10
1335.4782234079203
 20
1148.8642826045293
 40
93.886577118409832
 50
328.43993965443281
 51
31.560060345566356
  0
ARC
  8
_0-5_寸法線
  6
CONTINUOUS
 62
    7
 10
1335.4782234079203
 20
1148.8642826045293
 40
91.879621615350516
 50
330.5406104231576
 51
29.459389576841684
  0
ARC
  8
_0-5_寸法線
  6
CONTINUOUS
 62
    7
 10
1335.4782234079203
 20
1148.8642826045293
 40
82.848314867910403
 50
344.93247378025859
 51
15.067526219740063
  0
ARC
  8
_0-1_計細線
  6
CONTINUOUS
 62
    3
 10
1335.4782234079203
 20
1148.8642826045293
 40
102.91892074906787
 50
224.39330257367916
 51
315.60669742632001
  0
ARC
  8
_0-1_計細線
  6
CONTINUOUS
 62
    3
 10
1335.4782234079203
 20
1148.8642826045293
 40
102.91892074906787
 50
44.393302573679073
 51
135.60669742631995
  0
ARC
  8
_0-1_計細線
  6
CONTINUOUS
 62
    3
 10
1335.4782234079203
 20
1148.8642826045293
 40
102.91892074906787
 50
321.01502003900231
 51
38.984979960996441
  0
ARC
  8
_0-5_寸法線
  6
CONTINUOUS
 62
    7
 10
1335.4782234079203
 20
1148.8642826045293
 40
122.98746950120835
 50
89.999999999999687
 51
144.16694515012657
  0
ARC
  8
_0-5_寸法線
  6
CONTINUOUS
 62
    7
 10
1335.4782234079203
 20
1148.8642826045293
 40
122.98746950120835
 50
215.83305484987252
 51
269.99999999999977
  0
ARC
  8
_0-1_計細線
  6
CONTINUOUS
 62
    3
 10
1335.4782234079203
 20
1148.8642826045293
 40
128.00274871882576
 50
89.999999999999687
 51
145.77197072908638
  0
ARC
  8
_0-1_計細線
  6
CONTINUOUS
 62
    3
 10
1335.4782234079203
 20
1148.8642826045293
 40
128.00274871882576
 50
214.2280292709124
 51
269.99999999999983
  0
ARC
  8
_0-1_計細線
  6
CONTINUOUS
 62
    3
 10
1335.4782234079203
 20
1148.8642826045293
 40
130.00993494017567
 50
89.999999999999702
 51
146.37163492389286
  0
ARC
  8
_0-1_計細線
  6
CONTINUOUS
 62
    3
 10
1335.4782234079203
 20
1148.8642826045293
 40
130.00993494017567
 50
213.62836507610595
 51
269.99999999999977
  0
ENDSEC
  0
EOF
