  0
SECTION
  2
HEADER
  9
$ACADVER
  1
AC1009
  9
$INSBASE
 10
0
 20
0
 30
0
  9
$EXTMIN
 10
0
 20
0
  9
$EXTMAX
 10
2376
 20
1680
  9
$LIMMIN
 10
0
 20
0
  9
$LIMMAX
 10
2376
 20
1680
  9
$LTSCALE
 40
8
  0
ENDSEC
  0
SECTION
  2
TABLES
  0
TABLE
  2
LTYPE
 70
     9
  0
LTYPE
  2
CONTINUOUS
 70
    64
  3
実線
 72
    65
 73
     0
 40
0.0
  0
LTYPE
  2
DASHED1
 70
    64
  3
--  --  --  --  --  --  --  --  
 72
    65
 73
     2
 40
2.5
 49
1.25
 49
-1.25
  0
LTYPE
  2
DASHED2
 70
    64
  3
----    ----    ----    ----    
 72
    65
 73
     2
 40
5.0
 49
2.5
 49
-2.5
  0
LTYPE
  2
DASHED3
 70
    64
  3
------  ------  ------  ------  
 72
    65
 73
     2
 40
5.0
 49
3.75
 49
-1.25
  0
LTYPE
  2
CENTER1
 70
    64
  3
----- - ----- - ----- - ----- - 
 72
    65
 73
     4
 40
10.0
 49
6.25
 49
-1.25
 49
1.25
 49
-1.25
  0
LTYPE
  2
CENTER2
 70
    64
  3
----------  --  ----------  --  
 72
    65
 73
     4
 40
20.0
 49
12.5
 49
-2.5
 49
2.5
 49
-2.5
  0
LTYPE
  2
PHANTOM1
 70
    64
  3
--- - - --- - - --- - - --- - - 
 72
    65
 73
     6
 40
10.0
 49
3.25
 49
-1.25
 49
1.25
 49
-1.25
 49
1.25
 49
-1.25
  0
LTYPE
  2
PHANTOM2
 70
    64
  3
--------  -  -  --------  -  -  
 72
    65
 73
     6
 40
20.0
 49
10.0
 49
-2.5
 49
1.25
 49
-2.5
 49
1.25
 49
-2.5
  0
LTYPE
  2
DOT
 70
    64
  3
-   -   -   -   -   -   -   -   
 72
    65
 73
     2
 40
2.5
 49
0.625
 49
-1.875
  0
LTYPE
  2
DUMMY
 70
    64
  3
ダミー
 72
    65
 73
     0
 40
0.0
  0
LTYPE
  2
RAND1
 70
    64
  3
ランダム線1
 72
    65
 73
     4
 40
10.0
 49
1.0
 49
-2.0
 49
3.0
 49
-4.0
  0
LTYPE
  2
RAND2
 70
    64
  3
ランダム線2
 72
    65
 73
     4
 40
14.0
 49
2.0
 49
-3.0
 49
4.0
 49
-5.0
  0
LTYPE
  2
RAND3
 70
    64
  3
ランダム線3
 72
    65
 73
     4
 40
18.0
 49
3.0
 49
-4.0
 49
5.0
 49
-6.0
  0
LTYPE
  2
RAND4
 70
    64
  3
ランダム線4
 72
    65
 73
     4
 40
22.0
 49
4.0
 49
-5.0
 49
6.0
 49
-7.0
  0
LTYPE
  2
RAND5
 70
    64
  3
ランダム線5
 72
    65
 73
     4
 40
26.0
 49
5.0
 49
-6.0
 49
7.0
 49
-8.0
  0
LTYPE
  2
LONG1
 70
    64
  3
----------  --  ----------  --  
 72
    65
 73
     4
 40
40.0
 49
32.5
 49
-2.5
 49
2.5
 49
-2.5
  0
LTYPE
  2
LONG2
 70
    64
  3
--------  -  -  --------  -  -  
 72
    65
 73
     6
 40
40.0
 49
30.0
 49
-2.5
 49
1.25
 49
-2.5
 49
1.25
 49
-2.5
  0
LTYPE
  2
LONG3
 70
    64
  3
+++++++++++++++..+++++++++++++++
 72
    65
 73
     2
 40
40.0
 49
37.5
 49
-2.5
  0
LTYPE
  2
LONG4
 70
    64
  3
+++++++++++++++..+++++++++++++++
 72
    65
 73
     2
 40
80.0
 49
75.0
 49
-5.0
  0
LTYPE
  2
LONG5
 70
    64
  3
----------  --  ----------  --  
 72
    65
 73
     4
 40
60.0
 49
37.5
 49
-7.5
 49
7.5
 49
-7.5
  0
LTYPE
  2
dashed
 70
   64
  3
-------   -------------   ------
 72
   65
 73
    2
 40
7.5
 49
6
 49
-1.5
  0
LTYPE
  2
dashed_spaced
 70
   64
  3
----        --------        ----
 72
   65
 73
    2
 40
12
 49
6
 49
-6
  0
LTYPE
  2
long_dashed_dotted
 70
   64
  3
------------- --- --------------
 72
   65
 73
    4
 40
15.25
 49
12
 49
-1.5
 49
0.25
 49
-1.5
  0
LTYPE
  2
long_dashed_double-dotted
 70
   64
  3
----------- --- --- ------------
 72
   65
 73
    6
 40
17
 49
12
 49
-1.5
 49
0.25
 49
-1.5
 49
0.25
 49
-1.5
  0
LTYPE
  2
long_dashed_triplicate-dotted
 70
   64
  3
--------- --- --- --- ----------
 72
   65
 73
    8
 40
18.75
 49
12
 49
-1.5
 49
0.25
 49
-1.5
 49
0.25
 49
-1.5
 49
0.25
 49
-1.5
  0
LTYPE
  2
dotted
 70
   64
  3
   -       -       -       -    
 72
   65
 73
    2
 40
1.75
 49
0.25
 49
-1.5
  0
LTYPE
  2
chain
 70
   64
  3
-------------- -- --------------
 72
   65
 73
    4
 40
18.5
 49
12
 49
-1.5
 49
3.5
 49
-1.5
  0
LTYPE
  2
chain_double_dash
 70
   64
  3
------------ -- -- -------------
 72
   65
 73
    6
 40
23.5
 49
12
 49
-1.5
 49
3.5
 49
-1.5
 49
3.5
 49
-1.5
  0
LTYPE
  2
dashed_dotted
 70
   64
  3
-----------     -     ----------
 72
   65
 73
    4
 40
9.25
 49
6
 49
-1.5
 49
0.25
 49
-1.5
  0
LTYPE
  2
double-dashed_dotted
 70
   64
  3
------   -----------   -   -----
 72
   65
 73
    6
 40
16.75
 49
6
 49
-1.5
 49
6
 49
-1.5
 49
0.25
 49
-1.5
  0
LTYPE
  2
dashed_double-dotted
 70
   64
  3
---------    -    -    ---------
 72
   65
 73
    6
 40
11
 49
6
 49
-1.5
 49
0.25
 49
-1.5
 49
0.25
 49
-1.5
  0
LTYPE
  2
double-dashed_double-dotted
 70
   64
  3
-----   ---------   -   -   ----
 72
   65
 73
    8
 40
18.5
 49
6
 49
-1.5
 49
6
 49
-1.5
 49
0.25
 49
-1.5
 49
0.25
 49
-1.5
  0
LTYPE
  2
dashed_triplicate-dotted
 70
   64
  3
-------    -    -    -    ------
 72
   65
 73
    8
 40
12.75
 49
6
 49
-1.5
 49
0.25
 49
-1.5
 49
0.25
 49
-1.5
 49
0.25
 49
-1.5
  0
LTYPE
  2
double-dashed_triplicate-dotted
 70
   64
  3
-----  ---------  -  -  -  -----
 72
   65
 73
   10
 40
20.25
 49
6
 49
-1.5
 49
6
 49
-1.5
 49
0.25
 49
-1.5
 49
0.25
 49
-1.5
 49
0.25
 49
-1.5
  0
LTYPE
  2
undefined
 70
   64
  3
--------------------------------
 72
   65
 73
    0
 40
0
  0
ENDTAB
  0
TABLE
  2
STYLE
  5
3
100
AcDbSymbolTable
 70
     1
  0
STYLE
  5
10
100
AcDbSymbolTableRecord
100
AcDbTextStyleTableRecord
  2
STANDARD
 70
     0
 40
0.0
 41
1.0
 50
0.0
 71
     0
 42
0.2
  3
txt
  4
bigfont.shx
  0
STYLE
  5
26
100
AcDbSymbolTableRecord
100
AcDbTextStyleTableRecord
  2
TATEGAKI
 70
    68
 40
0.0
 41
1.0
 50
0.0
 71
     0
 42
1.0
  3
txt
  4
bigfont.shx
  0
ENDTAB
  0
TABLE
  2
LAYER
 70
   14
  0
LAYER
  2
_0-0_計極細
 70
   64
 62
    7
  6
CONTINUOUS
  0
LAYER
  2
_0-1_計細線
 70
   64
 62
    7
  6
CONTINUOUS
  0
LAYER
  2
_0-5_寸法線
 70
   64
 62
    7
  6
CONTINUOUS
  0
LAYER
  2
_0-7_枠細線
 70
   64
 62
    7
  6
CONTINUOUS
  0
LAYER
  2
_0-8_枠中線
 70
   64
 62
    7
  6
CONTINUOUS
  0
LAYER
  2
_0-a_極細1
 70
   64
 62
    7
  6
CONTINUOUS
  0
LAYER
  2
_0-b_細線1
 70
   64
 62
    7
  6
CONTINUOUS
  0
LAYER
  2
_0-d_寸法1
 70
   64
 62
    7
  6
CONTINUOUS
  0
LAYER
  2
_0-e_極細4
 70
   64
 62
    7
  6
CONTINUOUS
  0
LAYER
  2
_1-1_寸法4
 70
   64
 62
    7
  6
CONTINUOUS
  0
LAYER
  2
_1-2_極細3
 70
   64
 62
    7
  6
CONTINUOUS
  0
LAYER
  2
_1-3_細線3
 70
   64
 62
    7
  6
CONTINUOUS
  0
LAYER
  2
_1-5_寸法3
 70
   64
 62
    7
  6
CONTINUOUS
  0
LAYER
  2
ADD_LINE
 70
   64
 62
    7
  6
CONTINUOUS
  0
ENDTAB
  0
ENDSEC
  0
SECTION
  2
BLOCKS
  0
ENDSEC
  0
SECTION
  2
ENTITIES
  0
LINE
  8
_0-8_枠中線
  6
CONTINUOUS
 62
    5
 10
96
 20
96
 11
96
 21
1536
  0
LINE
  8
_0-8_枠中線
  6
CONTINUOUS
 62
    5
 10
96
 20
1536
 11
2280
 21
1536
  0
LINE
  8
_0-8_枠中線
  6
CONTINUOUS
 62
    5
 10
2280
 20
1536
 11
2280
 21
96
  0
LINE
  8
_0-8_枠中線
  6
CONTINUOUS
 62
    5
 10
2280
 20
96
 11
96
 21
96
  0
LINE
  8
_0-7_枠細線
  6
CONTINUOUS
 62
    5
 10
1896
 20
288
 11
1896
 21
160
  0
TEXT
  8
_0-7_枠細線
 62
    5
 10
1500
 20
156
 40
28
 41
1
 50
0
  1
備考
  7
TATEGAKI
  0
TEXT
  8
_0-7_枠細線
 62
    5
 10
1500
 20
220
 40
28
 41
1
 50
0
  1
品番
  7
TATEGAKI
  0
TEXT
  8
_0-7_枠細線
 62
    5
 10
1500
 20
284
 40
28
 41
1
 50
0
  1
品名
  7
TATEGAKI
  0
LINE
  8
_0-7_枠細線
  6
CONTINUOUS
 62
    5
 10
1896
 20
224
 11
1480
 21
224
  0
LINE
  8
_0-7_枠細線
  6
CONTINUOUS
 62
    5
 10
1520
 20
288
 11
1520
 21
96
  0
LINE
  8
_0-8_枠中線
  6
CONTINUOUS
 62
    5
 10
2280
 20
288
 11
1480
 21
288
  0
LINE
  8
_0-8_枠中線
  6
CONTINUOUS
 62
    5
 10
1480
 20
288
 11
1480
 21
96
  0
LINE
  8
_0-7_枠細線
  6
CONTINUOUS
 62
    5
 10
1992
 20
288
 11
1992
 21
96
  0
TEXT
  8
_0-7_枠細線
 62
    5
 10
1908
 20
256
 40
24
 41
1
 50
0
  1
縮　尺
  0
LINE
  8
_0-7_枠細線
  6
CONTINUOUS
 62
    5
 10
1896
 20
248
 11
1992
 21
248
  0
LINE
  8
_0-7_枠細線
  6
CONTINUOUS
 62
    5
 10
1992
 20
160
 11
1480
 21
160
  0
LINE
  8
_0-7_枠細線
  6
CONTINUOUS
 62
    5
 10
2280
 20
144
 11
1992
 21
144
  0
LINE
  8
_0-7_枠細線
  6
CONTINUOUS
 62
    5
 10
1992
 20
192
 11
2280
 21
192
  0
LINE
  8
_0-7_枠細線
  6
CONTINUOUS
 62
    5
 10
2280
 20
224
 11
1992
 21
224
  0
TEXT
  8
_0-7_枠細線
 62
    5
 10
2008
 20
236
 40
40
 41
0.8
 50
0
  1
株式会社シマブン
  0
TEXT
  8
_0-7_枠細線
 62
    5
 10
2004
 20
96
 40
24
 41
1
 50
0
  1
年月日
  0
TEXT
  8
_0-7_枠細線
 62
    5
 10
2004
 20
120
 40
24
 41
1
 50
0
  1
作　成
  0
TEXT
  8
_0-7_枠細線
 62
    5
 10
2010
 20
196
 40
24
 41
1
 50
0
  1
承 認
  0
LINE
  8
_0-7_枠細線
  6
CONTINUOUS
 62
    5
 10
2088
 20
224
 11
2088
 21
96
  0
TEXT
  8
_0-7_枠細線
 62
    5
 10
2106
 20
196
 40
24
 41
1
 50
0
  1
検 図
  0
LINE
  8
_0-7_枠細線
  6
CONTINUOUS
 62
    5
 10
2184
 20
224
 11
2184
 21
144
  0
TEXT
  8
_0-7_枠細線
 62
    5
 10
2202
 20
196
 40
24
 41
1
 50
0
  1
設 計
  0
TEXT
  8
_0-7_枠細線
 62
    5
 10
1910.4000000000001
 20
188
 40
32
 41
0.6999999999999998
 50
0
  1
１：８
  0
LINE
  8
_0-7_枠細線
  6
CONTINUOUS
 62
    5
 10
2280
 20
1508
 11
1424
 21
1508
  0
TEXT
  8
_0-7_枠細線
 62
    5
 10
1432
 20
1511.9999999999993
 40
20
 41
1
 50
0
  1
記号
  0
TEXT
  8
_0-7_枠細線
 62
    5
 10
1595
 20
1512
 40
20
 41
1
 50
0
  1
訂　 正　 記　 事
  0
TEXT
  8
_0-7_枠細線
 62
    5
 10
1890
 20
1512
 40
20
 41
1
 50
0
  1
訂 正 年 月 日
  0
TEXT
  8
_0-7_枠細線
 62
    5
 10
2090
 20
1512
 40
20
 41
1
 50
0
  1
備　　　　　考
  0
LINE
  8
_0-7_枠細線
  6
CONTINUOUS
 62
    5
 10
1424
 20
1508
 11
1424
 21
1535.9999999999991
  0
LINE
  8
_0-7_枠細線
  6
CONTINUOUS
 62
    5
 10
1480
 20
1508
 11
1480
 21
1535.9999999999991
  0
LINE
  8
_0-7_枠細線
  6
CONTINUOUS
 62
    5
 10
1880
 20
1508
 11
1880
 21
1536
  0
LINE
  8
_0-7_枠細線
  6
CONTINUOUS
 62
    5
 10
2040
 20
1508
 11
2040
 21
1535.9999999999991
  0
TEXT
  8
_0-7_枠細線
 62
    5
 10
2008
 20
152
 40
32
 41
1
 50
0
  1
大野
  0
TEXT
  8
_0-7_枠細線
 62
    5
 10
2104
 20
152
 40
32
 41
1
 50
0
  1
深川
  0
TEXT
  8
_0-7_枠細線
 62
    5
 10
2200
 20
152
 40
32
 41
1
 50
0
  1
久野
  0
TEXT
  8
_0-7_枠細線
 62
    5
 10
1079.06662595134
 20
114.84526555100319
 40
40
 41
0.8
 50
0
  1
断面詳細図
  0
TEXT
  8
_0-7_枠細線
 62
    5
 10
1262.9849775500097
 20
114.84526555100319
 40
32
 41
0.6
 50
0
  1
Ｓ＝１：３
  0
LINE
  8
_1-2_極細3
  6
CONTINUOUS
 62
    2
 10
990.68444079055325
 20
188.84247738216743
 11
990.68444079055325
 21
244.30914404883379
  0
LINE
  8
_1-2_極細3
  6
CONTINUOUS
 62
    2
 10
992.55110745721868
 20
190.70914404883456
 11
992.55110745721868
 21
246.17581071550092
  0
LINE
  8
_1-2_極細3
  6
CONTINUOUS
 62
    2
 10
967.21777412388565
 20
224.84247738216766
 11
967.21777412388565
 21
246.17581071550092
  0
LINE
  8
_1-2_極細3
  6
CONTINUOUS
 62
    2
 10
969.08444079055243
 20
224.84247738216732
 11
969.08444079055107
 21
244.30914404883424
  0
LINE
  8
_1-2_極細3
  6
CONTINUOUS
 62
    2
 10
967.21777412388565
 20
224.84247738216766
 11
969.08444079055243
 21
224.84247738216766
  0
LINE
  8
_1-2_極細3
  6
CONTINUOUS
 62
    2
 10
969.08444079055243
 20
244.30914404883379
 11
990.68444079055325
 21
244.30914404883379
  0
LINE
  8
_1-2_極細3
  6
CONTINUOUS
 62
    2
 10
967.21777412388565
 20
246.17581071550092
 11
992.55110745721868
 21
246.17581071550092
  0
LINE
  8
_1-2_極細3
  6
CONTINUOUS
 62
    2
 10
1325.8844407905526
 20
190.70914404883456
 11
1325.8844407905526
 21
246.17581071550092
  0
LINE
  8
_1-2_極細3
  6
CONTINUOUS
 62
    2
 10
1327.7511074572176
 20
188.84247738216743
 11
1327.7511074572176
 21
244.30914404883379
  0
LINE
  8
_1-2_極細3
  6
CONTINUOUS
 62
    2
 10
992.55110745721868
 20
190.70914404883456
 11
1325.8844407905526
 21
190.70914404883456
  0
LINE
  8
_1-2_極細3
  6
CONTINUOUS
 62
    2
 10
1327.7511074572176
 20
188.84247738216743
 11
990.68444079055325
 21
188.84247738216743
  0
LINE
  8
_1-2_極細3
  6
CONTINUOUS
 62
    2
 10
1349.3511074572184
 20
224.84247738216732
 11
1349.3511074572184
 21
244.30914404883379
  0
LINE
  8
_1-2_極細3
  6
CONTINUOUS
 62
    2
 10
1351.2177741238852
 20
224.84247738216732
 11
1351.2177741238856
 21
246.17581071550092
  0
LINE
  8
_1-2_極細3
  6
CONTINUOUS
 62
    2
 10
1349.3511074572184
 20
224.84247738216732
 11
1351.2177741238852
 21
224.84247738216732
  0
LINE
  8
_1-2_極細3
  6
CONTINUOUS
 62
    2
 10
1325.8844407905526
 20
246.17581071550092
 11
1351.2177741238856
 21
246.17581071550092
  0
LINE
  8
_1-2_極細3
  6
CONTINUOUS
 62
    2
 10
1327.7511074572176
 20
244.30914404883379
 11
1349.3511074572184
 21
244.30914404883379
  0
ARC
  8
_1-3_細線3
  6
CONTINUOUS
 62
    4
 10
1017.0844407905533
 20
264.3304831286448
 40
52.555815658248846
 50
259.17925751977776
 51
280.82074248022252
  0
ARC
  8
_1-3_細線3
  6
CONTINUOUS
 62
    4
 10
1017.0844407905533
 20
181.0878049690225
 40
52.55581565825014
 50
79.179257519777337
 51
100.82074248022219
  0
ARC
  8
_1-3_細線3
  6
CONTINUOUS
 62
    4
 10
1047.2177741238879
 20
77.329185184253902
 40
156.3144354430184
 50
83.731857045477739
 51
96.268142954523427
  0
ARC
  8
_1-3_細線3
  6
CONTINUOUS
 62
    4
 10
1047.2177741238879
 20
368.0891029134134
 40
156.3144354430184
 50
263.73185704547626
 51
276.26814295452186
  0
ARC
  8
_1-3_細線3
  6
CONTINUOUS
 62
    4
 10
1084.55110745722
 20
77.329185184253902
 40
156.3144354430184
 50
83.731857045477398
 51
96.268142954522602
  0
ARC
  8
_1-3_細線3
  6
CONTINUOUS
 62
    4
 10
1084.55110745722
 20
368.0891029134134
 40
156.3144354430184
 50
263.73185704547706
 51
276.2681429545222
  0
ARC
  8
_1-3_細線3
  6
CONTINUOUS
 62
    4
 10
1121.8844407905526
 20
77.329185184253902
 40
156.3144354430184
 50
83.731857045476744
 51
96.268142954522276
  0
ARC
  8
_1-3_細線3
  6
CONTINUOUS
 62
    4
 10
1121.8844407905526
 20
368.0891029134134
 40
156.3144354430184
 50
263.73185704547745
 51
276.26814295452289
  0
ARC
  8
_1-3_細線3
  6
CONTINUOUS
 62
    4
 10
1159.2177741238879
 20
77.329185184253902
 40
156.3144354430184
 50
83.731857045477739
 51
96.268142954523427
  0
ARC
  8
_1-3_細線3
  6
CONTINUOUS
 62
    4
 10
1159.2177741238879
 20
368.0891029134134
 40
156.3144354430184
 50
263.73185704547626
 51
276.26814295452186
  0
ARC
  8
_1-3_細線3
  6
CONTINUOUS
 62
    4
 10
1196.5511074572214
 20
77.329185184253902
 40
156.3144354430184
 50
83.731857045477909
 51
96.2681429545231
  0
ARC
  8
_1-3_細線3
  6
CONTINUOUS
 62
    4
 10
1196.5511074572214
 20
368.0891029134134
 40
156.3144354430184
 50
263.73185704547654
 51
276.26814295452169
  0
ARC
  8
_1-3_細線3
  6
CONTINUOUS
 62
    4
 10
1233.8844407905526
 20
77.329185184253902
 40
156.3144354430184
 50
83.731857045476744
 51
96.268142954522105
  0
ARC
  8
_1-3_細線3
  6
CONTINUOUS
 62
    4
 10
1233.8844407905526
 20
368.0891029134134
 40
156.3144354430184
 50
263.73185704547757
 51
276.26814295452289
  0
ARC
  8
_1-3_細線3
  6
CONTINUOUS
 62
    4
 10
1271.2177741238879
 20
77.329185184253902
 40
156.3144354430184
 50
83.731857045477909
 51
96.268142954523427
  0
ARC
  8
_1-3_細線3
  6
CONTINUOUS
 62
    4
 10
1271.2177741238879
 20
368.0891029134134
 40
156.3144354430184
 50
263.73185704547626
 51
276.26814295452169
  0
ARC
  8
_1-3_細線3
  6
CONTINUOUS
 62
    4
 10
1301.3511074572179
 20
264.3304831286448
 40
52.555815658248846
 50
259.17925751977731
 51
280.82074248022201
  0
ARC
  8
_1-3_細線3
  6
CONTINUOUS
 62
    4
 10
1301.3511074572179
 20
181.0878049690225
 40
52.55581565825014
 50
79.179257519777821
 51
100.82074248022219
  0
LINE
  8
_1-3_細線3
  6
CONTINUOUS
 62
    4
 10
1321.8844407905526
 20
244.04247738216668
 11
1321.8844407905526
 21
190.70914404883456
  0
LINE
  8
_1-3_細線3
  6
CONTINUOUS
 62
    4
 10
1321.8844407905526
 20
190.70914404883456
 11
1311.2177741238856
 21
190.70914404883456
  0
LINE
  8
_1-3_細線3
  6
CONTINUOUS
 62
    4
 10
1311.2177741238856
 20
190.70914404883456
 11
1311.2177741238856
 21
244.04247738216668
  0
LINE
  8
_1-3_細線3
  6
CONTINUOUS
 62
    4
 10
1311.2177741238856
 20
244.04247738216668
 11
1321.8844407905526
 21
244.04247738216668
  0
LINE
  8
_1-3_細線3
  6
CONTINUOUS
 62
    4
 10
996.55110745721868
 20
244.04247738216668
 11
996.55110745721868
 21
190.70914404883456
  0
LINE
  8
_1-3_細線3
  6
CONTINUOUS
 62
    4
 10
996.55110745721868
 20
190.70914404883456
 11
1007.2177741238856
 21
190.70914404883456
  0
LINE
  8
_1-3_細線3
  6
CONTINUOUS
 62
    4
 10
1007.2177741238856
 20
190.70914404883456
 11
1007.2177741238856
 21
244.04247738216668
  0
LINE
  8
_1-3_細線3
  6
CONTINUOUS
 62
    4
 10
1007.2177741238856
 20
244.04247738216668
 11
996.55110745721868
 21
244.04247738216668
  0
LINE
  8
_1-3_細線3
  6
CONTINUOUS
 62
    4
 10
1300.5511074572187
 20
244.04247738216668
 11
1279.2177741238856
 21
244.04247738216668
  0
LINE
  8
_1-3_細線3
  6
CONTINUOUS
 62
    4
 10
1279.2177741238856
 20
244.04247738216668
 11
1279.2177741238856
 21
240.84247738216686
  0
LINE
  8
_1-3_細線3
  6
CONTINUOUS
 62
    4
 10
1279.2177741238856
 20
240.84247738216686
 11
1288.2844407905536
 21
240.84247738216686
  0
LINE
  8
_1-3_細線3
  6
CONTINUOUS
 62
    4
 10
1288.2844407905536
 20
240.84247738216686
 11
1288.2844407905536
 21
204.04247738216668
  0
LINE
  8
_1-3_細線3
  6
CONTINUOUS
 62
    4
 10
1288.2844407905536
 20
204.04247738216668
 11
1291.484440790553
 21
204.04247738216668
  0
LINE
  8
_1-3_細線3
  6
CONTINUOUS
 62
    4
 10
1291.484440790553
 20
204.04247738216668
 11
1291.484440790553
 21
240.84247738216686
  0
LINE
  8
_1-3_細線3
  6
CONTINUOUS
 62
    4
 10
1291.484440790553
 20
240.84247738216686
 11
1300.5511074572187
 21
240.84247738216686
  0
LINE
  8
_1-3_細線3
  6
CONTINUOUS
 62
    4
 10
1300.5511074572187
 20
240.84247738216686
 11
1300.5511074572187
 21
244.04247738216668
  0
LINE
  8
_1-3_細線3
  6
CONTINUOUS
 62
    4
 10
1263.2177741238879
 20
244.04247738216668
 11
1241.8844407905526
 21
244.04247738216668
  0
LINE
  8
_1-3_細線3
  6
CONTINUOUS
 62
    4
 10
1241.8844407905526
 20
244.04247738216668
 11
1241.8844407905526
 21
240.84247738216686
  0
LINE
  8
_1-3_細線3
  6
CONTINUOUS
 62
    4
 10
1241.8844407905526
 20
240.84247738216686
 11
1250.9511074572201
 21
240.84247738216686
  0
LINE
  8
_1-3_細線3
  6
CONTINUOUS
 62
    4
 10
1250.9511074572201
 20
240.84247738216686
 11
1250.9511074572201
 21
204.04247738216668
  0
LINE
  8
_1-3_細線3
  6
CONTINUOUS
 62
    4
 10
1250.9511074572201
 20
204.04247738216668
 11
1254.1511074572186
 21
204.04247738216668
  0
LINE
  8
_1-3_細線3
  6
CONTINUOUS
 62
    4
 10
1254.1511074572186
 20
204.04247738216668
 11
1254.1511074572186
 21
240.84247738216686
  0
LINE
  8
_1-3_細線3
  6
CONTINUOUS
 62
    4
 10
1254.1511074572186
 20
240.84247738216686
 11
1263.2177741238879
 21
240.84247738216686
  0
LINE
  8
_1-3_細線3
  6
CONTINUOUS
 62
    4
 10
1263.2177741238879
 20
240.84247738216686
 11
1263.2177741238879
 21
244.04247738216668
  0
LINE
  8
_1-3_細線3
  6
CONTINUOUS
 62
    4
 10
1225.8844407905544
 20
244.04247738216668
 11
1204.5511074572214
 21
244.04247738216668
  0
LINE
  8
_1-3_細線3
  6
CONTINUOUS
 62
    4
 10
1204.5511074572214
 20
244.04247738216668
 11
1204.5511074572214
 21
240.84247738216686
  0
LINE
  8
_1-3_細線3
  6
CONTINUOUS
 62
    4
 10
1204.5511074572214
 20
240.84247738216686
 11
1213.6177741238871
 21
240.84247738216686
  0
LINE
  8
_1-3_細線3
  6
CONTINUOUS
 62
    4
 10
1213.6177741238871
 20
240.84247738216686
 11
1213.6177741238871
 21
204.04247738216668
  0
LINE
  8
_1-3_細線3
  6
CONTINUOUS
 62
    4
 10
1213.6177741238871
 20
204.04247738216668
 11
1216.8177741238869
 21
204.04247738216668
  0
LINE
  8
_1-3_細線3
  6
CONTINUOUS
 62
    4
 10
1216.8177741238869
 20
204.04247738216668
 11
1216.8177741238869
 21
240.84247738216686
  0
LINE
  8
_1-3_細線3
  6
CONTINUOUS
 62
    4
 10
1216.8177741238869
 20
240.84247738216686
 11
1225.8844407905544
 21
240.84247738216686
  0
LINE
  8
_1-3_細線3
  6
CONTINUOUS
 62
    4
 10
1225.8844407905544
 20
240.84247738216686
 11
1225.8844407905544
 21
244.04247738216668
  0
LINE
  8
_1-3_細線3
  6
CONTINUOUS
 62
    4
 10
1188.5511074572214
 20
244.04247738216668
 11
1167.2177741238879
 21
244.04247738216668
  0
LINE
  8
_1-3_細線3
  6
CONTINUOUS
 62
    4
 10
1167.2177741238879
 20
244.04247738216668
 11
1167.2177741238879
 21
240.84247738216686
  0
LINE
  8
_1-3_細線3
  6
CONTINUOUS
 62
    4
 10
1167.2177741238879
 20
240.84247738216686
 11
1176.2844407905541
 21
240.84247738216686
  0
LINE
  8
_1-3_細線3
  6
CONTINUOUS
 62
    4
 10
1176.2844407905541
 20
240.84247738216686
 11
1176.2844407905541
 21
204.04247738216668
  0
LINE
  8
_1-3_細線3
  6
CONTINUOUS
 62
    4
 10
1176.2844407905541
 20
204.04247738216668
 11
1179.4844407905543
 21
204.04247738216668
  0
LINE
  8
_1-3_細線3
  6
CONTINUOUS
 62
    4
 10
1179.4844407905543
 20
204.04247738216668
 11
1179.4844407905543
 21
240.84247738216686
  0
LINE
  8
_1-3_細線3
  6
CONTINUOUS
 62
    4
 10
1179.4844407905543
 20
240.84247738216686
 11
1188.5511074572214
 21
240.84247738216686
  0
LINE
  8
_1-3_細線3
  6
CONTINUOUS
 62
    4
 10
1188.5511074572214
 20
240.84247738216686
 11
1188.5511074572214
 21
244.04247738216668
  0
LINE
  8
_1-3_細線3
  6
CONTINUOUS
 62
    4
 10
1151.2177741238879
 20
244.04247738216668
 11
1129.8844407905526
 21
244.04247738216668
  0
LINE
  8
_1-3_細線3
  6
CONTINUOUS
 62
    4
 10
1129.8844407905526
 20
244.04247738216668
 11
1129.8844407905526
 21
240.84247738216686
  0
LINE
  8
_1-3_細線3
  6
CONTINUOUS
 62
    4
 10
1129.8844407905526
 20
240.84247738216686
 11
1138.9511074572215
 21
240.84247738216686
  0
LINE
  8
_1-3_細線3
  6
CONTINUOUS
 62
    4
 10
1138.9511074572215
 20
240.84247738216686
 11
1138.9511074572215
 21
204.04247738216668
  0
LINE
  8
_1-3_細線3
  6
CONTINUOUS
 62
    4
 10
1138.9511074572215
 20
204.04247738216668
 11
1142.1511074572222
 21
204.04247738216668
  0
LINE
  8
_1-3_細線3
  6
CONTINUOUS
 62
    4
 10
1142.1511074572222
 20
204.04247738216668
 11
1142.1511074572222
 21
240.84247738216686
  0
LINE
  8
_1-3_細線3
  6
CONTINUOUS
 62
    4
 10
1142.1511074572222
 20
240.84247738216686
 11
1151.2177741238879
 21
240.84247738216686
  0
LINE
  8
_1-3_細線3
  6
CONTINUOUS
 62
    4
 10
1151.2177741238879
 20
240.84247738216686
 11
1151.2177741238879
 21
244.04247738216668
  0
LINE
  8
_1-3_細線3
  6
CONTINUOUS
 62
    4
 10
1113.8844407905526
 20
244.04247738216668
 11
1092.55110745722
 21
244.04247738216668
  0
LINE
  8
_1-3_細線3
  6
CONTINUOUS
 62
    4
 10
1092.55110745722
 20
244.04247738216668
 11
1092.55110745722
 21
240.84247738216686
  0
LINE
  8
_1-3_細線3
  6
CONTINUOUS
 62
    4
 10
1092.55110745722
 20
240.84247738216686
 11
1101.6177741238871
 21
240.84247738216686
  0
LINE
  8
_1-3_細線3
  6
CONTINUOUS
 62
    4
 10
1101.6177741238871
 20
240.84247738216686
 11
1101.6177741238871
 21
204.04247738216668
  0
LINE
  8
_1-3_細線3
  6
CONTINUOUS
 62
    4
 10
1101.6177741238871
 20
204.04247738216668
 11
1104.8177741238869
 21
204.04247738216668
  0
LINE
  8
_1-3_細線3
  6
CONTINUOUS
 62
    4
 10
1104.8177741238869
 20
204.04247738216668
 11
1104.8177741238869
 21
240.84247738216686
  0
LINE
  8
_1-3_細線3
  6
CONTINUOUS
 62
    4
 10
1104.8177741238869
 20
240.84247738216686
 11
1113.8844407905526
 21
240.84247738216686
  0
LINE
  8
_1-3_細線3
  6
CONTINUOUS
 62
    4
 10
1113.8844407905526
 20
240.84247738216686
 11
1113.8844407905526
 21
244.04247738216668
  0
LINE
  8
_1-3_細線3
  6
CONTINUOUS
 62
    4
 10
1076.55110745722
 20
244.04247738216668
 11
1055.2177741238879
 21
244.04247738216668
  0
LINE
  8
_1-3_細線3
  6
CONTINUOUS
 62
    4
 10
1055.2177741238879
 20
244.04247738216668
 11
1055.2177741238879
 21
240.84247738216686
  0
LINE
  8
_1-3_細線3
  6
CONTINUOUS
 62
    4
 10
1055.2177741238879
 20
240.84247738216686
 11
1064.2844407905536
 21
240.84247738216686
  0
LINE
  8
_1-3_細線3
  6
CONTINUOUS
 62
    4
 10
1064.2844407905536
 20
240.84247738216686
 11
1064.2844407905536
 21
204.04247738216668
  0
LINE
  8
_1-3_細線3
  6
CONTINUOUS
 62
    4
 10
1064.2844407905536
 20
204.04247738216668
 11
1067.484440790553
 21
204.04247738216668
  0
LINE
  8
_1-3_細線3
  6
CONTINUOUS
 62
    4
 10
1067.484440790553
 20
204.04247738216668
 11
1067.484440790553
 21
240.84247738216686
  0
LINE
  8
_1-3_細線3
  6
CONTINUOUS
 62
    4
 10
1067.484440790553
 20
240.84247738216686
 11
1076.55110745722
 21
240.84247738216686
  0
LINE
  8
_1-3_細線3
  6
CONTINUOUS
 62
    4
 10
1076.55110745722
 20
240.84247738216686
 11
1076.55110745722
 21
244.04247738216668
  0
LINE
  8
_1-3_細線3
  6
CONTINUOUS
 62
    4
 10
1039.2177741238879
 20
244.04247738216668
 11
1017.8844407905526
 21
244.04247738216668
  0
LINE
  8
_1-3_細線3
  6
CONTINUOUS
 62
    4
 10
1017.8844407905526
 20
244.04247738216668
 11
1017.8844407905526
 21
240.84247738216686
  0
LINE
  8
_1-3_細線3
  6
CONTINUOUS
 62
    4
 10
1017.8844407905526
 20
240.84247738216686
 11
1026.9511074572215
 21
240.84247738216686
  0
LINE
  8
_1-3_細線3
  6
CONTINUOUS
 62
    4
 10
1026.9511074572215
 20
240.84247738216686
 11
1026.9511074572215
 21
204.04247738216668
  0
LINE
  8
_1-3_細線3
  6
CONTINUOUS
 62
    4
 10
1026.9511074572215
 20
204.04247738216668
 11
1030.1511074572222
 21
204.04247738216668
  0
LINE
  8
_1-3_細線3
  6
CONTINUOUS
 62
    4
 10
1030.1511074572222
 20
204.04247738216668
 11
1030.1511074572222
 21
240.84247738216686
  0
LINE
  8
_1-3_細線3
  6
CONTINUOUS
 62
    4
 10
1030.1511074572222
 20
240.84247738216686
 11
1039.2177741238879
 21
240.84247738216686
  0
LINE
  8
_1-3_細線3
  6
CONTINUOUS
 62
    4
 10
1039.2177741238879
 20
240.84247738216686
 11
1039.2177741238879
 21
244.04247738216668
  0
LINE
  8
_1-2_極細3
  6
CENTER1
 62
    2
 10
1159.2177741238856
 20
178.14515020544764
 11
1159.2177741238856
 21
266.33181687212414
  0
LINE
  8
_1-2_極細3
  6
CENTER1
 62
    2
 10
1330.2405731978047
 20
222.70914404883456
 11
986.95735598717511
 21
222.70914404883456
  0
LINE
  8
_1-5_寸法3
  6
CONTINUOUS
 62
    7
 10
967.21777412388565
 20
262.17581071550092
 11
967.21777412388565
 21
446.17581071550092
  0
LINE
  8
_1-5_寸法3
  6
CONTINUOUS
 62
    7
 10
967.21777412388565
 20
438.17581071550092
 11
982.6725873445107
 21
442.31691543714123
  0
LINE
  8
_1-5_寸法3
  6
CONTINUOUS
 62
    7
 10
967.21777412388565
 20
438.17581071550092
 11
982.6725873445107
 21
434.0347059938606
  0
LINE
  8
_1-5_寸法3
  6
CONTINUOUS
 62
    7
 10
1351.2177741238856
 20
262.17581071550092
 11
1351.2177741238863
 21
446.17581071550092
  0
LINE
  8
_1-5_寸法3
  6
CONTINUOUS
 62
    7
 10
1351.2177741238863
 20
438.17581071550092
 11
1335.7629609032613
 21
434.03470599386065
  0
LINE
  8
_1-5_寸法3
  6
CONTINUOUS
 62
    7
 10
1351.2177741238863
 20
438.17581071550092
 11
1335.7629609032613
 21
442.31691543714129
  0
LINE
  8
_1-5_寸法3
  6
CONTINUOUS
 62
    7
 10
967.21777412388565
 20
438.17581071550092
 11
1351.2177741238863
 21
438.17581071550092
  0
TEXT
  8
_1-5_寸法3
 62
    7
 10
1141.2177741238861
 20
438.17581071550092
 40
24
 41
1
 50
0
  1
144
  0
LINE
  8
_1-5_寸法3
  6
CONTINUOUS
 62
    7
 10
996.55110745721879
 20
262.17581071550092
 11
996.55110745721936
 21
390.17581071550092
  0
LINE
  8
_1-5_寸法3
  6
CONTINUOUS
 62
    7
 10
996.55110745721936
 20
382.17581071550092
 11
1012.0059206778444
 21
386.31691543714123
  0
LINE
  8
_1-5_寸法3
  6
CONTINUOUS
 62
    7
 10
996.55110745721936
 20
382.17581071550092
 11
1012.0059206778444
 21
378.0347059938606
  0
LINE
  8
_1-5_寸法3
  6
CONTINUOUS
 62
    7
 10
1321.8844407905526
 20
262.17581071550092
 11
1321.8844407905526
 21
390.17581071550092
  0
LINE
  8
_1-5_寸法3
  6
CONTINUOUS
 62
    7
 10
1321.8844407905526
 20
382.17581071550092
 11
1306.4296275699276
 21
378.03470599386065
  0
LINE
  8
_1-5_寸法3
  6
CONTINUOUS
 62
    7
 10
1321.8844407905526
 20
382.17581071550092
 11
1306.4296275699276
 21
386.31691543714129
  0
LINE
  8
_1-5_寸法3
  6
CONTINUOUS
 62
    7
 10
996.55110745721936
 20
382.17581071550092
 11
1321.8844407905526
 21
382.17581071550092
  0
TEXT
  8
_1-5_寸法3
 62
    7
 10
1141.2177741238859
 20
382.17581071550092
 40
24
 41
1
 50
0
  1
122
  0
LINE
  8
_1-5_寸法3
  6
CONTINUOUS
 62
    7
 10
1325.8844407905526
 20
262.17581071550092
 11
1325.8844407905528
 21
390.17581071550092
  0
LINE
  8
_1-5_寸法3
  6
CONTINUOUS
 62
    7
 10
1325.8844407905528
 20
382.17581071550092
 11
1341.3392540111779
 21
386.31691543714123
  0
LINE
  8
_1-5_寸法3
  6
CONTINUOUS
 62
    7
 10
1325.8844407905528
 20
382.17581071550092
 11
1341.3392540111779
 21
378.0347059938606
  0
LINE
  8
_1-5_寸法3
  6
CONTINUOUS
 62
    7
 10
1351.2177741238856
 20
262.17581071550092
 11
1351.2177741238859
 21
390.17581071550092
  0
LINE
  8
_1-5_寸法3
  6
CONTINUOUS
 62
    7
 10
1351.2177741238859
 20
382.17581071550092
 11
1335.7629609032608
 21
378.03470599386065
  0
LINE
  8
_1-5_寸法3
  6
CONTINUOUS
 62
    7
 10
1351.2177741238859
 20
382.17581071550092
 11
1335.7629609032608
 21
386.31691543714129
  0
LINE
  8
_1-5_寸法3
  6
CONTINUOUS
 62
    7
 10
1325.8844407905528
 20
382.17581071550092
 11
1351.2177741238859
 21
382.17581071550092
  0
TEXT
  8
_1-5_寸法3
 62
    7
 10
1314.9098928411368
 20
382.17581071550092
 40
24
 41
1
 50
0
  1
9.5
  0
LINE
  8
_1-5_寸法3
  6
CONTINUOUS
 62
    7
 10
967.21777412388565
 20
262.17581071550092
 11
967.21777412388587
 21
390.17581071550092
  0
LINE
  8
_1-5_寸法3
  6
CONTINUOUS
 62
    7
 10
967.21777412388587
 20
382.17581071550092
 11
982.67258734451093
 21
386.31691543714123
  0
LINE
  8
_1-5_寸法3
  6
CONTINUOUS
 62
    7
 10
967.21777412388587
 20
382.17581071550092
 11
982.67258734451093
 21
378.0347059938606
  0
LINE
  8
_1-5_寸法3
  6
CONTINUOUS
 62
    7
 10
992.55110745721868
 20
262.17581071550092
 11
992.5511074572189
 21
390.17581071550092
  0
LINE
  8
_1-5_寸法3
  6
CONTINUOUS
 62
    7
 10
992.5511074572189
 20
382.17581071550092
 11
977.09629423659385
 21
378.03470599386065
  0
LINE
  8
_1-5_寸法3
  6
CONTINUOUS
 62
    7
 10
992.5511074572189
 20
382.17581071550092
 11
977.09629423659385
 21
386.31691543714129
  0
LINE
  8
_1-5_寸法3
  6
CONTINUOUS
 62
    7
 10
967.21777412388587
 20
382.17581071550092
 11
992.5511074572189
 21
382.17581071550092
  0
TEXT
  8
_1-5_寸法3
 62
    7
 10
968.36383082752889
 20
382.1758107155008
 40
24
 41
1
 50
0
  1
9.5
  0
LINE
  8
_1-5_寸法3
  6
CONTINUOUS
 62
    7
 10
1113.8844407905528
 20
260.04247738216668
 11
1113.8844407905533
 21
334.17581071550092
  0
LINE
  8
_1-5_寸法3
  6
CONTINUOUS
 62
    7
 10
1113.8844407905533
 20
326.17581071550092
 11
1098.4296275699282
 21
322.0347059938606
  0
LINE
  8
_1-5_寸法3
  6
CONTINUOUS
 62
    7
 10
1113.8844407905533
 20
326.17581071550092
 11
1098.4296275699282
 21
330.31691543714129
  0
LINE
  8
_1-5_寸法3
  6
CONTINUOUS
 62
    7
 10
1129.8844407905528
 20
260.04247738216668
 11
1129.8844407905533
 21
334.17581071550092
  0
LINE
  8
_1-5_寸法3
  6
CONTINUOUS
 62
    7
 10
1073.8844407905533
 20
326.17581071550092
 11
1129.8844407905533
 21
326.17581071550092
  0
TEXT
  8
_1-5_寸法3
 62
    7
 10
1084.4516783534557
 20
326.17581071550092
 40
24
 41
1
 50
0
  1
6
  0
LINE
  8
_1-5_寸法3
  6
CONTINUOUS
 62
    7
 10
1129.8844407905533
 20
326.17581071550092
 11
1145.3392540111784
 21
330.31691543714112
  0
LINE
  8
_1-5_寸法3
  6
CONTINUOUS
 62
    7
 10
1129.8844407905533
 20
326.17581071550092
 11
1145.3392540111784
 21
322.03470599386048
  0
LINE
  8
_1-5_寸法3
  6
CONTINUOUS
 62
    7
 10
1151.2177741238879
 20
260.04247738216668
 11
1151.2177741238879
 21
334.17581071550092
  0
LINE
  8
_1-5_寸法3
  6
CONTINUOUS
 62
    7
 10
1151.2177741238879
 20
326.17581071550092
 11
1135.7629609032629
 21
322.0347059938606
  0
LINE
  8
_1-5_寸法3
  6
CONTINUOUS
 62
    7
 10
1151.2177741238879
 20
326.17581071550092
 11
1135.7629609032629
 21
330.31691543714129
  0
LINE
  8
_1-5_寸法3
  6
CONTINUOUS
 62
    7
 10
1129.8844407905533
 20
326.17581071550092
 11
1151.2177741238879
 21
326.17581071550092
  0
TEXT
  8
_1-5_寸法3
 62
    7
 10
1134.5511074572207
 20
326.17581071550092
 40
24
 41
1
 50
0
  1
8
  0
LINE
  8
_1-5_寸法3
  6
CONTINUOUS
 62
    7
 10
1367.2177741238856
 20
246.17581071550069
 11
1439.2177741238854
 21
246.17581071550001
  0
LINE
  8
_1-5_寸法3
  6
CONTINUOUS
 62
    7
 10
1431.2177741238854
 20
246.17581071550012
 11
1435.3588788455259
 21
230.72099749487495
  0
LINE
  8
_1-5_寸法3
  6
CONTINUOUS
 62
    7
 10
1431.2177741238854
 20
246.17581071550012
 11
1427.0766694022452
 21
230.72099749487495
  0
LINE
  8
_1-5_寸法3
  6
CONTINUOUS
 62
    7
 10
1367.2177741238856
 20
224.84247738216709
 11
1439.2177741238854
 21
224.84247738216641
  0
LINE
  8
_1-5_寸法3
  6
CONTINUOUS
 62
    7
 10
1431.2177741238854
 20
224.84247738216641
 11
1427.0766694022452
 21
240.29729060279158
  0
LINE
  8
_1-5_寸法3
  6
CONTINUOUS
 62
    7
 10
1431.2177741238854
 20
224.84247738216641
 11
1435.3588788455259
 21
240.29729060279146
  0
LINE
  8
_1-5_寸法3
  6
CONTINUOUS
 62
    7
 10
1431.2177741238854
 20
246.17581071550012
 11
1431.2177741238854
 21
224.84247738216641
  0
TEXT
  8
_1-5_寸法3
 62
    7
 10
1431.2177741238854
 20
229.50914404883326
 40
24
 41
1
 50
90
  1
8
  0
LINE
  8
_1-5_寸法3
  6
CONTINUOUS
 62
    7
 10
951.21777412388565
 20
246.17581071550092
 11
879.21777412388565
 21
246.17581071550126
  0
LINE
  8
_1-5_寸法3
  6
CONTINUOUS
 62
    7
 10
887.21777412388565
 20
246.17581071550114
 11
891.35887884552596
 21
230.72099749487609
  0
LINE
  8
_1-5_寸法3
  6
CONTINUOUS
 62
    7
 10
887.21777412388565
 20
246.17581071550114
 11
883.07666940224533
 21
230.72099749487609
  0
LINE
  8
_1-5_寸法3
  6
CONTINUOUS
 62
    7
 10
974.68444079055325
 20
188.84247738216754
 11
879.21777412388565
 21
188.84247738216777
  0
LINE
  8
_1-5_寸法3
  6
CONTINUOUS
 62
    7
 10
887.21777412388565
 20
188.84247738216777
 11
883.07666940224533
 21
204.29729060279283
  0
LINE
  8
_1-5_寸法3
  6
CONTINUOUS
 62
    7
 10
887.21777412388565
 20
188.84247738216777
 11
891.35887884552596
 21
204.29729060279294
  0
LINE
  8
_1-5_寸法3
  6
CONTINUOUS
 62
    7
 10
887.21777412388565
 20
246.17581071550114
 11
887.21777412388565
 21
188.84247738216777
  0
TEXT
  8
_1-5_寸法3
 62
    7
 10
887.21777412388565
 20
193.50914404883451
 40
24
 41
1
 50
90
  1
21.5
  0
LINE
  8
_0-a_極細1
  6
CONTINUOUS
 62
    7
 10
1861.2703120523061
 20
506.47284620872313
 11
1866.6504800691332
 21
511.85301422554892
  0
LINE
  8
_0-a_極細1
  6
CONTINUOUS
 62
    7
 10
1860.9696048378178
 20
494.8584304952509
 11
1877.9641885681162
 21
511.85301422554892
  0
LINE
  8
_0-a_極細1
  6
CONTINUOUS
 62
    7
 10
1853.552330132487
 20
476.12744729093481
 11
1889.2778970671029
 21
511.85301422554892
  0
LINE
  8
_0-a_極細1
  6
CONTINUOUS
 62
    7
 10
1850.6916037671749
 20
461.95301242663697
 11
1900.5916055660859
 21
511.85301422554892
  0
LINE
  8
_0-a_極細1
  6
CONTINUOUS
 62
    7
 10
1851.7895747486295
 20
451.73727490910721
 11
1911.9053140650726
 21
511.85301422554892
  0
LINE
  8
_0-a_極細1
  6
CONTINUOUS
 62
    7
 10
1859.2190225640556
 20
447.85301422554846
 11
1923.2190225640556
 21
511.85301422554892
  0
LINE
  8
_0-a_極細1
  6
CONTINUOUS
 62
    7
 10
1870.5327310630405
 20
447.85301422554846
 11
1934.5327310630405
 21
511.85301422554846
  0
LINE
  8
_0-a_極細1
  6
CONTINUOUS
 62
    7
 10
1881.8464395620254
 20
447.85301422554846
 11
1945.8464395620254
 21
511.85301422554846
  0
LINE
  8
_0-a_極細1
  6
CONTINUOUS
 62
    7
 10
1893.1601480610102
 20
447.85301422554846
 11
1957.1601480610102
 21
511.85301422554846
  0
LINE
  8
_0-a_極細1
  6
CONTINUOUS
 62
    7
 10
1904.4738565599951
 20
447.85301422554846
 11
1968.4738565599951
 21
511.85301422554846
  0
LINE
  8
_0-a_極細1
  6
CONTINUOUS
 62
    7
 10
1915.7875650589799
 20
447.85301422554846
 11
1979.7875650589799
 21
511.85301422554846
  0
LINE
  8
_0-a_極細1
  6
CONTINUOUS
 62
    7
 10
1927.1012735579648
 20
447.85301422554846
 11
1991.1012735579648
 21
511.85301422554846
  0
LINE
  8
_0-a_極細1
  6
CONTINUOUS
 62
    7
 10
1938.4149820569496
 20
447.85301422554846
 11
2002.4149820569496
 21
511.85301422554846
  0
LINE
  8
_0-a_極細1
  6
CONTINUOUS
 62
    7
 10
1949.7286905559345
 20
447.85301422554846
 11
2013.7286905559345
 21
511.85301422554846
  0
LINE
  8
_0-a_極細1
  6
CONTINUOUS
 62
    7
 10
1961.0423990549193
 20
447.85301422554846
 11
2025.0423990549193
 21
511.85301422554846
  0
LINE
  8
_0-a_極細1
  6
CONTINUOUS
 62
    7
 10
1972.3561075539042
 20
447.85301422554846
 11
2036.3561075539042
 21
511.85301422554846
  0
LINE
  8
_0-a_極細1
  6
CONTINUOUS
 62
    7
 10
1983.669816052889
 20
447.85301422554846
 11
2047.669816052889
 21
511.85301422554846
  0
LINE
  8
_0-a_極細1
  6
CONTINUOUS
 62
    7
 10
1994.9835245518739
 20
447.85301422554846
 11
2058.9835245518739
 21
511.85301422554846
  0
LINE
  8
_0-a_極細1
  6
CONTINUOUS
 62
    7
 10
2006.2972330508587
 20
447.85301422554846
 11
2066.9454844572942
 21
508.50126563198398
  0
LINE
  8
_0-a_極細1
  6
CONTINUOUS
 62
    7
 10
2017.6109415498436
 20
447.85301422554846
 11
2067.3053995776886
 21
497.54747225339349
  0
LINE
  8
_0-a_極細1
  6
CONTINUOUS
 62
    7
 10
2028.9246500488284
 20
447.85301422554846
 11
2061.5618459705734
 21
480.49021014729249
  0
LINE
  8
_0-a_極細1
  6
CONTINUOUS
 62
    7
 10
2040.2383585478133
 20
447.85301422554846
 11
2056.7815268036907
 21
464.39618248142585
  0
LINE
  8
_0-a_極細1
  6
CONTINUOUS
 62
    7
 10
2051.5520670467981
 20
447.85301422554846
 11
2057.3493561217988
 21
453.65030330054913
  0
LINE
  8
_0-a_極細1
  6
CONTINUOUS
 62
    7
 10
2062.865775545783
 20
511.85301422554846
 11
2067.082988598168
 21
507.63580117316531
  0
LINE
  8
_0-a_極細1
  6
CONTINUOUS
 62
    7
 10
2051.5520670467999
 20
511.85301422554846
 11
2067.1510948595919
 21
496.25398641275558
  0
LINE
  8
_0-a_極細1
  6
CONTINUOUS
 62
    7
 10
2040.2383585478133
 20
511.85301422554846
 11
2064.8519186586823
 21
487.23945411468037
  0
LINE
  8
_0-a_極細1
  6
CONTINUOUS
 62
    7
 10
2028.9246500488302
 20
511.85301422554846
 11
2061.1216390601007
 21
479.65602521427707
  0
LINE
  8
_0-a_極細1
  6
CONTINUOUS
 62
    7
 10
2017.6109415498436
 20
511.85301422554846
 11
2057.9886622894051
 21
471.47529348598835
  0
LINE
  8
_0-a_極細1
  6
CONTINUOUS
 62
    7
 10
2006.2972330508605
 20
511.85301422554846
 11
2056.6525185917058
 21
461.49772868470325
  0
LINE
  8
_0-a_極細1
  6
CONTINUOUS
 62
    7
 10
1994.9835245518757
 20
511.85301422554846
 11
2058.8417850217361
 21
447.9947537556867
  0
LINE
  8
_0-a_極細1
  6
CONTINUOUS
 62
    7
 10
1983.6698160528908
 20
511.85301422554846
 11
2047.6698160528908
 21
447.85301422554846
  0
LINE
  8
_0-a_極細1
  6
CONTINUOUS
 62
    7
 10
1972.356107553906
 20
511.85301422554846
 11
2036.3561075539042
 21
447.85301422554846
  0
LINE
  8
_0-a_極細1
  6
CONTINUOUS
 62
    7
 10
1961.0423990549211
 20
511.85301422554846
 11
2025.0423990549211
 21
447.85301422554846
  0
LINE
  8
_0-a_極細1
  6
CONTINUOUS
 62
    7
 10
1949.7286905559363
 20
511.85301422554846
 11
2013.7286905559363
 21
447.85301422554846
  0
LINE
  8
_0-a_極細1
  6
CONTINUOUS
 62
    7
 10
1938.4149820569514
 20
511.85301422554846
 11
2002.4149820569514
 21
447.85301422554846
  0
LINE
  8
_0-a_極細1
  6
CONTINUOUS
 62
    7
 10
1927.1012735579666
 20
511.85301422554846
 11
1991.1012735579666
 21
447.85301422554846
  0
LINE
  8
_0-a_極細1
  6
CONTINUOUS
 62
    7
 10
1915.7875650589817
 20
511.85301422554892
 11
1979.7875650589817
 21
447.85301422554846
  0
LINE
  8
_0-a_極細1
  6
CONTINUOUS
 62
    7
 10
1904.4738565599969
 20
511.85301422554892
 11
1968.4738565599969
 21
447.85301422554846
  0
LINE
  8
_0-a_極細1
  6
CONTINUOUS
 62
    7
 10
1893.160148061012
 20
511.85301422554892
 11
1957.160148061012
 21
447.85301422554846
  0
LINE
  8
_0-a_極細1
  6
CONTINUOUS
 62
    7
 10
1881.8464395620272
 20
511.85301422554892
 11
1945.8464395620272
 21
447.85301422554846
  0
LINE
  8
_0-a_極細1
  6
CONTINUOUS
 62
    7
 10
1870.5327310630423
 20
511.85301422554892
 11
1934.5327310630423
 21
447.85301422554846
  0
LINE
  8
_0-a_極細1
  6
CONTINUOUS
 62
    7
 10
1860.5905541493926
 20
510.48148264021563
 11
1923.2190225640575
 21
447.85301422554846
  0
LINE
  8
_0-a_極細1
  6
CONTINUOUS
 62
    7
 10
1861.412275602594
 20
498.34605268802795
 11
1911.9053140650726
 21
447.85301422554846
  0
LINE
  8
_0-a_極細1
  6
CONTINUOUS
 62
    7
 10
1859.4941192787123
 20
488.95050051292571
 11
1900.5916055660896
 21
447.85301422554846
  0
LINE
  8
_0-a_極細1
  6
CONTINUOUS
 62
    7
 10
1855.9678507433514
 20
481.16306054930089
 11
1889.2778970671029
 21
447.85301422554846
  0
LINE
  8
_0-a_極細1
  6
CONTINUOUS
 62
    7
 10
1852.5405020178828
 20
473.27670077578466
 11
1877.9641885681199
 21
447.85301422554846
  0
LINE
  8
_0-a_極細1
  6
CONTINUOUS
 62
    7
 10
1850.7664793626977
 20
463.73701493198485
 11
1866.6504800691332
 21
447.85301422554846
  0
LINE
  8
_0-a_極細1
  6
CONTINUOUS
 62
    7
 10
1851.8986157930017
 20
451.29117000269696
 11
1855.3367715701502
 21
447.85301422554846
  0
ARC
  8
_0-a_極細1
  6
CONTINUOUS
 62
    7
 10
2026.9590005539962
 20
501.70459695909528
 40
40.559999999972042
 50
329.9999999999639
 51
30.000000000012992
  0
ARC
  8
_0-a_極細1
  6
CONTINUOUS
 62
    7
 10
2097.210981308845
 20
461.14459695910853
 40
40.559999999917657
 50
149.99999999994796
 51
210.00000000010346
  0
ARC
  8
_0-a_極細1
  6
CONTINUOUS
 62
    7
 10
1820.9915658070327
 20
501.70459695909528
 40
40.559999999972042
 50
329.99999999996328
 51
30.000000000012331
  0
ARC
  8
_0-a_極細1
  6
CONTINUOUS
 62
    7
 10
1891.2435465618805
 20
461.14459695910853
 40
40.559999999917657
 50
149.99999999994796
 51
210.00000000010346
  0
LINE
  8
_0-b_細線1
  6
CONTINUOUS
 62
    7
 10
2058.8906547388619
 20
447.85301422554846
 11
1852.9232199918974
 21
447.85301422554846
  0
LINE
  8
_0-b_細線1
  6
CONTINUOUS
 62
    7
 10
1860.2614426464593
 20
511.85301422554846
 11
2066.2288773934238
 21
511.85301422554846
  0
LINE
  8
_0-d_寸法1
  6
CONTINUOUS
 62
    7
 10
1838.2423657196746
 20
447.85301422554852
 11
1761.0680941353717
 21
447.85301422554846
  0
LINE
  8
_0-d_寸法1
  6
CONTINUOUS
 62
    7
 10
1769.0680941353717
 20
447.85301422554846
 11
1764.9269894137315
 21
463.30782744617358
  0
LINE
  8
_0-d_寸法1
  6
CONTINUOUS
 62
    7
 10
1769.0680941353717
 20
447.85301422554846
 11
1773.2091988570121
 21
463.30782744617358
  0
LINE
  8
_0-d_寸法1
  6
CONTINUOUS
 62
    7
 10
1844.2614426464575
 20
511.85301422554852
 11
1761.0680941353717
 21
511.85301422554846
  0
LINE
  8
_0-d_寸法1
  6
CONTINUOUS
 62
    7
 10
1769.0680941353717
 20
511.85301422554846
 11
1773.2091988570121
 21
496.39820100492335
  0
LINE
  8
_0-d_寸法1
  6
CONTINUOUS
 62
    7
 10
1769.0680941353717
 20
511.85301422554846
 11
1764.9269894137315
 21
496.39820100492335
  0
LINE
  8
_0-d_寸法1
  6
CONTINUOUS
 62
    7
 10
1769.0680941353717
 20
447.85301422554846
 11
1769.0680941353717
 21
511.85301422554846
  0
TEXT
  8
_0-d_寸法1
 62
    7
 10
1769.0680941353717
 20
473.85301422554846
 40
24
 41
1
 50
90
  1
8
  0
TEXT
  8
_0-7_枠細線
 62
    5
 10
1914.6349561496336
 20
401.33201984568689
 40
28.000000000000004
 41
0.8000000000000001
 50
0
  1
表面形状
  0
TEXT
  8
_0-7_枠細線
 62
    5
 10
1536.8000000000002
 20
239.24855752183862
 40
32
 41
0.5
 50
0
  1
排水ユニット ＳＵＳグレーチング Ｔバー 浅型
  0
TEXT
  8
_0-7_枠細線
 62
    5
 10
2096
 20
108
 40
24
 41
0.6666666666666666
 50
0
  1
２０１９年０４月０１日
  0
ARC
  8
_0-e_極細4
  6
CONTINUOUS
 62
    6
 10
325.47163026332566
 20
476.01908653597235
 40
1
 50
179.99999999999983
 51
269.99999999999977
  0
LINE
  8
_0-e_極細4
  6
CONTINUOUS
 62
    6
 10
326.67163026332548
 20
475.01908653597235
 11
326.67163026332548
 21
477.01908653597235
  0
ARC
  8
_0-e_極細4
  6
CONTINUOUS
 62
    6
 10
500.67163026332503
 20
476.01908653597235
 40
1
 50
269.99999999999977
 51
359.99999999999966
  0
LINE
  8
_0-e_極細4
  6
CONTINUOUS
 62
    6
 10
499.47163026332544
 20
475.01908653597235
 11
499.47163026332544
 21
477.01908653597235
  0
LINE
  8
_0-e_極細4
  6
CONTINUOUS
 62
    6
 10
359.0716302633258
 20
329.02061109596497
 11
359.0716302633258
 21
446.9691365359725
  0
ARC
  8
_0-e_極細4
  6
CONTINUOUS
 62
    6
 10
361.07163026332512
 20
329.02061109596497
 40
2
 50
179.99999999999983
 51
270.00045836623457
  0
LINE
  8
_0-e_極細4
  6
CONTINUOUS
 62
    6
 10
361.07163026332512
 20
327.0206110959648
 11
413.0716302633258
 21
327.0206110959648
  0
LINE
  8
_0-e_極細4
  6
CONTINUOUS
 62
    6
 10
334.5716302633258
 20
316.60492509596497
 11
334.5716302633258
 21
370.60492509596492
  0
LINE
  8
_0-e_極細4
  6
CONTINUOUS
 62
    6
 10
358.5716302633258
 20
292.60492509596497
 11
363.0716302633258
 21
292.60492509596497
  0
ARC
  8
_0-e_極細4
  6
CONTINUOUS
 62
    6
 10
358.5716302633258
 20
316.60492509596497
 40
24
 50
179.99999999999983
 51
269.99999999999977
  0
LINE
  8
_0-e_極細4
  6
CONTINUOUS
 62
    6
 10
317.0716302633258
 20
390.44805909596488
 11
317.0716302633258
 21
444.60495853597234
  0
LINE
  8
_0-e_極細4
  6
CONTINUOUS
 62
    6
 10
413.0716302633258
 20
292.60492509596497
 11
411.20956226332567
 21
292.60492509596497
  0
LINE
  8
_0-e_極細4
  6
CONTINUOUS
 62
    6
 10
411.20956226332567
 20
292.60492509596497
 11
358.5716302633258
 21
292.60492509596497
  0
LINE
  8
_0-e_極細4
  6
CONTINUOUS
 62
    6
 10
334.5716302633258
 20
316.60492509596497
 11
334.5716302633258
 21
432.20495853597248
  0
LINE
  8
_0-e_極細4
  6
CONTINUOUS
 62
    6
 10
338.5716302633258
 20
316.60492509596497
 11
338.5716302633258
 21
432.20495853597248
  0
LINE
  8
_0-e_極細4
  6
CONTINUOUS
 62
    6
 10
413.0716302633258
 20
296.60492509596509
 11
358.5716302633258
 21
296.60492509596509
  0
ARC
  8
_0-e_極細4
  6
CONTINUOUS
 62
    6
 10
358.5716302633258
 20
316.60492509596497
 40
20
 50
179.99999999999983
 51
269.99999999999977
  0
LINE
  8
_0-e_極細4
  6
CONTINUOUS
 62
    6
 10
332.57163026332512
 20
461.02064453597239
 11
413.0716302633258
 21
461.02064453597239
  0
LINE
  8
_0-e_極細4
  6
CONTINUOUS
 62
    6
 10
332.57163026332512
 20
452.22064453597244
 11
332.57163026332512
 21
461.02064453597239
  0
LINE
  8
_0-e_極細4
  6
CONTINUOUS
 62
    6
 10
326.0716302633258
 20
461.02064453597217
 11
332.57163026332512
 21
461.02064453597217
  0
LINE
  8
_0-e_極細4
  6
CONTINUOUS
 62
    6
 10
328.0716302633258
 20
452.22064453597244
 11
332.57163026332512
 21
452.22064453597244
  0
LINE
  8
_0-e_極細4
  6
CONTINUOUS
 62
    6
 10
328.0716302633258
 20
450.22064453597244
 11
328.0716302633258
 21
452.22064453597244
  0
ARC
  8
_0-e_極細4
  6
CONTINUOUS
 62
    6
 10
332.0716302633258
 20
450.22064453597244
 40
4
 50
179.99999999999983
 51
269.99999999999977
  0
LINE
  8
_0-e_極細4
  6
CONTINUOUS
 62
    6
 10
332.0716302633258
 20
446.22064453597267
 11
338.0716302633258
 21
446.22064453597267
  0
ARC
  8
_0-e_極細4
  6
CONTINUOUS
 62
    6
 10
313.11363026332549
 20
483.51908653597235
 40
2.1000000000000227
 50
4.150990000002146
 51
89.999999999999915
  0
LINE
  8
_0-e_極細4
  6
CONTINUOUS
 62
    6
 10
313.11363026332549
 20
454.97708653597232
 11
313.11363026332549
 21
485.61908653597249
  0
LINE
  8
_0-e_極細4
  6
CONTINUOUS
 62
    6
 10
313.11363026332549
 20
485.6049574434706
 11
299.27163026332562
 21
487.57647253597219
  0
LINE
  8
_0-e_極細4
  6
CONTINUOUS
 62
    6
 10
307.0716302633258
 20
440.20495853597214
 11
307.0716302633258
 21
456.20495853597225
  0
ARC
  8
_0-e_極細4
  6
CONTINUOUS
 62
    6
 10
302.0716302633258
 20
431.54470453597258
 40
10
 50
0
 51
59.99999999999946
  0
LINE
  8
_0-e_極細4
  6
CONTINUOUS
 62
    6
 10
299.27163026332562
 20
456.20495853597225
 11
299.27163026332562
 21
457.31544053597253
  0
LINE
  8
_0-e_極細4
  6
CONTINUOUS
 62
    6
 10
307.0716302633258
 20
456.20495853597225
 11
299.27163026332562
 21
456.20495853597225
  0
LINE
  8
_0-e_極細4
  6
CONTINUOUS
 62
    6
 10
299.27163026332562
 20
457.31544053597253
 11
299.27163026332562
 21
488.96211453597249
  0
LINE
  8
_0-e_極細4
  6
CONTINUOUS
 62
    6
 10
316.0716302633258
 20
446.20495853597214
 11
316.0716302633258
 21
452.01908653597212
  0
LINE
  8
_0-e_極細4
  6
CONTINUOUS
 62
    6
 10
313.11363026332549
 20
444.60495853597234
 11
316.0716302633258
 21
446.20495853597214
  0
LINE
  8
_0-e_極細4
  6
CONTINUOUS
 62
    6
 10
299.27163026332562
 20
484.20495853597237
 11
313.11363026332549
 21
482.60495853597246
  0
ARC
  8
_0-e_極細4
  6
CONTINUOUS
 62
    6
 10
336.5716302633258
 20
432.20495853597248
 40
2
 50
89.999999999999915
 51
179.99999999999983
  0
ARC
  8
_0-e_極細4
  6
CONTINUOUS
 62
    6
 10
336.5716302633258
 20
432.20495853597248
 40
2
 50
0
 51
89.999999999999915
  0
LINE
  8
_0-e_極細4
  6
CONTINUOUS
 62
    6
 10
413.07163026332512
 20
487.01908653597246
 11
313.11363026332549
 21
487.01908653597235
  0
LINE
  8
_0-e_極細4
  6
CONTINUOUS
 62
    6
 10
332.57163026332512
 20
460.01908653597224
 11
324.47163026332566
 21
460.01908653597224
  0
LINE
  8
_0-e_極細4
  6
CONTINUOUS
 62
    6
 10
318.58918226332537
 20
482.01908653597235
 11
320.97163026332566
 21
482.01908653597235
  0
LINE
  8
_0-e_極細4
  6
CONTINUOUS
 62
    6
 10
324.47163026332566
 20
457.41908653597255
 11
324.47163026332566
 21
478.51908653597235
  0
LINE
  8
_0-e_極細4
  6
CONTINUOUS
 62
    6
 10
320.07163026332512
 20
482.01908653597235
 11
320.07163026332512
 21
487.01908653597235
  0
ARC
  8
_0-e_極細4
  6
CONTINUOUS
 62
    6
 10
320.97163026332566
 20
478.51908653597235
 40
3.4999999999999996
 50
0
 51
89.999999999999915
  0
ARC
  8
_0-e_極細4
  6
CONTINUOUS
 62
    6
 10
313.11363026332549
 20
483.51908653597235
 40
3.4999999999999996
 50
4.1509899999988731
 51
89.999999999999915
  0
ARC
  8
_0-e_極細4
  6
CONTINUOUS
 62
    6
 10
318.58918226332537
 20
484.01908653597235
 40
2
 50
183.35088799999644
 51
269.99999999999977
  0
ARC
  8
_0-e_極細4
  6
CONTINUOUS
 62
    6
 10
318.58918226332537
 20
484.01908653597235
 40
3.3999999999999773
 50
183.35088800000065
 51
269.99999999999977
  0
LINE
  8
_0-e_極細4
  6
CONTINUOUS
 62
    6
 10
318.58918226332537
 20
480.61908653597249
 11
320.97163026332566
 21
480.61908653597249
  0
ARC
  8
_0-e_極細4
  6
CONTINUOUS
 62
    6
 10
320.97163026332566
 20
478.51908653597235
 40
2.1000000000000227
 50
0
 51
89.999999999999915
  0
LINE
  8
_0-e_極細4
  6
CONTINUOUS
 62
    6
 10
323.0716302633258
 20
456.01908653597224
 11
323.07163026332512
 21
478.51908653597235
  0
LINE
  8
_0-e_極細4
  6
CONTINUOUS
 62
    6
 10
313.11363026332549
 20
454.97708653597232
 11
316.0716302633258
 21
452.01908653597212
  0
LINE
  8
_0-e_極細4
  6
CONTINUOUS
 62
    6
 10
327.0716302633258
 20
448.01908653597224
 11
327.0716302633258
 21
460.01908653597224
  0
LINE
  8
_0-e_極細4
  6
CONTINUOUS
 62
    6
 10
327.0716302633258
 20
456.01908653597224
 11
323.0716302633258
 21
456.01908653597224
  0
LINE
  8
_0-e_極細4
  6
CONTINUOUS
 62
    6
 10
327.0716302633258
 20
457.41908653597255
 11
324.47163026332566
 21
457.41908653597255
  0
LINE
  8
_0-e_極細4
  6
CONTINUOUS
 62
    6
 10
328.73199826332564
 20
448.01908653597224
 11
327.0716302633258
 21
448.01908653597224
  0
LINE
  8
_0-e_極細4
  6
CONTINUOUS
 62
    6
 10
327.0716302633258
 20
452.01908653597212
 11
316.0716302633258
 21
452.01908653597212
  0
LINE
  8
_0-e_極細4
  6
CONTINUOUS
 62
    6
 10
353.49900426332567
 20
448.61908653597249
 11
343.49900426332567
 21
448.61908653597249
  0
LINE
  8
_0-e_極細4
  6
CONTINUOUS
 62
    6
 10
353.49900426332567
 20
448.61908653597249
 11
353.49900426332567
 21
452.01908653597212
  0
LINE
  8
_0-e_極細4
  6
CONTINUOUS
 62
    6
 10
343.49900426332567
 20
448.61908653597249
 11
343.49900426332567
 21
452.01908653597212
  0
LINE
  8
_0-e_極細4
  6
CONTINUOUS
 62
    6
 10
320.17163026332548
 20
482.41908653597244
 11
320.17163026332548
 21
485.01908653597235
  0
LINE
  8
_0-e_極細4
  6
CONTINUOUS
 62
    6
 10
413.07163026332512
 20
486.01908653597246
 11
321.17163026332548
 21
486.01908653597235
  0
LINE
  8
_0-e_極細4
  6
CONTINUOUS
 62
    6
 10
324.47163026332544
 20
482.01908653597235
 11
320.57163026332512
 21
482.01908653597235
  0
LINE
  8
_0-e_極細4
  6
CONTINUOUS
 62
    6
 10
324.47163026332566
 20
476.01908653597235
 11
324.47163026332544
 21
482.01908653597235
  0
ARC
  8
_0-e_極細4
  6
CONTINUOUS
 62
    6
 10
321.17163026332548
 20
485.01908653597235
 40
1
 50
155.94545100000053
 51
179.99999999999983
  0
ARC
  8
_0-e_極細4
  6
CONTINUOUS
 62
    6
 10
320.57163026332512
 20
482.41908653597244
 40
0.3999999999999772
 50
179.99999999999983
 51
269.99999999999977
  0
ARC
  8
_0-e_極細4
  6
CONTINUOUS
 62
    6
 10
321.17163026332548
 20
485.01908653597235
 40
1
 50
89.999999999999915
 51
155.94545100000053
  0
LINE
  8
_0-e_極細4
  6
CONTINUOUS
 62
    6
 10
412.67163026332548
 20
477.01908653597246
 11
326.67163026332548
 21
477.01908653597235
  0
LINE
  8
_0-e_極細4
  6
CONTINUOUS
 62
    6
 10
412.67163026332548
 20
475.01908653597246
 11
325.47163026332566
 21
475.01908653597235
  0
LINE
  8
_0-e_極細4
  6
CONTINUOUS
 62
    6
 10
413.0716302633258
 20
472.8313065359726
 11
324.77163026332562
 21
472.83130653597215
  0
LINE
  8
_0-e_極細4
  6
CONTINUOUS
 62
    6
 10
333.5716302633258
 20
472.83130653597215
 11
333.5716302633258
 21
471.83130653597226
  0
LINE
  8
_0-e_極細4
  6
CONTINUOUS
 62
    6
 10
326.3716302633253
 20
469.83130653597226
 11
324.77163026332562
 21
472.83130653597215
  0
LINE
  8
_0-e_極細4
  6
CONTINUOUS
 62
    6
 10
334.5716302633258
 20
466.23130653597246
 11
333.5716302633258
 21
467.23130653597246
  0
LINE
  8
_0-e_極細4
  6
CONTINUOUS
 62
    6
 10
333.5716302633258
 20
465.23130653597235
 11
334.5716302633258
 21
466.23130653597246
  0
LINE
  8
_0-e_極細4
  6
CONTINUOUS
 62
    6
 10
333.5716302633258
 20
469.83130653597226
 11
334.5716302633258
 21
470.83130653597226
  0
LINE
  8
_0-e_極細4
  6
CONTINUOUS
 62
    6
 10
334.5716302633258
 20
470.83130653597226
 11
333.5716302633258
 21
471.83130653597226
  0
LINE
  8
_0-e_極細4
  6
CONTINUOUS
 62
    6
 10
413.0716302633258
 20
470.8313065359726
 11
334.5716302633258
 21
470.83130653597226
  0
LINE
  8
_0-e_極細4
  6
CONTINUOUS
 62
    6
 10
413.0716302633258
 20
466.23130653597246
 11
334.5716302633258
 21
466.23130653597246
  0
LINE
  8
_0-e_極細4
  6
CONTINUOUS
 62
    6
 10
413.0716302633258
 20
464.23130653597246
 11
326.3716302633253
 21
464.23130653597246
  0
LINE
  8
_0-e_極細4
  6
CONTINUOUS
 62
    6
 10
326.3716302633253
 20
469.83130653597226
 11
326.3716302633253
 21
464.23130653597246
  0
LINE
  8
_0-e_極細4
  6
CONTINUOUS
 62
    6
 10
333.5716302633258
 20
465.23130653597235
 11
333.5716302633258
 21
464.23130653597246
  0
LINE
  8
_0-e_極細4
  6
CONTINUOUS
 62
    6
 10
333.5716302633258
 20
469.83130653597226
 11
333.5716302633258
 21
467.23130653597246
  0
LINE
  8
_0-e_極細4
  6
CONTINUOUS
 62
    6
 10
326.0716302633258
 20
461.02064453597217
 11
326.0716302633258
 21
464.02064453597217
  0
LINE
  8
_0-e_極細4
  6
CONTINUOUS
 62
    6
 10
326.0716302633258
 20
464.02064453597217
 11
413.0716302633258
 21
464.02064453597239
  0
LINE
  8
_0-e_極細4
  6
CONTINUOUS
 62
    6
 10
326.0716302633258
 20
473.22064453597244
 11
413.0716302633258
 21
473.22064453597244
  0
LINE
  8
_0-e_極細4
  6
CONTINUOUS
 62
    6
 10
326.0716302633258
 20
473.22064453597244
 11
326.0716302633258
 21
475.01908653597235
  0
LINE
  8
_0-e_極細4
  6
CONTINUOUS
 62
    6
 10
359.0716302633258
 20
446.20495853597214
 11
316.0716302633258
 21
446.20495853597214
  0
LINE
  8
_0-e_極細4
  6
CONTINUOUS
 62
    6
 10
359.0716302633258
 20
444.01363053597237
 11
359.0716302633258
 21
446.9691365359725
  0
LINE
  8
_0-e_極細4
  6
CONTINUOUS
 62
    6
 10
313.11363026332549
 20
487.01908653597235
 11
299.27163026332562
 21
488.99060056531283
  0
LINE
  8
_0-e_極細4
  6
CONTINUOUS
 62
    6
 10
336.5716302633258
 20
434.20495853597214
 11
359.0716302633258
 21
434.20495853597214
  0
LINE
  8
_0-e_極細4
  6
CONTINUOUS
 62
    6
 10
359.0716302633258
 20
444.60495853597234
 11
313.11363026332549
 21
444.60495853597234
  0
LINE
  8
_0-e_極細4
  6
CONTINUOUS
 62
    6
 10
299.27163026332562
 20
487.60495853597246
 11
299.27163026332562
 21
488.99060056531283
  0
LINE
  8
_0-e_極細4
  6
CONTINUOUS
 62
    6
 10
507.32163027089348
 20
388.46374561362001
 11
491.57163026332466
 21
388.46374561362001
  0
LINE
  8
_0-e_極細4
  6
CONTINUOUS
 62
    6
 10
467.07163026332512
 20
329.02061109596497
 11
467.07163026332512
 21
446.9691365359725
  0
ARC
  8
_0-e_極細4
  6
CONTINUOUS
 62
    6
 10
465.07163026332512
 20
329.02061109596497
 40
2
 50
269.99954163376469
 51
359.99999999999966
  0
LINE
  8
_0-e_極細4
  6
CONTINUOUS
 62
    6
 10
465.07163026332512
 20
327.0206110959648
 11
413.07163026332512
 21
327.0206110959648
  0
LINE
  8
_0-e_極細4
  6
CONTINUOUS
 62
    6
 10
491.57163026332466
 20
316.60492509596497
 11
491.57163026332466
 21
370.60492509596492
  0
LINE
  8
_0-e_極細4
  6
CONTINUOUS
 62
    6
 10
467.57163026332489
 20
292.60492509596497
 11
463.07163026332489
 21
292.60492509596497
  0
ARC
  8
_0-e_極細4
  6
CONTINUOUS
 62
    6
 10
467.57163026332489
 20
316.60492509596497
 40
24
 50
269.99999999999977
 51
359.99999999999966
  0
LINE
  8
_0-e_極細4
  6
CONTINUOUS
 62
    6
 10
413.07163026332512
 20
292.60492509596497
 11
414.93369826332525
 21
292.60492509596497
  0
LINE
  8
_0-e_極細4
  6
CONTINUOUS
 62
    6
 10
414.93369826332525
 20
292.60492509596497
 11
467.57163026332489
 21
292.60492509596497
  0
LINE
  8
_0-e_極細4
  6
CONTINUOUS
 62
    6
 10
491.57163026332466
 20
316.60492509596497
 11
491.57163026332466
 21
432.20495853597248
  0
LINE
  8
_0-e_極細4
  6
CONTINUOUS
 62
    6
 10
487.57163026332535
 20
316.60492509596497
 11
487.57163026332535
 21
432.20495853597248
  0
LINE
  8
_0-e_極細4
  6
CONTINUOUS
 62
    6
 10
413.07163026332512
 20
296.60492509596509
 11
467.57163026332489
 21
296.60492509596509
  0
ARC
  8
_0-e_極細4
  6
CONTINUOUS
 62
    6
 10
467.57163026332489
 20
316.60492509596497
 40
20
 50
269.99999999999977
 51
359.99999999999966
  0
LINE
  8
_0-e_極細4
  6
CONTINUOUS
 62
    6
 10
493.57163026332535
 20
461.02064453597239
 11
413.07163026332512
 21
461.02064453597239
  0
LINE
  8
_0-e_極細4
  6
CONTINUOUS
 62
    6
 10
493.57163026332535
 20
452.22064453597244
 11
493.57163026332535
 21
461.02064453597239
  0
LINE
  8
_0-e_極細4
  6
CONTINUOUS
 62
    6
 10
500.07163026332535
 20
461.02064453597217
 11
493.57163026332535
 21
461.02064453597217
  0
LINE
  8
_0-e_極細4
  6
CONTINUOUS
 62
    6
 10
498.07163026332535
 20
452.22064453597244
 11
493.57163026332535
 21
452.22064453597244
  0
LINE
  8
_0-e_極細4
  6
CONTINUOUS
 62
    6
 10
498.07163026332535
 20
450.22064453597244
 11
498.07163026332535
 21
452.22064453597244
  0
ARC
  8
_0-e_極細4
  6
CONTINUOUS
 62
    6
 10
494.07163026332535
 20
450.22064453597244
 40
4
 50
269.99999999999977
 51
359.99999999999966
  0
LINE
  8
_0-e_極細4
  6
CONTINUOUS
 62
    6
 10
494.07163026332535
 20
446.22064453597267
 11
488.07163026332535
 21
446.22064453597267
  0
ARC
  8
_0-e_極細4
  6
CONTINUOUS
 62
    6
 10
513.0296302633252
 20
483.51908653597235
 40
2.1000000000000227
 50
89.999999999999915
 51
175.84900999999832
  0
LINE
  8
_0-e_極細4
  6
CONTINUOUS
 62
    6
 10
513.0296302633252
 20
454.97708653597232
 11
513.0296302633252
 21
485.61908653597249
  0
LINE
  8
_0-e_極細4
  6
CONTINUOUS
 62
    6
 10
513.0296302633252
 20
485.6049574434706
 11
526.87163026332541
 21
487.57647253597219
  0
LINE
  8
_0-e_極細4
  6
CONTINUOUS
 62
    6
 10
519.07163026332501
 20
440.20495853597214
 11
519.07163026332501
 21
456.20495853597225
  0
ARC
  8
_0-e_極細4
  6
CONTINUOUS
 62
    6
 10
524.07163026332501
 20
431.54470453597258
 40
10
 50
120.00000000000055
 51
179.99999999999983
  0
LINE
  8
_0-e_極細4
  6
CONTINUOUS
 62
    6
 10
526.87163026332541
 20
456.20495853597225
 11
526.87163026332541
 21
457.31544053597253
  0
LINE
  8
_0-e_極細4
  6
CONTINUOUS
 62
    6
 10
519.07163026332501
 20
456.20495853597225
 11
526.87163026332541
 21
456.20495853597225
  0
LINE
  8
_0-e_極細4
  6
CONTINUOUS
 62
    6
 10
526.87163026332541
 20
457.31544053597253
 11
526.87163026332541
 21
488.96211453597249
  0
LINE
  8
_0-e_極細4
  6
CONTINUOUS
 62
    6
 10
510.07163026332535
 20
446.20495853597214
 11
510.07163026332535
 21
452.01908653597212
  0
LINE
  8
_0-e_極細4
  6
CONTINUOUS
 62
    6
 10
513.02963026332486
 20
444.60495853597234
 11
510.07163026332535
 21
446.20495853597214
  0
LINE
  8
_0-e_極細4
  6
CONTINUOUS
 62
    6
 10
526.87163026332541
 20
484.20495853597237
 11
513.0296302633252
 21
482.60495853597246
  0
ARC
  8
_0-e_極細4
  6
CONTINUOUS
 62
    6
 10
489.57163026332535
 20
432.20495853597248
 40
2
 50
0
 51
89.999999999999915
  0
ARC
  8
_0-e_極細4
  6
CONTINUOUS
 62
    6
 10
489.57163026332535
 20
432.20495853597248
 40
2
 50
89.999999999999915
 51
179.99999999999983
  0
LINE
  8
_0-e_極細4
  6
CONTINUOUS
 62
    6
 10
413.07163026332512
 20
487.01908653597246
 11
513.0296302633252
 21
487.01908653597235
  0
LINE
  8
_0-e_極細4
  6
CONTINUOUS
 62
    6
 10
493.57163026332535
 20
460.01908653597224
 11
501.67163026332503
 21
460.01908653597224
  0
LINE
  8
_0-e_極細4
  6
CONTINUOUS
 62
    6
 10
507.55407826332532
 20
482.01908653597235
 11
505.17163026332503
 21
482.01908653597235
  0
LINE
  8
_0-e_極細4
  6
CONTINUOUS
 62
    6
 10
501.67163026332503
 20
457.41908653597255
 11
501.67163026332503
 21
478.51908653597235
  0
LINE
  8
_0-e_極細4
  6
CONTINUOUS
 62
    6
 10
506.07163026332535
 20
482.01908653597235
 11
506.07163026332535
 21
487.01908653597235
  0
ARC
  8
_0-e_極細4
  6
CONTINUOUS
 62
    6
 10
505.17163026332503
 20
478.51908653597235
 40
3.4999999999999996
 50
89.999999999999915
 51
179.99999999999983
  0
ARC
  8
_0-e_極細4
  6
CONTINUOUS
 62
    6
 10
513.0296302633252
 20
483.51908653597235
 40
3.4999999999999996
 50
89.999999999999915
 51
175.84901000000059
  0
ARC
  8
_0-e_極細4
  6
CONTINUOUS
 62
    6
 10
507.55407826332532
 20
484.01908653597235
 40
2
 50
269.99999999999977
 51
356.64911200000284
  0
ARC
  8
_0-e_極細4
  6
CONTINUOUS
 62
    6
 10
507.55407826332532
 20
484.01908653597235
 40
3.3999999999999773
 50
269.99999999999977
 51
356.64911199999881
  0
LINE
  8
_0-e_極細4
  6
CONTINUOUS
 62
    6
 10
507.55407826332532
 20
480.61908653597249
 11
505.17163026332503
 21
480.61908653597249
  0
ARC
  8
_0-e_極細4
  6
CONTINUOUS
 62
    6
 10
505.17163026332503
 20
478.51908653597235
 40
2.1000000000000227
 50
89.999999999999915
 51
179.99999999999983
  0
LINE
  8
_0-e_極細4
  6
CONTINUOUS
 62
    6
 10
503.07163026332535
 20
456.01908653597224
 11
503.07163026332535
 21
478.51908653597235
  0
LINE
  8
_0-e_極細4
  6
CONTINUOUS
 62
    6
 10
513.0296302633252
 20
454.97708653597232
 11
510.07163026332535
 21
452.01908653597212
  0
LINE
  8
_0-e_極細4
  6
CONTINUOUS
 62
    6
 10
499.07163026332466
 20
448.01908653597224
 11
499.07163026332466
 21
460.01908653597224
  0
LINE
  8
_0-e_極細4
  6
CONTINUOUS
 62
    6
 10
499.07163026332466
 20
456.01908653597224
 11
503.07163026332535
 21
456.01908653597224
  0
LINE
  8
_0-e_極細4
  6
CONTINUOUS
 62
    6
 10
499.07163026332466
 20
457.41908653597255
 11
501.67163026332503
 21
457.41908653597255
  0
LINE
  8
_0-e_極細4
  6
CONTINUOUS
 62
    6
 10
497.4112622633254
 20
448.01908653597224
 11
499.07163026332466
 21
448.01908653597224
  0
LINE
  8
_0-e_極細4
  6
CONTINUOUS
 62
    6
 10
499.07163026332466
 20
452.01908653597212
 11
510.07163026332535
 21
452.01908653597212
  0
LINE
  8
_0-e_極細4
  6
CONTINUOUS
 62
    6
 10
472.64425626332525
 20
448.61908653597249
 11
482.64425626332525
 21
448.61908653597249
  0
LINE
  8
_0-e_極細4
  6
CONTINUOUS
 62
    6
 10
472.64425626332525
 20
448.61908653597249
 11
472.64425626332525
 21
452.01908653597212
  0
LINE
  8
_0-e_極細4
  6
CONTINUOUS
 62
    6
 10
482.64425626332525
 20
448.61908653597249
 11
482.64425626332525
 21
452.01908653597212
  0
LINE
  8
_0-e_極細4
  6
CONTINUOUS
 62
    6
 10
505.97163026332544
 20
482.41908653597244
 11
505.97163026332544
 21
485.01908653597235
  0
LINE
  8
_0-e_極細4
  6
CONTINUOUS
 62
    6
 10
413.07163026332512
 20
486.01908653597246
 11
504.97163026332544
 21
486.01908653597235
  0
LINE
  8
_0-e_極細4
  6
CONTINUOUS
 62
    6
 10
501.67163026332503
 20
482.01908653597235
 11
505.57163026332535
 21
482.01908653597235
  0
LINE
  8
_0-e_極細4
  6
CONTINUOUS
 62
    6
 10
501.67163026332503
 20
476.01908653597235
 11
501.67163026332503
 21
482.01908653597235
  0
ARC
  8
_0-e_極細4
  6
CONTINUOUS
 62
    6
 10
504.97163026332544
 20
485.01908653597235
 40
1
 50
0
 51
24.054549000004794
  0
ARC
  8
_0-e_極細4
  6
CONTINUOUS
 62
    6
 10
505.57163026332535
 20
482.41908653597244
 40
0.3999999999999772
 50
269.99999999999977
 51
359.99999999999966
  0
ARC
  8
_0-e_極細4
  6
CONTINUOUS
 62
    6
 10
504.97163026332544
 20
485.01908653597235
 40
1
 50
24.054549000004794
 51
89.999999999999901
  0
LINE
  8
_0-e_極細4
  6
CONTINUOUS
 62
    6
 10
413.47163026332544
 20
477.01908653597246
 11
499.47163026332544
 21
477.01908653597235
  0
LINE
  8
_0-e_極細4
  6
CONTINUOUS
 62
    6
 10
413.47163026332544
 20
475.01908653597246
 11
500.67163026332503
 21
475.01908653597235
  0
LINE
  8
_0-e_極細4
  6
CONTINUOUS
 62
    6
 10
413.07163026332512
 20
472.8313065359726
 11
501.37163026332541
 21
472.83130653597215
  0
LINE
  8
_0-e_極細4
  6
CONTINUOUS
 62
    6
 10
492.57163026332535
 20
472.83130653597215
 11
492.57163026332535
 21
471.83130653597226
  0
LINE
  8
_0-e_極細4
  6
CONTINUOUS
 62
    6
 10
499.77163026332539
 20
469.83130653597226
 11
501.37163026332541
 21
472.83130653597215
  0
LINE
  8
_0-e_極細4
  6
CONTINUOUS
 62
    6
 10
491.57163026332466
 20
466.23130653597246
 11
492.57163026332535
 21
467.23130653597246
  0
LINE
  8
_0-e_極細4
  6
CONTINUOUS
 62
    6
 10
492.57163026332535
 20
465.23130653597235
 11
491.57163026332466
 21
466.23130653597246
  0
LINE
  8
_0-e_極細4
  6
CONTINUOUS
 62
    6
 10
492.57163026332535
 20
469.83130653597226
 11
491.57163026332466
 21
470.83130653597226
  0
LINE
  8
_0-e_極細4
  6
CONTINUOUS
 62
    6
 10
491.57163026332466
 20
470.83130653597226
 11
492.57163026332535
 21
471.83130653597226
  0
LINE
  8
_0-e_極細4
  6
CONTINUOUS
 62
    6
 10
413.07163026332512
 20
470.8313065359726
 11
491.57163026332466
 21
470.83130653597226
  0
LINE
  8
_0-e_極細4
  6
CONTINUOUS
 62
    6
 10
413.07163026332512
 20
466.23130653597246
 11
491.57163026332466
 21
466.23130653597246
  0
LINE
  8
_0-e_極細4
  6
CONTINUOUS
 62
    6
 10
413.07163026332512
 20
464.23130653597246
 11
499.77163026332539
 21
464.23130653597246
  0
LINE
  8
_0-e_極細4
  6
CONTINUOUS
 62
    6
 10
499.77163026332539
 20
469.83130653597226
 11
499.77163026332539
 21
464.23130653597246
  0
LINE
  8
_0-e_極細4
  6
CONTINUOUS
 62
    6
 10
492.57163026332535
 20
465.23130653597235
 11
492.57163026332535
 21
464.23130653597246
  0
LINE
  8
_0-e_極細4
  6
CONTINUOUS
 62
    6
 10
492.57163026332535
 20
469.83130653597226
 11
492.57163026332535
 21
467.23130653597246
  0
LINE
  8
_0-e_極細4
  6
CONTINUOUS
 62
    6
 10
500.07163026332535
 20
461.02064453597217
 11
500.07163026332535
 21
464.02064453597217
  0
LINE
  8
_0-e_極細4
  6
CONTINUOUS
 62
    6
 10
500.07163026332535
 20
464.02064453597217
 11
413.07163026332512
 21
464.02064453597239
  0
LINE
  8
_0-e_極細4
  6
CONTINUOUS
 62
    6
 10
500.07163026332535
 20
473.22064453597244
 11
413.07163026332512
 21
473.22064453597244
  0
LINE
  8
_0-e_極細4
  6
CONTINUOUS
 62
    6
 10
500.07163026332535
 20
473.22064453597244
 11
500.07163026332535
 21
475.01908653597235
  0
LINE
  8
_0-e_極細4
  6
CONTINUOUS
 62
    6
 10
467.07163026332512
 20
446.20495853597214
 11
510.07163026332535
 21
446.20495853597214
  0
LINE
  8
_0-e_極細4
  6
CONTINUOUS
 62
    6
 10
467.07163026332512
 20
444.01363053597237
 11
467.07163026332512
 21
446.9691365359725
  0
LINE
  8
_0-e_極細4
  6
CONTINUOUS
 62
    6
 10
513.0296302633252
 20
487.01908653597235
 11
526.87163026332541
 21
488.99060056531283
  0
LINE
  8
_0-e_極細4
  6
CONTINUOUS
 62
    6
 10
489.57163026332535
 20
434.20495853597214
 11
467.07163026332512
 21
434.20495853597214
  0
LINE
  8
_0-e_極細4
  6
CONTINUOUS
 62
    6
 10
467.07163026332512
 20
444.60495853597234
 11
513.02963026332486
 21
444.60495853597234
  0
LINE
  8
_0-e_極細4
  6
CONTINUOUS
 62
    6
 10
526.87163026332541
 20
487.60495853597246
 11
526.87163026332541
 21
488.99060056531283
  0
LINE
  8
_0-e_極細4
  6
CONTINUOUS
 62
    6
 10
299.27163026332562
 20
488.99060056531283
 11
526.87163026332541
 21
488.99060056531283
  0
LINE
  8
_0-e_極細4
  6
CONTINUOUS
 62
    6
 10
513.0296302633252
 20
483.08602065177973
 11
517.19141889270338
 21
483.08602065177973
  0
LINE
  8
_0-e_極細4
  6
CONTINUOUS
 62
    6
 10
513.0296302633252
 20
484.28602065177978
 11
526.87163026332541
 21
484.28602065177978
  0
LINE
  8
_0-e_極細4
  6
CONTINUOUS
 62
    6
 10
513.0296302633252
 20
485.4860206517796
 11
526.87163026332541
 21
485.4860206517796
  0
LINE
  8
_0-e_極細4
  6
CONTINUOUS
 62
    6
 10
520.61977095579505
 20
486.68602065177976
 11
526.87163026332541
 21
486.68602065177976
  0
LINE
  8
_0-e_極細4
  6
CONTINUOUS
 62
    6
 10
308.95184163394731
 20
483.08602065177973
 11
313.11363026332549
 21
483.08602065177973
  0
LINE
  8
_0-e_極細4
  6
CONTINUOUS
 62
    6
 10
299.27163026332562
 20
484.28602065177978
 11
313.11363026332549
 21
484.28602065177978
  0
LINE
  8
_0-e_極細4
  6
CONTINUOUS
 62
    6
 10
299.27163026332562
 20
485.4860206517796
 11
313.11363026332549
 21
485.4860206517796
  0
LINE
  8
_0-e_極細4
  6
CONTINUOUS
 62
    6
 10
299.27163026332562
 20
486.68602065177976
 11
305.52348957085599
 21
486.68602065177976
  0
ARC
  8
_0-e_極細4
  6
CONTINUOUS
 62
    6
 10
479.07163026332535
 20
446.9691365359725
 40
12
 50
155.11305268293179
 51
179.99999999999983
  0
ARC
  8
_0-e_極細4
  6
CONTINUOUS
 62
    6
 10
479.07163026332535
 20
446.9691365359725
 40
12
 50
55.166292356155637
 51
155.11305268293179
  0
ARC
  8
_0-e_極細4
  6
CONTINUOUS
 62
    6
 10
482.07163026332535
 20
452.22064453597244
 40
6
 50
358.07490068720216
 51
50.029499419963869
  0
LINE
  8
_0-e_極細4
  6
CONTINUOUS
 62
    6
 10
468.18595136867191
 20
452.01908653597212
 11
488.07163026332535
 21
452.01908653597212
  0
LINE
  8
_0-e_極細4
  6
CONTINUOUS
 62
    6
 10
488.07163026332535
 20
446.22064453597267
 11
488.07163026332535
 21
452.01908653597212
  0
LINE
  8
_0-e_極細4
  6
CONTINUOUS
 62
    6
 10
486.89327980399514
 20
452.01908653597212
 11
486.89327980399514
 21
455.79159618881778
  0
LINE
  8
_0-e_極細4
  6
CONTINUOUS
 62
    6
 10
485.69327980399441
 20
452.01908653597212
 11
485.69327980399441
 21
456.9768214511036
  0
LINE
  8
_0-e_極細4
  6
CONTINUOUS
 62
    6
 10
484.49327980399505
 20
452.01908653597212
 11
484.49327980399505
 21
457.6745424721409
  0
LINE
  8
_0-e_極細4
  6
CONTINUOUS
 62
    6
 10
483.29327980399546
 20
452.01908653597212
 11
483.29327980399546
 21
458.20202018870208
  0
LINE
  8
_0-e_極細4
  6
CONTINUOUS
 62
    6
 10
482.09327980399519
 20
452.01908653597212
 11
482.09327980399519
 21
458.58247516245564
  0
LINE
  8
_0-e_極細4
  6
CONTINUOUS
 62
    6
 10
480.89327980399469
 20
452.01908653597212
 11
480.89327980399469
 21
458.8300636899084
  0
LINE
  8
_0-e_極細4
  6
CONTINUOUS
 62
    6
 10
479.69327980399441
 20
452.01908653597212
 11
479.69327980399441
 21
458.95302371203462
  0
LINE
  8
_0-e_極細4
  6
CONTINUOUS
 62
    6
 10
478.49327980399505
 20
452.01908653597212
 11
478.49327980399505
 21
458.9551913809243
  0
LINE
  8
_0-e_極細4
  6
CONTINUOUS
 62
    6
 10
477.29327980399478
 20
452.01908653597212
 11
477.29327980399478
 21
458.83663288709039
  0
LINE
  8
_0-e_極細4
  6
CONTINUOUS
 62
    6
 10
476.09327980399473
 20
452.01908653597212
 11
476.09327980399473
 21
458.59365495788592
  0
LINE
  8
_0-e_極細4
  6
CONTINUOUS
 62
    6
 10
474.89327980399469
 20
452.01908653597212
 11
474.89327980399469
 21
458.21819816079318
  0
LINE
  8
_0-e_極細4
  6
CONTINUOUS
 62
    6
 10
473.69327980399441
 20
452.01908653597212
 11
473.69327980399441
 21
457.69636107620744
  0
LINE
  8
_0-e_極細4
  6
CONTINUOUS
 62
    6
 10
472.49327980399482
 20
452.01908653597212
 11
472.49327980399482
 21
457.00533627662247
  0
LINE
  8
_0-e_極細4
  6
CONTINUOUS
 62
    6
 10
471.29327980399432
 20
452.01908653597212
 11
471.29327980399432
 21
456.10682027594913
  0
LINE
  8
_0-e_極細4
  6
CONTINUOUS
 62
    6
 10
470.09327980399473
 20
452.01908653597212
 11
470.09327980399473
 21
454.93087146181853
  0
LINE
  8
_0-e_極細4
  6
CONTINUOUS
 62
    6
 10
468.89327980399469
 20
452.01908653597212
 11
468.89327980399469
 21
453.32532894393529
  0
ARC
  8
_0-e_極細4
  6
CONTINUOUS
 62
    6
 10
344.0716302633258
 20
452.22064453597244
 40
6
 50
129.97050058004078
 51
181.92509931279704
  0
LINE
  8
_0-e_極細4
  6
CONTINUOUS
 62
    6
 10
338.0716302633258
 20
446.22064453597267
 11
338.0716302633258
 21
452.01908653597212
  0
ARC
  8
_0-e_極細4
  6
CONTINUOUS
 62
    6
 10
347.0716302633258
 20
446.9691365359725
 40
12
 50
24.886947317068213
 51
124.83370764384703
  0
LINE
  8
_0-e_極細4
  6
CONTINUOUS
 62
    6
 10
357.95730915797924
 20
452.01908653597212
 11
338.0716302633258
 21
452.01908653597212
  0
ARC
  8
_0-e_極細4
  6
CONTINUOUS
 62
    6
 10
347.0716302633258
 20
446.9691365359725
 40
12
 50
0
 51
24.886947317068213
  0
LINE
  8
_0-e_極細4
  6
CONTINUOUS
 62
    6
 10
357.29327980399523
 20
452.01908653597212
 11
357.29327980399523
 21
453.25546142955926
  0
LINE
  8
_0-e_極細4
  6
CONTINUOUS
 62
    6
 10
356.09327980399519
 20
452.01908653597212
 11
356.09327980399519
 21
454.88177450098391
  0
LINE
  8
_0-e_極細4
  6
CONTINUOUS
 62
    6
 10
354.89327980399537
 20
452.01908653597212
 11
354.89327980399537
 21
456.06978478007812
  0
LINE
  8
_0-e_極細4
  6
CONTINUOUS
 62
    6
 10
353.69327980399487
 20
452.01908653597212
 11
353.69327980399487
 21
456.97682145110429
  0
LINE
  8
_0-e_極細4
  6
CONTINUOUS
 62
    6
 10
352.49327980399505
 20
452.01908653597212
 11
352.49327980399505
 21
457.67454247214147
  0
LINE
  8
_0-e_極細4
  6
CONTINUOUS
 62
    6
 10
351.29327980399501
 20
452.01908653597212
 11
351.29327980399501
 21
458.20202018870231
  0
LINE
  8
_0-e_極細4
  6
CONTINUOUS
 62
    6
 10
350.09327980399519
 20
452.01908653597212
 11
350.09327980399519
 21
458.58247516245586
  0
LINE
  8
_0-e_極細4
  6
CONTINUOUS
 62
    6
 10
348.89327980399469
 20
452.01908653597212
 11
348.89327980399469
 21
458.83006368990874
  0
LINE
  8
_0-e_極細4
  6
CONTINUOUS
 62
    6
 10
347.69327980399487
 20
452.01908653597212
 11
347.69327980399487
 21
458.95302371203462
  0
LINE
  8
_0-e_極細4
  6
CONTINUOUS
 62
    6
 10
346.49327980399482
 20
452.01908653597212
 11
346.49327980399482
 21
458.95519138092408
  0
LINE
  8
_0-e_極細4
  6
CONTINUOUS
 62
    6
 10
345.29327980399501
 20
452.01908653597212
 11
345.29327980399501
 21
458.83663288709039
  0
LINE
  8
_0-e_極細4
  6
CONTINUOUS
 62
    6
 10
344.09327980399451
 20
452.01908653597212
 11
344.09327980399451
 21
458.5936549578858
  0
LINE
  8
_0-e_極細4
  6
CONTINUOUS
 62
    6
 10
342.89327980399469
 20
452.01908653597212
 11
342.89327980399469
 21
458.21819816079307
  0
LINE
  8
_0-e_極細4
  6
CONTINUOUS
 62
    6
 10
341.69327980399464
 20
452.01908653597212
 11
341.69327980399464
 21
457.69636107620721
  0
LINE
  8
_0-e_極細4
  6
CONTINUOUS
 62
    6
 10
340.49327980399482
 20
452.01908653597212
 11
340.49327980399482
 21
457.00533627662236
  0
LINE
  8
_0-e_極細4
  6
CONTINUOUS
 62
    6
 10
339.29327980399432
 20
452.01908653597212
 11
339.29327980399432
 21
455.84933119753617
  0
LINE
  8
_0-e_極細4
  6
CONTINUOUS
 62
    6
 10
338.09327980399451
 20
452.01908653597212
 11
338.09327980399451
 21
452.72988493638735
  0
LINE
  8
_0-e_極細4
  6
CONTINUOUS
 62
    6
 10
482.09327980399519
 20
448.61908653597249
 11
482.09327980399519
 21
452.01908653597212
  0
LINE
  8
_0-e_極細4
  6
CONTINUOUS
 62
    6
 10
480.89327980399514
 20
448.61908653597249
 11
480.89327980399514
 21
452.01908653597212
  0
LINE
  8
_0-e_極細4
  6
CONTINUOUS
 62
    6
 10
479.69327980399441
 20
448.61908653597249
 11
479.69327980399441
 21
452.01908653597212
  0
LINE
  8
_0-e_極細4
  6
CONTINUOUS
 62
    6
 10
478.49327980399505
 20
448.61908653597249
 11
478.49327980399505
 21
452.01908653597212
  0
LINE
  8
_0-e_極細4
  6
CONTINUOUS
 62
    6
 10
477.29327980399546
 20
448.61908653597249
 11
477.29327980399546
 21
452.01908653597212
  0
LINE
  8
_0-e_極細4
  6
CONTINUOUS
 62
    6
 10
476.09327980399519
 20
448.61908653597249
 11
476.09327980399519
 21
452.01908653597212
  0
LINE
  8
_0-e_極細4
  6
CONTINUOUS
 62
    6
 10
474.89327980399469
 20
448.61908653597249
 11
474.89327980399469
 21
452.01908653597212
  0
LINE
  8
_0-e_極細4
  6
CONTINUOUS
 62
    6
 10
473.69327980399441
 20
448.61908653597249
 11
473.69327980399441
 21
452.01908653597212
  0
LINE
  8
_0-e_極細4
  6
CONTINUOUS
 62
    6
 10
352.49327980399505
 20
448.61908653597249
 11
352.49327980399505
 21
452.01908653597212
  0
LINE
  8
_0-e_極細4
  6
CONTINUOUS
 62
    6
 10
351.29327980399523
 20
448.61908653597249
 11
351.29327980399523
 21
452.01908653597212
  0
LINE
  8
_0-e_極細4
  6
CONTINUOUS
 62
    6
 10
350.09327980399519
 20
448.61908653597249
 11
350.09327980399519
 21
452.01908653597212
  0
LINE
  8
_0-e_極細4
  6
CONTINUOUS
 62
    6
 10
348.89327980399537
 20
448.61908653597249
 11
348.89327980399537
 21
452.01908653597212
  0
LINE
  8
_0-e_極細4
  6
CONTINUOUS
 62
    6
 10
347.69327980399487
 20
448.61908653597249
 11
347.69327980399487
 21
452.01908653597212
  0
LINE
  8
_0-e_極細4
  6
CONTINUOUS
 62
    6
 10
346.49327980399505
 20
448.61908653597249
 11
346.49327980399505
 21
452.01908653597212
  0
LINE
  8
_0-e_極細4
  6
CONTINUOUS
 62
    6
 10
345.29327980399501
 20
448.61908653597249
 11
345.29327980399501
 21
452.01908653597212
  0
LINE
  8
_0-e_極細4
  6
CONTINUOUS
 62
    6
 10
344.09327980399519
 20
448.61908653597249
 11
344.09327980399519
 21
452.01908653597212
  0
LINE
  8
_0-e_極細4
  6
CONTINUOUS
 62
    6
 10
332.09327980399519
 20
452.22064453597244
 11
332.09327980399519
 21
460.01908653597224
  0
LINE
  8
_0-e_極細4
  6
CONTINUOUS
 62
    6
 10
330.89327980399537
 20
452.22064453597244
 11
330.89327980399537
 21
460.01908653597224
  0
LINE
  8
_0-e_極細4
  6
CONTINUOUS
 62
    6
 10
329.69327980399487
 20
452.22064453597244
 11
329.69327980399487
 21
460.01908653597224
  0
LINE
  8
_0-e_極細4
  6
CONTINUOUS
 62
    6
 10
328.49327980399505
 20
448.01908653597224
 11
328.49327980399505
 21
448.4330741205178
  0
LINE
  8
_0-e_極細4
  6
CONTINUOUS
 62
    6
 10
328.49327980399505
 20
452.22064453597244
 11
328.49327980399505
 21
460.01908653597224
  0
LINE
  8
_0-e_極細4
  6
CONTINUOUS
 62
    6
 10
327.29327980399523
 20
448.01908653597224
 11
327.29327980399523
 21
460.01908653597224
  0
LINE
  8
_0-e_極細4
  6
CONTINUOUS
 62
    6
 10
498.89327980399514
 20
448.01908653597224
 11
498.89327980399514
 21
460.01908653597224
  0
LINE
  8
_0-e_極細4
  6
CONTINUOUS
 62
    6
 10
497.69327980399441
 20
448.01908653597224
 11
497.69327980399441
 21
448.52251185429981
  0
LINE
  8
_0-e_極細4
  6
CONTINUOUS
 62
    6
 10
497.69327980399441
 20
452.22064453597244
 11
497.69327980399441
 21
460.01908653597224
  0
LINE
  8
_0-e_極細4
  6
CONTINUOUS
 62
    6
 10
496.49327980399516
 20
452.22064453597244
 11
496.49327980399516
 21
460.01908653597224
  0
LINE
  8
_0-e_極細4
  6
CONTINUOUS
 62
    6
 10
495.29327980399546
 20
452.22064453597244
 11
495.29327980399546
 21
460.01908653597224
  0
LINE
  8
_0-e_極細4
  6
CONTINUOUS
 62
    6
 10
494.09327980399519
 20
452.22064453597244
 11
494.09327980399519
 21
460.01908653597224
  0
LINE
  8
_0-e_極細4
  6
CONTINUOUS
 62
    6
 10
512.09327980399519
 20
454.04073607664242
 11
512.09327980399519
 21
485.39878007942895
  0
LINE
  8
_0-e_極細4
  6
CONTINUOUS
 62
    6
 10
510.89327980399514
 20
452.84073607664249
 11
510.89327980399514
 21
483.3789825828614
  0
LINE
  8
_0-e_極細4
  6
CONTINUOUS
 62
    6
 10
509.69327980399441
 20
452.01908653597212
 11
509.69327980399441
 21
481.37639533789485
  0
LINE
  8
_0-e_極細4
  6
CONTINUOUS
 62
    6
 10
508.49327980399516
 20
452.01908653597212
 11
508.49327980399516
 21
480.75138084757197
  0
LINE
  8
_0-e_極細4
  6
CONTINUOUS
 62
    6
 10
507.29327980399546
 20
452.01908653597212
 11
507.29327980399546
 21
480.61908653597249
  0
LINE
  8
_0-e_極細4
  6
CONTINUOUS
 62
    6
 10
506.09327980399519
 20
452.01908653597212
 11
506.09327980399519
 21
480.61908653597249
  0
LINE
  8
_0-e_極細4
  6
CONTINUOUS
 62
    6
 10
504.8932798039948
 20
452.01908653597212
 11
504.8932798039948
 21
480.60055741537229
  0
LINE
  8
_0-e_極細4
  6
CONTINUOUS
 62
    6
 10
503.69327980399441
 20
452.01908653597212
 11
503.69327980399441
 21
480.01055558338766
  0
LINE
  8
_0-e_極細4
  6
CONTINUOUS
 62
    6
 10
502.49327980399516
 20
452.01908653597212
 11
502.49327980399516
 21
456.01908653597224
  0
LINE
  8
_0-e_極細4
  6
CONTINUOUS
 62
    6
 10
501.29327980399478
 20
452.01908653597212
 11
501.29327980399478
 21
456.01908653597224
  0
LINE
  8
_0-e_極細4
  6
CONTINUOUS
 62
    6
 10
500.09327980399473
 20
452.01908653597212
 11
500.09327980399473
 21
456.01908653597224
  0
LINE
  8
_0-e_極細4
  6
CONTINUOUS
 62
    6
 10
326.09327980399519
 20
452.01908653597212
 11
326.09327980399519
 21
456.01908653597224
  0
LINE
  8
_0-e_極細4
  6
CONTINUOUS
 62
    6
 10
324.89327980399537
 20
452.01908653597212
 11
324.89327980399537
 21
456.01908653597224
  0
LINE
  8
_0-e_極細4
  6
CONTINUOUS
 62
    6
 10
323.69327980399487
 20
452.01908653597212
 11
323.69327980399487
 21
456.01908653597224
  0
LINE
  8
_0-e_極細4
  6
CONTINUOUS
 62
    6
 10
322.49327980399505
 20
452.01908653597212
 11
322.49327980399505
 21
479.9663538490077
  0
LINE
  8
_0-e_極細4
  6
CONTINUOUS
 62
    6
 10
321.29327980399523
 20
452.01908653597212
 11
321.29327980399523
 21
480.59430738518012
  0
LINE
  8
_0-e_極細4
  6
CONTINUOUS
 62
    6
 10
320.09327980399519
 20
452.01908653597212
 11
320.09327980399519
 21
480.61908653597249
  0
LINE
  8
_0-e_極細4
  6
CONTINUOUS
 62
    6
 10
318.89327980399469
 20
452.01908653597212
 11
318.89327980399469
 21
480.61908653597249
  0
LINE
  8
_0-e_極細4
  6
CONTINUOUS
 62
    6
 10
317.69327980399487
 20
452.01908653597212
 11
317.69327980399487
 21
480.73924526186084
  0
LINE
  8
_0-e_極細4
  6
CONTINUOUS
 62
    6
 10
316.49327980399505
 20
452.01908653597212
 11
316.49327980399505
 21
481.34192518839308
  0
LINE
  8
_0-e_極細4
  6
CONTINUOUS
 62
    6
 10
315.29327980399501
 20
452.79743699530303
 11
315.29327980399501
 21
483.1842051200943
  0
LINE
  8
_0-e_極細4
  6
CONTINUOUS
 62
    6
 10
314.09327980399451
 20
453.99743699530308
 11
314.09327980399451
 21
485.37658129436778
  0
LINE
  8
_0-e_極細4
  6
CONTINUOUS
 62
    6
 10
492.57163026332535
 20
465.08602065177973
 11
499.77163026332539
 21
465.08602065177973
  0
LINE
  8
_0-e_極細4
  6
CONTINUOUS
 62
    6
 10
491.62634437913232
 20
466.28602065177978
 11
499.77163026332539
 21
466.28602065177978
  0
LINE
  8
_0-e_極細4
  6
CONTINUOUS
 62
    6
 10
492.57163026332535
 20
467.4860206517796
 11
499.77163026332539
 21
467.4860206517796
  0
LINE
  8
_0-e_極細4
  6
CONTINUOUS
 62
    6
 10
492.57163026332535
 20
468.68602065177976
 11
499.77163026332539
 21
468.68602065177976
  0
LINE
  8
_0-e_極細4
  6
CONTINUOUS
 62
    6
 10
492.51691614751701
 20
469.88602065177969
 11
499.80081112508935
 21
469.88602065177969
  0
LINE
  8
_0-e_極細4
  6
CONTINUOUS
 62
    6
 10
491.82634437913271
 20
471.08602065177962
 11
500.44081112508945
 21
471.08602065177962
  0
LINE
  8
_0-e_極細4
  6
CONTINUOUS
 62
    6
 10
492.57163026332535
 20
472.28602065177955
 11
501.08081112508967
 21
472.28602065177955
  0
LINE
  8
_0-e_極細4
  6
CONTINUOUS
 62
    6
 10
326.3716302633253
 20
465.08602065177973
 11
333.5716302633258
 21
465.08602065177973
  0
LINE
  8
_0-e_極細4
  6
CONTINUOUS
 62
    6
 10
326.3716302633253
 20
466.28602065177978
 11
334.51691614751837
 21
466.28602065177978
  0
LINE
  8
_0-e_極細4
  6
CONTINUOUS
 62
    6
 10
326.3716302633253
 20
467.4860206517796
 11
333.5716302633258
 21
467.4860206517796
  0
LINE
  8
_0-e_極細4
  6
CONTINUOUS
 62
    6
 10
326.3716302633253
 20
468.68602065177976
 11
333.5716302633258
 21
468.68602065177976
  0
LINE
  8
_0-e_極細4
  6
CONTINUOUS
 62
    6
 10
326.34244940156134
 20
469.88602065177969
 11
333.62634437913277
 21
469.88602065177969
  0
LINE
  8
_0-e_極細4
  6
CONTINUOUS
 62
    6
 10
325.70244940156169
 20
471.08602065177962
 11
334.31691614751833
 21
471.08602065177962
  0
LINE
  8
_0-e_極細4
  6
CONTINUOUS
 62
    6
 10
325.06244940156159
 20
472.28602065177955
 11
333.5716302633258
 21
472.28602065177955
  0
CIRCLE
  8
_1-1_寸法4
  6
CONTINUOUS
 62
    7
 10
501.67163026332503
 20
468.70239910942058
 40
40
  0
LINE
  8
_0-e_極細4
  6
CONTINUOUS
 62
    6
 10
514.33284626332511
 20
260.3126705359698
 11
585.8430542633248
 21
262.07593453597087
  0
LINE
  8
_0-e_極細4
  6
CONTINUOUS
 62
    6
 10
585.8430542633248
 20
262.07593453597087
 11
585.8430542633248
 21
369.83103853597044
  0
LINE
  8
_0-e_極細4
  6
CONTINUOUS
 62
    6
 10
514.07163026332466
 20
371.60074347331323
 11
585.8430542633248
 21
369.83103853597044
  0
LINE
  8
_0-e_極細4
  6
CONTINUOUS
 62
    6
 10
514.07163026332466
 20
371.60074347331323
 11
514.07163026332466
 21
431.54470453597258
  0
LINE
  8
_0-e_極細4
  6
CONTINUOUS
 62
    6
 10
312.0716302633258
 20
276.3126705359698
 11
312.0716302633258
 21
431.54470453597258
  0
LINE
  8
_0-e_極細4
  6
CONTINUOUS
 62
    6
 10
328.0716302633258
 20
260.3126705359698
 11
514.33284626332511
 21
260.3126705359698
  0
ARC
  8
_0-e_極細4
  6
CONTINUOUS
 62
    6
 10
328.0716302633258
 20
276.3126705359698
 40
16
 50
179.99999999999983
 51
269.99999999999977
  0
LINE
  8
_0-e_極細4
  6
CONTINUOUS
 62
    6
 10
329.0716302633258
 20
264.23103853597217
 11
514.33284626332511
 21
264.23103853597217
  0
LINE
  8
_0-e_極細4
  6
CONTINUOUS
 62
    6
 10
317.0716302633258
 20
276.23103853597217
 11
317.0716302633258
 21
390.44805909596488
  0
ARC
  8
_0-e_極細4
  6
CONTINUOUS
 62
    6
 10
329.0716302633258
 20
276.23103853597217
 40
12
 50
179.99999999999983
 51
269.99999999999977
  0
LINE
  8
_0-e_極細4
  6
CENTER2
 62
    6
 10
413.07163026332512
 20
511.11738650720633
 11
413.07163026332512
 21
221.34266314587603
  0
LINE
  8
_0-e_極細4
  6
CONTINUOUS
 62
    6
 10
509.07163026332535
 20
390.44805909596488
 11
509.07163026332535
 21
444.60495853597234
  0
ARC
  8
_0-e_極細4
  6
CONTINUOUS
 62
    6
 10
507.07163026332535
 20
390.44805909596488
 40
2
 50
277.18075599998315
 51
359.99999999999966
  0
LINE
  8
_0-e_極細4
  6
CONTINUOUS
 62
    6
 10
409.5910156235617
 20
260.3126705359698
 11
413.07163026332535
 21
263.79328517573333
  0
LINE
  8
_0-e_極細4
  6
CONTINUOUS
 62
    6
 10
405.34837493644261
 20
260.3126705359698
 11
409.26674293644476
 21
264.23103853597195
  0
LINE
  8
_0-e_極細4
  6
CONTINUOUS
 62
    6
 10
401.10573424932306
 20
260.3126705359698
 11
405.02410224932544
 21
264.23103853597217
  0
LINE
  8
_0-e_極細4
  6
CONTINUOUS
 62
    6
 10
396.86309356220374
 20
260.3126705359698
 11
400.78146156220612
 21
264.23103853597217
  0
LINE
  8
_0-e_極細4
  6
CONTINUOUS
 62
    6
 10
392.62045287508442
 20
260.3126705359698
 11
396.5388208750868
 21
264.23103853597217
  0
LINE
  8
_0-e_極細4
  6
CONTINUOUS
 62
    6
 10
388.37781218796533
 20
260.31267053596957
 11
392.29618018796771
 21
264.23103853597217
  0
LINE
  8
_0-e_極細4
  6
CONTINUOUS
 62
    6
 10
384.13517150084601
 20
260.3126705359698
 11
388.05353950084839
 21
264.23103853597217
  0
LINE
  8
_0-e_極細4
  6
CONTINUOUS
 62
    6
 10
379.89253081372669
 20
260.3126705359698
 11
383.81089881372907
 21
264.23103853597217
  0
LINE
  8
_0-e_極細4
  6
CONTINUOUS
 62
    6
 10
375.64989012660737
 20
260.3126705359698
 11
379.56825812660975
 21
264.23103853597217
  0
LINE
  8
_0-e_極細4
  6
CONTINUOUS
 62
    6
 10
371.40724943948806
 20
260.3126705359698
 11
375.32561743949043
 21
264.23103853597217
  0
LINE
  8
_0-e_極細4
  6
CONTINUOUS
 62
    6
 10
367.16460875236896
 20
260.31267053596957
 11
371.08297675237134
 21
264.23103853597217
  0
LINE
  8
_0-e_極細4
  6
CONTINUOUS
 62
    6
 10
362.92196806524964
 20
260.3126705359698
 11
366.84033606525202
 21
264.23103853597217
  0
LINE
  8
_0-e_極細4
  6
CONTINUOUS
 62
    6
 10
358.6793273781301
 20
260.31267053596957
 11
362.5976953781327
 21
264.23103853597217
  0
LINE
  8
_0-e_極細4
  6
CONTINUOUS
 62
    6
 10
354.43668669101078
 20
260.31267053596957
 11
358.35505469101338
 21
264.23103853597217
  0
LINE
  8
_0-e_極細4
  6
CONTINUOUS
 62
    6
 10
350.19404600389169
 20
260.3126705359698
 11
354.11241400389406
 21
264.23103853597217
  0
LINE
  8
_0-e_極細4
  6
CONTINUOUS
 62
    6
 10
345.95140531677214
 20
260.3126705359698
 11
349.86977331677497
 21
264.23103853597217
  0
LINE
  8
_0-e_極細4
  6
CONTINUOUS
 62
    6
 10
341.70876462965305
 20
260.31267053596957
 11
345.62713262965565
 21
264.23103853597217
  0
LINE
  8
_0-e_極細4
  6
CONTINUOUS
 62
    6
 10
337.4661239425335
 20
260.31267053596957
 11
341.38449194253633
 21
264.23103853597217
  0
LINE
  8
_0-e_極細4
  6
CONTINUOUS
 62
    6
 10
333.22348325541441
 20
260.31267053596957
 11
337.14185125541701
 21
264.23103853597217
  0
LINE
  8
_0-e_極細4
  6
CONTINUOUS
 62
    6
 10
328.98084256829532
 20
260.3126705359698
 11
332.89921056829769
 21
264.23103853597217
  0
LINE
  8
_0-e_極細4
  6
CONTINUOUS
 62
    6
 10
325.02997655978118
 20
260.60444521457475
 11
328.66351191364322
 21
264.23798056843702
  0
LINE
  8
_0-e_極細4
  6
CONTINUOUS
 62
    6
 10
321.78315064676406
 20
261.60025998867707
 11
325.09276916641613
 21
264.90987850832903
  0
LINE
  8
_0-e_極細4
  6
CONTINUOUS
 62
    6
 10
319.04340840262523
 20
263.10315843165745
 11
322.27891602634816
 21
266.33866605538071
  0
LINE
  8
_0-e_極細4
  6
CONTINUOUS
 62
    6
 10
316.72728812802109
 20
265.02967884417296
 11
320.03412476190999
 21
268.33651547806153
  0
LINE
  8
_0-e_極細4
  6
CONTINUOUS
 62
    6
 10
314.81247866746742
 20
267.35751007073827
 11
318.33215691353905
 21
270.87718831680991
  0
LINE
  8
_0-e_極細4
  6
CONTINUOUS
 62
    6
 10
313.32268687238877
 20
270.11035896277895
 11
317.2700715058935
 21
274.05774359628367
  0
LINE
  8
_0-e_極細4
  6
CONTINUOUS
 62
    6
 10
312.34379374522462
 20
273.37410652273411
 11
317.0716302633258
 21
278.10194304083518
  0
LINE
  8
_0-e_極細4
  6
CONTINUOUS
 62
    6
 10
312.0716302633258
 20
277.34458372795439
 11
317.0716302633258
 21
282.34458372795439
  0
LINE
  8
_0-e_極細4
  6
CONTINUOUS
 62
    6
 10
312.0716302633258
 20
281.58722441507371
 11
317.0716302633258
 21
286.58722441507371
  0
LINE
  8
_0-e_極細4
  6
CONTINUOUS
 62
    6
 10
312.0716302633258
 20
285.82986510219303
 11
317.0716302633258
 21
290.82986510219303
  0
LINE
  8
_0-e_極細4
  6
CONTINUOUS
 62
    6
 10
312.0716302633258
 20
290.07250578931246
 11
317.0716302633258
 21
295.07250578931234
  0
LINE
  8
_0-e_極細4
  6
CONTINUOUS
 62
    6
 10
312.0716302633258
 20
294.31514647643166
 11
317.0716302633258
 21
299.31514647643155
  0
LINE
  8
_0-e_極細4
  6
CONTINUOUS
 62
    6
 10
312.0716302633258
 20
298.55778716355098
 11
317.0716302633258
 21
303.55778716355098
  0
LINE
  8
_0-e_極細4
  6
CONTINUOUS
 62
    6
 10
312.0716302633258
 20
302.8004278506703
 11
317.0716302633258
 21
307.80042785067008
  0
LINE
  8
_0-e_極細4
  6
CONTINUOUS
 62
    6
 10
312.0716302633258
 20
307.04306853778962
 11
317.0716302633258
 21
312.04306853778962
  0
LINE
  8
_0-e_極細4
  6
CONTINUOUS
 62
    6
 10
312.0716302633258
 20
311.28570922490883
 11
317.0716302633258
 21
316.28570922490871
  0
LINE
  8
_0-e_極細4
  6
CONTINUOUS
 62
    6
 10
312.0716302633258
 20
315.52834991202803
 11
317.0716302633258
 21
320.52834991202803
  0
LINE
  8
_0-e_極細4
  6
CONTINUOUS
 62
    6
 10
312.0716302633258
 20
319.77099059914735
 11
317.0716302633258
 21
324.77099059914735
  0
LINE
  8
_0-e_極細4
  6
CONTINUOUS
 62
    6
 10
312.0716302633258
 20
324.01363128626667
 11
317.0716302633258
 21
329.01363128626662
  0
LINE
  8
_0-e_極細4
  6
CONTINUOUS
 62
    6
 10
312.0716302633258
 20
328.25627197338594
 11
317.0716302633258
 21
333.25627197338594
  0
LINE
  8
_0-e_極細4
  6
CONTINUOUS
 62
    6
 10
312.0716302633258
 20
332.4989126605052
 11
317.0716302633258
 21
337.4989126605052
  0
LINE
  8
_0-e_極細4
  6
CONTINUOUS
 62
    6
 10
312.0716302633258
 20
336.74155334762446
 11
317.0716302633258
 21
341.74155334762446
  0
LINE
  8
_0-e_極細4
  6
CONTINUOUS
 62
    6
 10
312.0716302633258
 20
340.98419403474372
 11
317.0716302633258
 21
345.98419403474372
  0
LINE
  8
_0-e_極細4
  6
CONTINUOUS
 62
    6
 10
312.0716302633258
 20
345.22683472186299
 11
317.0716302633258
 21
350.22683472186299
  0
LINE
  8
_0-e_極細4
  6
CONTINUOUS
 62
    6
 10
312.0716302633258
 20
349.4694754089823
 11
317.0716302633258
 21
354.4694754089823
  0
LINE
  8
_0-e_極細4
  6
CONTINUOUS
 62
    6
 10
312.0716302633258
 20
353.71211609610174
 11
317.0716302633258
 21
358.71211609610157
  0
LINE
  8
_0-e_極細4
  6
CONTINUOUS
 62
    6
 10
312.0716302633258
 20
357.95475678322083
 11
317.0716302633258
 21
362.95475678322083
  0
LINE
  8
_0-e_極細4
  6
CONTINUOUS
 62
    6
 10
312.0716302633258
 20
362.19739747034009
 11
317.0716302633258
 21
367.19739747034004
  0
LINE
  8
_0-e_極細4
  6
CONTINUOUS
 62
    6
 10
312.0716302633258
 20
366.44003815745958
 11
317.0716302633258
 21
371.44003815745936
  0
LINE
  8
_0-e_極細4
  6
CONTINUOUS
 62
    6
 10
312.0716302633258
 20
370.6826788445789
 11
317.0716302633258
 21
375.68267884457867
  0
LINE
  8
_0-e_極細4
  6
CONTINUOUS
 62
    6
 10
312.0716302633258
 20
374.92531953169811
 11
317.0716302633258
 21
379.92531953169799
  0
LINE
  8
_0-e_極細4
  6
CONTINUOUS
 62
    6
 10
312.0716302633258
 20
379.16796021881731
 11
317.0716302633258
 21
384.1679602188172
  0
LINE
  8
_0-e_極細4
  6
CONTINUOUS
 62
    6
 10
312.0716302633258
 20
383.41060090593663
 11
317.0716302633258
 21
388.41060090593641
  0
LINE
  8
_0-e_極細4
  6
CONTINUOUS
 62
    6
 10
312.0716302633258
 20
387.65324159305595
 11
317.0716302633258
 21
392.65324159305572
  0
LINE
  8
_0-e_極細4
  6
CONTINUOUS
 62
    6
 10
312.0716302633258
 20
391.89588228017527
 11
317.0716302633258
 21
396.89588228017504
  0
LINE
  8
_0-e_極細4
  6
CONTINUOUS
 62
    6
 10
312.0716302633258
 20
396.13852296729459
 11
317.0716302633258
 21
401.13852296729448
  0
LINE
  8
_0-e_極細4
  6
CONTINUOUS
 62
    6
 10
312.0716302633258
 20
400.38116365441368
 11
317.0716302633258
 21
405.38116365441368
  0
LINE
  8
_0-e_極細4
  6
CONTINUOUS
 62
    6
 10
312.0716302633258
 20
404.623804341533
 11
317.0716302633258
 21
409.62380434153278
  0
LINE
  8
_0-e_極細4
  6
CONTINUOUS
 62
    6
 10
312.0716302633258
 20
408.86644502865255
 11
317.0716302633258
 21
413.86644502865232
  0
LINE
  8
_0-e_極細4
  6
CONTINUOUS
 62
    6
 10
312.0716302633258
 20
413.10908571577176
 11
317.0716302633258
 21
418.10908571577141
  0
LINE
  8
_0-e_極細4
  6
CONTINUOUS
 62
    6
 10
312.0716302633258
 20
417.35172640289096
 11
317.0716302633258
 21
422.35172640289085
  0
LINE
  8
_0-e_極細4
  6
CONTINUOUS
 62
    6
 10
312.0716302633258
 20
421.59436709001028
 11
317.0716302633258
 21
426.59436709001005
  0
LINE
  8
_0-e_極細4
  6
CONTINUOUS
 62
    6
 10
312.0716302633258
 20
425.83700777712937
 11
317.0716302633258
 21
430.83700777712937
  0
LINE
  8
_0-e_極細4
  6
CONTINUOUS
 62
    6
 10
312.0716302633258
 20
430.07964846424892
 11
317.0716302633258
 21
435.07964846424869
  0
LINE
  8
_0-e_極細4
  6
CONTINUOUS
 62
    6
 10
311.7622440946401
 20
434.01290298268231
 11
317.0716302633258
 21
439.32228915136778
  0
LINE
  8
_0-e_極細4
  6
CONTINUOUS
 62
    6
 10
310.47384252399604
 20
436.96714209915746
 11
317.0716302633258
 21
443.56492983848722
  0
LINE
  8
_0-e_極細4
  6
CONTINUOUS
 62
    6
 10
308.48301576489609
 20
439.21895602717672
 11
313.86901827369149
 21
444.60495853597257
  0
LINE
  8
_0-e_極細4
  6
CONTINUOUS
 62
    6
 10
314.75901887500606
 20
445.49495913728691
 11
316.0716302633258
 21
446.80757052560642
  0
LINE
  8
_0-e_極細4
  6
CONTINUOUS
 62
    6
 10
307.0716302633258
 20
442.05021121272574
 11
316.0716302633258
 21
451.05021121272574
  0
LINE
  8
_0-e_極細4
  6
CONTINUOUS
 62
    6
 10
307.0716302633258
 20
446.29285189984529
 11
314.43474758138916
 21
453.65596921790865
  0
LINE
  8
_0-e_極細4
  6
CONTINUOUS
 62
    6
 10
307.0716302633258
 20
450.53549258696438
 11
313.11363026332549
 21
456.5774925869643
  0
LINE
  8
_0-e_極細4
  6
CONTINUOUS
 62
    6
 10
307.0716302633258
 20
454.7781332740837
 11
313.11363026332549
 21
460.82013327408339
  0
LINE
  8
_0-e_極細4
  6
CONTINUOUS
 62
    6
 10
304.25581483809526
 20
456.20495853597248
 11
313.11363026332549
 21
465.06277396120294
  0
LINE
  8
_0-e_極細4
  6
CONTINUOUS
 62
    6
 10
300.01317415097594
 20
456.20495853597225
 11
313.11363026332549
 21
469.30541464832214
  0
LINE
  8
_0-e_極細4
  6
CONTINUOUS
 62
    6
 10
299.27163026332562
 20
459.70605533544125
 11
313.11363026332549
 21
473.54805533544146
  0
LINE
  8
_0-e_極細4
  6
CONTINUOUS
 62
    6
 10
299.27163026332562
 20
463.94869602256068
 11
313.11363026332549
 21
477.79069602256067
  0
LINE
  8
_0-e_極細4
  6
CONTINUOUS
 62
    6
 10
299.27163026332562
 20
468.19133670967977
 11
313.11363026332549
 21
482.03333670967999
  0
LINE
  8
_0-e_極細4
  6
CONTINUOUS
 62
    6
 10
299.27163026332562
 20
472.43397739679909
 11
309.82297859439893
 21
482.98532572787252
  0
LINE
  8
_0-e_極細4
  6
CONTINUOUS
 62
    6
 10
299.27163026332562
 20
476.67661808391853
 11
306.0199328496052
 21
483.42492067019822
  0
LINE
  8
_0-e_極細4
  6
CONTINUOUS
 62
    6
 10
299.27163026332562
 20
480.91925877103762
 11
302.21688710481146
 21
483.86451561252369
  0
LINE
  8
_0-e_極細4
  6
CONTINUOUS
 62
    6
 10
514.23625426332524
 20
264.22985453597153
 11
585.8430542633248
 21
265.99550025462213
  0
LINE
  8
_0-e_極細4
  6
CONTINUOUS
 62
    6
 10
491.57163026332466
 20
368.23598702665203
 11
585.8430542633248
 21
365.91148881814519
  0
LINE
  8
_0-e_極細4
  6
CONTINUOUS
 62
    6
 10
585.28888331724238
 20
262.06227005775986
 11
585.8430542633248
 21
262.61644100384194
  0
LINE
  8
_0-e_極細4
  6
CONTINUOUS
 62
    6
 10
580.93898494742768
 20
261.95501237506437
 11
584.95764072982945
 21
265.97366815746591
  0
LINE
  8
_0-e_極細4
  6
CONTINUOUS
 62
    6
 10
576.58908657761287
 20
261.84775469236877
 11
580.60774236001464
 21
265.86641047477042
  0
LINE
  8
_0-e_極細4
  6
CONTINUOUS
 62
    6
 10
572.23918820779807
 20
261.74049700967316
 11
576.25784399019983
 21
265.75915279207504
  0
LINE
  8
_0-e_極細4
  6
CONTINUOUS
 62
    6
 10
567.88928983798337
 20
261.63323932697767
 11
571.90794562038548
 21
265.65189510937967
  0
LINE
  8
_0-e_極細4
  6
CONTINUOUS
 62
    6
 10
563.53939146816856
 20
261.52598164428218
 11
567.55804725057067
 21
265.5446374266844
  0
LINE
  8
_0-e_極細4
  6
CONTINUOUS
 62
    6
 10
559.18949309835386
 20
261.41872396158647
 11
563.20814888075631
 21
265.43737974398914
  0
LINE
  8
_0-e_極細4
  6
CONTINUOUS
 62
    6
 10
554.83959472853871
 20
261.31146627889075
 11
558.8582505109415
 21
265.33012206129365
  0
LINE
  8
_0-e_極細4
  6
CONTINUOUS
 62
    6
 10
550.4896963587239
 20
261.20420859619526
 11
554.50835214112681
 21
265.22286437859839
  0
LINE
  8
_0-e_極細4
  6
CONTINUOUS
 62
    6
 10
546.13979798890921
 20
261.09695091349977
 11
550.158453771312
 21
265.11560669590301
  0
LINE
  8
_0-e_極細4
  6
CONTINUOUS
 62
    6
 10
541.78989961909406
 20
260.98969323080428
 11
545.80855540149764
 21
265.00834901320763
  0
LINE
  8
_0-e_極細4
  6
CONTINUOUS
 62
    6
 10
537.44000124927925
 20
260.88243554810856
 11
541.45865703168283
 21
264.90109133051237
  0
LINE
  8
_0-e_極細4
  6
CONTINUOUS
 62
    6
 10
533.09010287946455
 20
260.77517786541307
 11
537.10875866186848
 21
264.79383364781688
  0
LINE
  8
_0-e_極細4
  6
CONTINUOUS
 62
    6
 10
528.74020450964974
 20
260.66792018271747
 11
532.75886029205367
 21
264.68657596512162
  0
LINE
  8
_0-e_極細4
  6
CONTINUOUS
 62
    6
 10
524.39030613983493
 20
260.56066250002198
 11
528.40896192223897
 21
264.57931828242636
  0
LINE
  8
_0-e_極細4
  6
CONTINUOUS
 62
    6
 10
520.0404077700199
 20
260.45340481732637
 11
524.0590635524245
 21
264.47206059973098
  0
LINE
  8
_0-e_極細4
  6
CONTINUOUS
 62
    6
 10
515.69050940020509
 20
260.34614713463066
 11
519.70916518261015
 21
264.3648029170356
  0
LINE
  8
_0-e_極細4
  6
CONTINUOUS
 62
    6
 10
511.41439211442457
 20
260.31267053596957
 11
515.35926681279534
 21
264.25754523434011
  0
LINE
  8
_0-e_極細4
  6
CONTINUOUS
 62
    6
 10
507.17175142730537
 20
260.3126705359698
 11
511.09011942730774
 21
264.23103853597195
  0
LINE
  8
_0-e_極細4
  6
CONTINUOUS
 62
    6
 10
502.92911074018605
 20
260.3126705359698
 11
506.84747874018842
 21
264.23103853597195
  0
LINE
  8
_0-e_極細4
  6
CONTINUOUS
 62
    6
 10
498.68647005306673
 20
260.31267053596957
 11
502.6048380530691
 21
264.23103853597195
  0
LINE
  8
_0-e_極細4
  6
CONTINUOUS
 62
    6
 10
494.44382936594752
 20
260.3126705359698
 11
498.3621973659499
 21
264.23103853597195
  0
LINE
  8
_0-e_極細4
  6
CONTINUOUS
 62
    6
 10
490.20118867882832
 20
260.3126705359698
 11
494.11955667883058
 21
264.23103853597195
  0
LINE
  8
_0-e_極細4
  6
CONTINUOUS
 62
    6
 10
485.958547991709
 20
260.3126705359698
 11
489.87691599171137
 21
264.23103853597217
  0
LINE
  8
_0-e_極細4
  6
CONTINUOUS
 62
    6
 10
481.71590730458968
 20
260.3126705359698
 11
485.63427530459205
 21
264.23103853597195
  0
LINE
  8
_0-e_極細4
  6
CONTINUOUS
 62
    6
 10
477.47326661747036
 20
260.3126705359698
 11
481.39163461747273
 21
264.23103853597195
  0
LINE
  8
_0-e_極細4
  6
CONTINUOUS
 62
    6
 10
473.23062593035104
 20
260.3126705359698
 11
477.14899393035319
 21
264.23103853597217
  0
LINE
  8
_0-e_極細4
  6
CONTINUOUS
 62
    6
 10
468.98798524323172
 20
260.3126705359698
 11
472.90635324323387
 21
264.23103853597195
  0
LINE
  8
_0-e_極細4
  6
CONTINUOUS
 62
    6
 10
464.74534455611263
 20
260.3126705359698
 11
468.66371255611455
 21
264.23103853597195
  0
LINE
  8
_0-e_極細4
  6
CONTINUOUS
 62
    6
 10
460.50270386899308
 20
260.31267053596957
 11
464.42107186899568
 21
264.23103853597217
  0
LINE
  8
_0-e_極細4
  6
CONTINUOUS
 62
    6
 10
456.26006318187376
 20
260.3126705359698
 11
460.17843118187614
 21
264.23103853597195
  0
LINE
  8
_0-e_極細4
  6
CONTINUOUS
 62
    6
 10
452.01742249475444
 20
260.31267053596957
 11
455.93579049475682
 21
264.23103853597195
  0
LINE
  8
_0-e_極細4
  6
CONTINUOUS
 62
    6
 10
447.77478180763535
 20
260.31267053596957
 11
451.69314980763772
 21
264.23103853597195
  0
LINE
  8
_0-e_極細4
  6
CONTINUOUS
 62
    6
 10
443.53214112051603
 20
260.3126705359698
 11
447.4505091205184
 21
264.23103853597195
  0
LINE
  8
_0-e_極細4
  6
CONTINUOUS
 62
    6
 10
439.28950043339671
 20
260.3126705359698
 11
443.20786843339909
 21
264.23103853597217
  0
LINE
  8
_0-e_極細4
  6
CONTINUOUS
 62
    6
 10
435.04685974627716
 20
260.31267053596957
 11
438.96522774627954
 21
264.23103853597195
  0
LINE
  8
_0-e_極細4
  6
CONTINUOUS
 62
    6
 10
430.80421905915807
 20
260.3126705359698
 11
434.72258705916045
 21
264.23103853597195
  0
LINE
  8
_0-e_極細4
  6
CONTINUOUS
 62
    6
 10
426.56157837203898
 20
260.3126705359698
 11
430.47994637204135
 21
264.23103853597217
  0
LINE
  8
_0-e_極細4
  6
CONTINUOUS
 62
    6
 10
422.31893768491943
 20
260.3126705359698
 11
426.23730568492181
 21
264.23103853597217
  0
LINE
  8
_0-e_極細4
  6
CONTINUOUS
 62
    6
 10
418.07629699780011
 20
260.3126705359698
 11
421.99466499780249
 21
264.23103853597195
  0
LINE
  8
_0-e_極細4
  6
CONTINUOUS
 62
    6
 10
413.83365631068079
 20
260.3126705359698
 11
417.75202431068317
 21
264.23103853597217
  0
LINE
  8
_0-e_極細4
  6
CONTINUOUS
 62
    6
 10
413.07163026332535
 20
263.79328517573333
 11
413.50938362356408
 21
264.23103853597217
  0
LINE
  8
_0-e_極細4
  6
CONTINUOUS
 62
    6
 10
583.13876590619816
 20
365.97816982469732
 11
585.8430542633248
 21
368.68245818182407
  0
LINE
  8
_0-e_極細4
  6
CONTINUOUS
 62
    6
 10
578.9982207366852
 20
366.08026534230379
 11
582.82344986986254
 21
369.90549447548102
  0
LINE
  8
_0-e_極細4
  6
CONTINUOUS
 62
    6
 10
574.85767556717269
 20
366.18236085991015
 11
578.68290473498541
 21
370.0075900277231
  0
LINE
  8
_0-e_極細4
  6
CONTINUOUS
 62
    6
 10
570.71713039765939
 20
366.28445637751651
 11
574.54235960010817
 21
370.10968557996529
  0
LINE
  8
_0-e_極細4
  6
CONTINUOUS
 62
    6
 10
566.57658522814688
 20
366.38655189512286
 11
570.40181446523104
 21
370.21178113220725
  0
LINE
  8
_0-e_極細4
  6
CONTINUOUS
 62
    6
 10
562.43604005863392
 20
366.48864741272945
 11
566.26126933035391
 21
370.31387668444967
  0
LINE
  8
_0-e_極細4
  6
CONTINUOUS
 62
    6
 10
558.29549488912096
 20
366.59074293033581
 11
562.12072419547667
 21
370.41597223669163
  0
LINE
  8
_0-e_極細4
  6
CONTINUOUS
 62
    6
 10
554.15494971960811
 20
366.69283844794217
 11
557.98017906059954
 21
370.51806778893382
  0
LINE
  8
_0-e_極細4
  6
CONTINUOUS
 62
    6
 10
550.01440455009515
 20
366.79493396554875
 11
553.8396339257223
 21
370.6201633411759
  0
LINE
  8
_0-e_極細4
  6
CONTINUOUS
 62
    6
 10
545.8738593805823
 20
366.89702948315511
 11
549.69908879084517
 21
370.72225889341797
  0
LINE
  8
_0-e_極細4
  6
CONTINUOUS
 62
    6
 10
541.73331421106934
 20
366.99912500076147
 11
545.55854365596804
 21
370.82435444566016
  0
LINE
  8
_0-e_極細4
  6
CONTINUOUS
 62
    6
 10
537.59276904155638
 20
367.10122051836805
 11
541.41799852109079
 21
370.92644999790213
  0
LINE
  8
_0-e_極細4
  6
CONTINUOUS
 62
    6
 10
533.45222387204387
 20
367.20331603597452
 11
537.27745338621366
 21
371.02854555014432
  0
LINE
  8
_0-e_極細4
  6
CONTINUOUS
 62
    6
 10
529.31167870253057
 20
367.30541155358088
 11
533.13690825133642
 21
371.13064110238639
  0
LINE
  8
_0-e_極細4
  6
CONTINUOUS
 62
    6
 10
525.17113353301806
 20
367.40750707118724
 11
528.99636311645963
 21
371.23273665462847
  0
LINE
  8
_0-e_極細4
  6
CONTINUOUS
 62
    6
 10
521.0305883635051
 20
367.5096025887936
 11
524.85581798158216
 21
371.33483220687066
  0
LINE
  8
_0-e_極細4
  6
CONTINUOUS
 62
    6
 10
516.89004319399226
 20
367.61169810640007
 11
520.71527284670492
 21
371.43692775911262
  0
LINE
  8
_0-e_極細4
  6
CONTINUOUS
 62
    6
 10
512.74949802447929
 20
367.71379362400631
 11
516.57472771182779
 21
371.53902331135481
  0
LINE
  8
_0-e_極細4
  6
CONTINUOUS
 62
    6
 10
508.60895285496633
 20
367.81588914161279
 11
514.07163026332501
 21
373.27856654997134
  0
LINE
  8
_0-e_極細4
  6
CONTINUOUS
 62
    6
 10
504.46840768545349
 20
367.91798465921914
 11
514.07163026332501
 21
377.52120723709066
  0
LINE
  8
_0-e_極細4
  6
CONTINUOUS
 62
    6
 10
500.32786251594086
 20
368.02008017682573
 11
514.07163026332501
 21
381.76384792420987
  0
LINE
  8
_0-e_極細4
  6
CONTINUOUS
 62
    6
 10
496.18731734642802
 20
368.12217569443209
 11
514.07163026332501
 21
386.00648861132908
  0
LINE
  8
_0-e_極細4
  6
CONTINUOUS
 62
    6
 10
492.04677217691506
 20
368.22427121203845
 11
514.07163026332501
 21
390.24912929844839
  0
LINE
  8
_0-e_極細4
  6
CONTINUOUS
 62
    6
 10
491.57163026332501
 20
371.99176998556771
 11
514.07163026332501
 21
394.49176998556771
  0
LINE
  8
_0-e_極細4
  6
CONTINUOUS
 62
    6
 10
491.57163026332501
 20
376.23441067268703
 11
503.80096520425809
 21
388.46374561362001
  0
LINE
  8
_0-e_極細4
  6
CONTINUOUS
 62
    6
 10
509.07163026332535
 20
393.73441067268726
 11
514.07163026332501
 21
398.73441067268715
  0
LINE
  8
_0-e_極細4
  6
CONTINUOUS
 62
    6
 10
491.57163026332501
 20
380.47705135980624
 11
499.55832451713843
 21
388.46374561362001
  0
LINE
  8
_0-e_極細4
  6
CONTINUOUS
 62
    6
 10
509.07163026332535
 20
397.97705135980658
 11
514.07163026332501
 21
402.97705135980624
  0
LINE
  8
_0-e_極細4
  6
CONTINUOUS
 62
    6
 10
491.57163026332501
 20
384.71969204692545
 11
495.31568383001911
 21
388.46374561362001
  0
LINE
  8
_0-e_極細4
  6
CONTINUOUS
 62
    6
 10
509.07163026332535
 20
402.2196920469259
 11
514.07163026332501
 21
407.21969204692545
  0
LINE
  8
_0-e_極細4
  6
CONTINUOUS
 62
    6
 10
509.07163026332535
 20
406.46233273404533
 11
514.07163026332501
 21
411.46233273404476
  0
LINE
  8
_0-e_極細4
  6
CONTINUOUS
 62
    6
 10
509.07163026332535
 20
410.70497342116442
 11
514.07163026332501
 21
415.70497342116408
  0
LINE
  8
_0-e_極細4
  6
CONTINUOUS
 62
    6
 10
509.07163026332535
 20
414.94761410828363
 11
514.07163026332501
 21
419.94761410828352
  0
LINE
  8
_0-e_極細4
  6
CONTINUOUS
 62
    6
 10
509.07163026332535
 20
419.19025479540318
 11
514.07163026332501
 21
424.19025479540272
  0
LINE
  8
_0-e_極細4
  6
CONTINUOUS
 62
    6
 10
509.07163026332535
 20
423.43289548252227
 11
514.07163026332501
 21
428.43289548252181
  0
LINE
  8
_0-e_極細4
  6
CONTINUOUS
 62
    6
 10
509.07163026332535
 20
427.6755361696417
 11
511.26624726510681
 21
429.87015317142294
  0
LINE
  8
_0-e_極細4
  6
CONTINUOUS
 62
    6
 10
511.26624726510681
 20
429.87015317142294
 11
514.14431729207183
 21
432.74822319838808
  0
LINE
  8
_0-e_極細4
  6
CONTINUOUS
 62
    6
 10
509.07163026332535
 20
431.91817685676091
 11
519.07163026332501
 21
441.91817685676079
  0
LINE
  8
_0-e_極細4
  6
CONTINUOUS
 62
    6
 10
509.07163026332535
 20
436.16081754388023
 11
519.07163026332501
 21
446.16081754388
  0
LINE
  8
_0-e_極細4
  6
CONTINUOUS
 62
    6
 10
509.07163026332535
 20
440.40345823099977
 11
519.07163026332501
 21
450.40345823099932
  0
LINE
  8
_0-e_極細4
  6
CONTINUOUS
 62
    6
 10
524.87313056829817
 20
456.20495853597248
 11
526.87163026332576
 21
458.20345823099973
  0
LINE
  8
_0-e_極細4
  6
CONTINUOUS
 62
    6
 10
510.43431274459158
 20
446.00878139938476
 11
519.07163026332501
 21
454.64609891811864
  0
LINE
  8
_0-e_極細4
  6
CONTINUOUS
 62
    6
 10
520.63048988117896
 20
456.20495853597225
 11
526.87163026332576
 21
462.44609891811905
  0
LINE
  8
_0-e_極細4
  6
CONTINUOUS
 62
    6
 10
510.07163026332535
 20
449.88873960523819
 11
526.87163026332576
 21
466.68873960523825
  0
LINE
  8
_0-e_極細4
  6
CONTINUOUS
 62
    6
 10
513.02963026332554
 20
457.08938029235736
 11
526.87163026332576
 21
470.93138029235757
  0
LINE
  8
_0-e_極細4
  6
CONTINUOUS
 62
    6
 10
513.02963026332554
 20
461.33202097947679
 11
526.87163026332576
 21
475.17402097947678
  0
LINE
  8
_0-e_極細4
  6
CONTINUOUS
 62
    6
 10
513.0296302633252
 20
465.57466166659589
 11
526.87163026332576
 21
479.4166616665961
  0
LINE
  8
_0-e_極細4
  6
CONTINUOUS
 62
    6
 10
513.0296302633252
 20
469.81730235371509
 11
526.87163026332576
 21
483.6593023537153
  0
LINE
  8
_0-e_極細4
  6
CONTINUOUS
 62
    6
 10
513.0296302633252
 20
474.05994304083464
 11
522.69145876223854
 21
483.72177153974786
  0
LINE
  8
_0-e_極細4
  6
CONTINUOUS
 62
    6
 10
513.0296302633252
 20
478.30258372795373
 11
517.89431512630483
 21
483.16726859093302
  0
LINE
  8
_0-e_極細4
  6
CONTINUOUS
 62
    6
 10
513.02963026332554
 20
482.54522441507294
 11
513.09717149037067
 21
482.61276564211818
  0
TEXT
  8
_1-1_寸法4
 62
    7
 10
520.24057872408389
 20
499.68190440930005
 40
24
 41
0.8000000000000001
 50
0
  1
Ｃ部
  0
LINE
  8
_1-1_寸法4
  6
CONTINUOUS
 62
    7
 10
367.05931309478376
 20
480.68383223968038
 11
352.82214308961738
 21
487.98472192820407
  0
LINE
  8
_1-1_寸法4
  6
CONTINUOUS
 62
    7
 10
367.05931309478376
 20
480.68383223968038
 11
358.38000703657372
 21
494.12517318275292
  0
LINE
  8
_1-1_寸法4
  6
CONTINUOUS
 62
    7
 10
367.05931309478376
 20
480.68383223968038
 11
336.05957119155266
 21
508.74241307464456
  0
LINE
  8
_1-1_寸法4
  6
CONTINUOUS
 62
    7
 10
336.05957119155266
 20
508.74241307464456
 11
220.85957119155262
 21
508.74241307464456
  0
TEXT
  8
_1-1_寸法4
 62
    7
 10
220.85957119155273
 20
508.7424130746449
 40
24
 41
0.7999999999999999
 50
-0.0000000000001696
  1
ストレーナー
  0
LINE
  8
_1-1_寸法4
  6
CONTINUOUS
 62
    7
 10
382.39872824673273
 20
376.31680355336169
 11
372.77510561424742
 21
363.53455463435233
  0
LINE
  8
_1-1_寸法4
  6
CONTINUOUS
 62
    7
 10
382.39872824673273
 20
376.31680355336169
 11
367.67330211106082
 21
370.05886258824609
  0
LINE
  8
_1-1_寸法4
  6
CONTINUOUS
 62
    7
 10
382.39872824673273
 20
376.31680355336169
 11
292.02405816858311
 21
305.64665559861055
  0
LINE
  8
_1-1_寸法4
  6
CONTINUOUS
 62
    7
 10
292.02405816858311
 20
305.64665559861055
 11
138.42405816858286
 21
305.64665559861055
  0
TEXT
  8
_1-1_寸法4
 62
    7
 10
138.42405816858286
 20
305.64665559861078
 40
24
 41
0.7999999999999999
 50
-0.0000000000001696
  1
防臭インナー１号
  0
LINE
  8
_1-1_寸法4
  6
CONTINUOUS
 62
    7
 10
322.8164828159164
 20
288.05578208332349
 11
313.10842138683904
 21
275.33754544103454
  0
LINE
  8
_1-1_寸法4
  6
CONTINUOUS
 62
    7
 10
322.8164828159164
 20
288.05578208332349
 11
308.04993667569101
 21
281.89549677429784
  0
LINE
  8
_1-1_寸法4
  6
CONTINUOUS
 62
    7
 10
322.8164828159164
 20
288.05578208332349
 11
292.02405816858311
 21
264.3040033063678
  0
LINE
  8
_1-1_寸法4
  6
CONTINUOUS
 62
    7
 10
292.02405816858311
 20
264.3040033063678
 11
176.82405816858318
 21
264.3040033063678
  0
TEXT
  8
_1-1_寸法4
 62
    7
 10
176.82405816858318
 20
264.30400330636803
 40
24
 41
0.7999999999999999
 50
-0.000000000000113
  1
トラップ本体
  0
LINE
  8
_1-1_寸法4
  6
CONTINUOUS
 62
    7
 10
345.84520344255122
 20
408.07441574037824
 11
336.2281267411704
 21
395.28724108294284
  0
LINE
  8
_1-1_寸法4
  6
CONTINUOUS
 62
    7
 10
345.84520344255122
 20
408.07441574037824
 11
331.12298338029427
 21
401.80893599510102
  0
LINE
  8
_1-1_寸法4
  6
CONTINUOUS
 62
    7
 10
345.84520344255122
 20
408.07441574037824
 11
292.02405816858311
 21
365.94354850862322
  0
LINE
  8
_1-1_寸法4
  6
CONTINUOUS
 62
    7
 10
292.02405816858311
 20
365.94354850862322
 11
138.42405816858286
 21
365.94354850862322
  0
TEXT
  8
_1-1_寸法4
 62
    7
 10
138.42405816858286
 20
365.94354850862345
 40
24
 41
0.7999999999999999
 50
-0.0000000000001696
  1
防臭インナー２号
  0
LINE
  8
_0-a_極細1
  6
CONTINUOUS
 62
    7
 10
643.82710419495641
 20
571.92222933506366
 11
663.02710227495777
 21
571.92222933506366
  0
LINE
  8
_0-a_極細1
  6
CONTINUOUS
 62
    7
 10
643.82710419495641
 20
572.98889589506359
 11
663.02710227495777
 21
572.98889589506359
  0
LINE
  8
_0-a_極細1
  6
CONTINUOUS
 62
    7
 10
643.65522830222915
 20
574.05556245506352
 11
663.02710227495777
 21
574.05556245506352
  0
LINE
  8
_0-a_極細1
  6
CONTINUOUS
 62
    7
 10
642.58856174222899
 20
575.12222901506368
 11
663.02710227495777
 21
575.12222901506368
  0
LINE
  8
_0-a_極細1
  6
CONTINUOUS
 62
    7
 10
641.52189518222929
 20
576.18889557506361
 11
663.02710227495777
 21
576.18889557506361
  0
LINE
  8
_0-a_極細1
  6
CONTINUOUS
 62
    7
 10
641.86564696768335
 20
577.25556213506377
 11
663.02710227495777
 21
577.25556213506377
  0
LINE
  8
_0-a_極細1
  6
CONTINUOUS
 62
    7
 10
642.9323135276835
 20
578.32222869506393
 11
663.02710227495777
 21
578.32222869506393
  0
LINE
  8
_0-a_極細1
  6
CONTINUOUS
 62
    7
 10
643.82710419495641
 20
579.38889525506363
 11
663.02710227495777
 21
579.38889525506363
  0
LINE
  8
_0-a_極細1
  6
CONTINUOUS
 62
    7
 10
643.82710419495641
 20
580.45556181506379
 11
663.02710227495777
 21
580.45556181506379
  0
LINE
  8
_0-a_極細1
  6
CONTINUOUS
 62
    7
 10
643.82710419495641
 20
581.52222837506395
 11
663.02710227495777
 21
581.52222837506395
  0
LINE
  8
_0-a_極細1
  6
CONTINUOUS
 62
    7
 10
643.82710419495641
 20
582.58889493506388
 11
663.02710227495777
 21
582.58889493506388
  0
LINE
  8
_0-a_極細1
  6
CONTINUOUS
 62
    7
 10
643.82710419495641
 20
583.65556149506403
 11
663.02710227495777
 21
583.65556149506403
  0
LINE
  8
_0-a_極細1
  6
CONTINUOUS
 62
    7
 10
643.82710419495641
 20
584.72222805506419
 11
663.02710227495777
 21
584.72222805506419
  0
LINE
  8
_0-a_極細1
  6
CONTINUOUS
 62
    7
 10
643.82710419495641
 20
585.78889461506412
 11
663.02710227495777
 21
585.78889461506412
  0
LINE
  8
_0-a_極細1
  6
CONTINUOUS
 62
    7
 10
643.12189502222873
 20
586.85556117506405
 11
663.40321383374589
 21
586.85556117506405
  0
LINE
  8
_0-a_極細1
  6
CONTINUOUS
 62
    7
 10
642.05522846222891
 20
587.92222773506421
 11
663.97210266574552
 21
587.92222773506421
  0
LINE
  8
_0-a_極細1
  6
CONTINUOUS
 62
    7
 10
641.3323136876844
 20
588.98889429506414
 11
664.54099149774561
 21
588.98889429506414
  0
LINE
  8
_0-a_極細1
  6
CONTINUOUS
 62
    7
 10
642.39898024768422
 20
590.0555608550643
 11
665.10988032974569
 21
590.0555608550643
  0
LINE
  8
_0-a_極細1
  6
CONTINUOUS
 62
    7
 10
643.46564680768438
 20
591.12222741506446
 11
665.67876916174578
 21
591.12222741506446
  0
LINE
  8
_0-a_極細1
  6
CONTINUOUS
 62
    7
 10
643.82710419495641
 20
592.18889397506416
 11
666.24765799374586
 21
592.18889397506416
  0
LINE
  8
_0-a_極細1
  6
CONTINUOUS
 62
    7
 10
643.82710419495641
 20
593.25556053506432
 11
666.81654682574526
 21
593.25556053506432
  0
LINE
  8
_0-a_極細1
  6
CONTINUOUS
 62
    7
 10
697.7367904795658
 20
545.89412770353749
 11
697.7367904795658
 21
628.21382825647163
  0
LINE
  8
_0-a_極細1
  6
CONTINUOUS
 62
    7
 10
696.67012391956609
 20
544.82746114353756
 11
696.67012391956609
 21
627.98310000292634
  0
LINE
  8
_0-a_極細1
  6
CONTINUOUS
 62
    7
 10
695.60345735956594
 20
543.7607945835374
 11
695.60345735956594
 21
627.5132959738711
  0
LINE
  8
_0-a_極細1
  6
CONTINUOUS
 62
    7
 10
694.53679079956578
 20
542.6941280235377
 11
694.53679079956578
 21
626.72247856787942
  0
LINE
  8
_0-a_極細1
  6
CONTINUOUS
 62
    7
 10
693.47012423956608
 20
541.62746146353777
 11
693.47012423956608
 21
625.34103456818355
  0
LINE
  8
_0-a_極細1
  6
CONTINUOUS
 62
    7
 10
692.40345767956615
 20
540.56079490353784
 11
692.40345767956615
 21
621.18344783707209
  0
LINE
  8
_0-a_極細1
  6
CONTINUOUS
 62
    7
 10
691.33679111956599
 20
539.49412834353745
 11
691.33679111956599
 21
618.97405973168054
  0
LINE
  8
_0-a_極細1
  6
CONTINUOUS
 62
    7
 10
690.27012455956583
 20
538.6511034189283
 11
690.27012455956583
 21
617.65303512135313
  0
LINE
  8
_0-a_極細1
  6
CONTINUOUS
 62
    7
 10
689.20345799956613
 20
538.6511034189283
 11
689.20345799956613
 21
616.71849884729306
  0
LINE
  8
_0-a_極細1
  6
CONTINUOUS
 62
    7
 10
688.13679143956551
 20
538.6511034189283
 11
688.13679143956551
 21
616.03299026024922
  0
LINE
  8
_0-a_極細1
  6
CONTINUOUS
 62
    7
 10
687.07012487956581
 20
538.6511034189283
 11
687.07012487956581
 21
615.53567408074912
  0
LINE
  8
_0-a_極細1
  6
CONTINUOUS
 62
    7
 10
686.00345831956588
 20
538.6511034189283
 11
686.00345831956588
 21
615.1945492514086
  0
LINE
  8
_0-a_極細1
  6
CONTINUOUS
 62
    7
 10
684.93679175956549
 20
538.6511034189283
 11
684.93679175956549
 21
614.99182331604095
  0
LINE
  8
_0-a_極細1
  6
CONTINUOUS
 62
    7
 10
683.87012519956556
 20
538.6511034189283
 11
683.87012519956556
 21
614.91820747846612
  0
LINE
  8
_0-a_極細1
  6
CONTINUOUS
 62
    7
 10
682.80345863956541
 20
538.6511034189283
 11
682.80345863956541
 21
614.91776245892891
  0
LINE
  8
_0-a_極細1
  6
CONTINUOUS
 62
    7
 10
681.73679207956525
 20
538.6511034189283
 11
681.73679207956525
 21
614.91776245892891
  0
LINE
  8
_0-a_極細1
  6
CONTINUOUS
 62
    7
 10
680.67012551956554
 20
538.6511034189283
 11
680.67012551956554
 21
614.91776245892891
  0
LINE
  8
_0-a_極細1
  6
CONTINUOUS
 62
    7
 10
679.60345895956584
 20
538.6511034189283
 11
679.60345895956584
 21
614.91776245892891
  0
LINE
  8
_0-a_極細1
  6
CONTINUOUS
 62
    7
 10
678.53679239956568
 20
538.6511034189283
 11
678.53679239956568
 21
614.91776245892891
  0
LINE
  8
_0-a_極細1
  6
CONTINUOUS
 62
    7
 10
677.47012583956553
 20
538.6511034189283
 11
677.47012583956553
 21
614.91776245892891
  0
LINE
  8
_0-a_極細1
  6
CONTINUOUS
 62
    7
 10
676.4034592795656
 20
538.6511034189283
 11
676.4034592795656
 21
614.8234102737091
  0
LINE
  8
_0-a_極細1
  6
CONTINUOUS
 62
    7
 10
675.33679271956544
 20
538.6511034189283
 11
675.33679271956544
 21
614.51301139708391
  0
LINE
  8
_0-a_極細1
  6
CONTINUOUS
 62
    7
 10
674.27012615956573
 20
538.6511034189283
 11
674.27012615956573
 21
613.94307431947198
  0
LINE
  8
_0-a_極細1
  6
CONTINUOUS
 62
    7
 10
673.20345959956558
 20
538.6511034189283
 11
673.20345959956558
 21
612.99483365228582
  0
LINE
  8
_0-a_極細1
  6
CONTINUOUS
 62
    7
 10
672.13679303956542
 20
538.6511034189283
 11
672.13679303956542
 21
611.15423712928794
  0
LINE
  8
_0-a_極細1
  6
CONTINUOUS
 62
    7
 10
671.07012647956526
 20
538.6511034189283
 11
671.07012647956526
 21
549.31776901892806
  0
LINE
  8
_0-a_極細1
  6
CONTINUOUS
 62
    7
 10
670.0034599195651
 20
538.6511034189283
 11
670.0034599195651
 21
549.31776901892806
  0
LINE
  8
_0-a_極細1
  6
CONTINUOUS
 62
    7
 10
668.93679335956494
 20
538.6511034189283
 11
668.93679335956494
 21
549.31776901892806
  0
LINE
  8
_0-a_極細1
  6
CONTINUOUS
 62
    7
 10
667.87012679956501
 20
538.6511034189283
 11
667.87012679956501
 21
549.31776901892806
  0
LINE
  8
_0-a_極細1
  6
CONTINUOUS
 62
    7
 10
666.80346023956531
 20
538.6511034189283
 11
666.80346023956531
 21
549.31776901892806
  0
LINE
  8
_0-a_極細1
  6
CONTINUOUS
 62
    7
 10
665.73679367956515
 20
538.6511034189283
 11
665.73679367956515
 21
549.31776901892806
  0
LINE
  8
_0-a_極細1
  6
CONTINUOUS
 62
    7
 10
664.670127119565
 20
538.6511034189283
 11
664.670127119565
 21
549.31776901892806
  0
LINE
  8
_0-a_極細1
  6
CONTINUOUS
 62
    7
 10
663.60346055956529
 20
538.6511034189283
 11
663.60346055956529
 21
549.31776901892806
  0
LINE
  8
_0-a_極細1
  6
CONTINUOUS
 62
    7
 10
662.53679399956468
 20
538.6511034189283
 11
662.53679399956468
 21
549.31776901892806
  0
LINE
  8
_0-a_極細1
  6
CONTINUOUS
 62
    7
 10
661.47012743956498
 20
538.6511034189283
 11
661.47012743956498
 21
549.31776901892806
  0
LINE
  8
_0-a_極細1
  6
CONTINUOUS
 62
    7
 10
660.40346087956618
 20
527.98443781892809
 11
660.40346087956618
 21
559.98443461892828
  0
LINE
  8
_0-a_極細1
  6
CONTINUOUS
 62
    7
 10
659.33679431956648
 20
527.98443781892809
 11
659.33679431956648
 21
559.98443461892828
  0
LINE
  8
_0-a_極細1
  6
CONTINUOUS
 62
    7
 10
658.27012775956632
 20
527.98443781892809
 11
658.27012775956632
 21
531.68247107055197
  0
LINE
  8
_0-a_極細1
  6
CONTINUOUS
 62
    7
 10
658.27012775956632
 20
539.18859136517983
 11
658.27012775956632
 21
559.98443461892828
  0
LINE
  8
_0-a_極細1
  6
CONTINUOUS
 62
    7
 10
657.20346119956616
 20
527.98443781892809
 11
657.20346119956616
 21
528.76982084132135
  0
LINE
  8
_0-a_極細1
  6
CONTINUOUS
 62
    7
 10
657.20346119956616
 20
539.18859136517983
 11
657.20346119956616
 21
559.98443461892828
  0
LINE
  8
_0-a_極細1
  6
CONTINUOUS
 62
    7
 10
656.13679463956623
 20
539.18859136517983
 11
656.13679463956623
 21
559.98443461892828
  0
LINE
  8
_0-a_極細1
  6
CONTINUOUS
 62
    7
 10
655.07012807956653
 20
539.18859136517983
 11
655.07012807956653
 21
559.98443461892828
  0
LINE
  8
_0-a_極細1
  6
CONTINUOUS
 62
    7
 10
654.00346151956592
 20
539.18859136517983
 11
654.00346151956592
 21
559.98443461892828
  0
LINE
  8
_0-a_極細1
  6
CONTINUOUS
 62
    7
 10
652.93679495956621
 20
539.18859136517983
 11
652.93679495956621
 21
559.98443461892828
  0
LINE
  8
_0-a_極細1
  6
CONTINUOUS
 62
    7
 10
651.87012839956606
 20
539.18859136517983
 11
651.87012839956606
 21
559.98443461892828
  0
LINE
  8
_0-a_極細1
  6
CONTINUOUS
 62
    7
 10
650.8034618395659
 20
539.18859136517983
 11
650.8034618395659
 21
559.98443461892828
  0
LINE
  8
_0-a_極細1
  6
CONTINUOUS
 62
    7
 10
649.73679527956574
 20
539.18859136517983
 11
649.73679527956574
 21
559.98443461892828
  0
LINE
  8
_0-a_極細1
  6
CONTINUOUS
 62
    7
 10
648.67012871956592
 20
539.18859136517983
 11
648.67012871956592
 21
559.98443461892828
  0
LINE
  8
_0-a_極細1
  6
CONTINUOUS
 62
    7
 10
647.60346215956577
 20
539.18859136517983
 11
647.60346215956577
 21
559.98443461892828
  0
LINE
  8
_0-a_極細1
  6
CONTINUOUS
 62
    7
 10
646.53679559956595
 20
539.18859136517983
 11
646.53679559956595
 21
559.98443461892828
  0
LINE
  8
_0-a_極細1
  6
CONTINUOUS
 62
    7
 10
631.8271053949569
 20
523.18859296518019
 11
631.8271053949569
 21
538.6511034189283
  0
ARC
  8
_0-a_極細1
  6
CONTINUOUS
 62
    7
 10
615.82710699495738
 20
539.18859136517983
 40
15.999998399999999
 50
358.07490068720398
 51
50.029499419963109
  0
LINE
  8
_0-a_極細1
  6
CONTINUOUS
 62
    7
 10
698.38176540615723
 20
620.98889109506365
 11
705.09055456092688
 21
620.98889109506365
  0
LINE
  8
_0-a_極細1
  6
CONTINUOUS
 62
    7
 10
698.38176540615723
 20
622.05555765506358
 11
714.31855363812724
 21
622.05555765506358
  0
LINE
  8
_0-a_極細1
  6
CONTINUOUS
 62
    7
 10
698.38176540615723
 20
623.12222421506351
 11
723.54655271532692
 21
623.12222421506351
  0
LINE
  8
_0-a_極細1
  6
CONTINUOUS
 62
    7
 10
698.38176540615723
 20
624.18889077506367
 11
732.77455179252706
 21
624.18889077506367
  0
LINE
  8
_0-a_極細1
  6
CONTINUOUS
 62
    7
 10
698.38176540615723
 20
625.2555573350636
 11
735.29376171495687
 21
625.2555573350636
  0
LINE
  8
_0-a_極細1
  6
CONTINUOUS
 62
    7
 10
698.38176540615723
 20
626.32222389506376
 11
735.29376171495687
 21
626.32222389506376
  0
LINE
  8
_0-a_極細1
  6
CONTINUOUS
 62
    7
 10
698.38176540615723
 20
627.38889045506392
 11
735.29376171495687
 21
627.38889045506392
  0
LINE
  8
_0-a_極細1
  6
CONTINUOUS
 62
    7
 10
700.081830358763
 20
628.45555701506407
 11
735.29376171495687
 21
628.45555701506407
  0
LINE
  8
_0-a_極細1
  6
CONTINUOUS
 62
    7
 10
707.57089223796288
 20
629.52222357506378
 11
735.29376171495687
 21
629.52222357506378
  0
LINE
  8
_0-a_極細1
  6
CONTINUOUS
 62
    7
 10
715.05995411716253
 20
630.58889013506393
 11
735.29376171495687
 21
630.58889013506393
  0
LINE
  8
_0-a_極細1
  6
CONTINUOUS
 62
    7
 10
722.54901599636219
 20
631.65555669506409
 11
735.29376171495687
 21
631.65555669506409
  0
LINE
  8
_0-a_極細1
  6
CONTINUOUS
 62
    7
 10
730.03807787556229
 20
632.72222325506402
 11
735.29376171495687
 21
632.72222325506402
  0
LINE
  8
_0-a_極細1
  6
CONTINUOUS
 62
    7
 10
735.29376171495687
 20
633.54675259602925
 11
735.29376171495687
 21
637.24179763809946
  0
LINE
  8
_0-a_極細1
  6
CONTINUOUS
 62
    7
 10
698.38176540615723
 20
631.9844274189287
 11
735.29376171495687
 21
637.24179763809946
  0
LINE
  8
_0-a_極細1
  6
CONTINUOUS
 62
    7
 10
663.82710219495652
 20
595.18858576517994
 11
663.82710219495652
 21
599.98443061892829
  0
LINE
  8
_0-a_極細1
  6
CONTINUOUS
 62
    7
 10
663.82710219495652
 20
562.65525568517944
 11
663.82710219495652
 21
570.65525488517926
  0
LINE
  8
_0-a_極細1
  6
CONTINUOUS
 62
    7
 10
643.82710419495686
 20
586.15035200233649
 11
643.82710419495686
 21
579.2170193623366
  0
LINE
  8
_0-a_極細1
  6
CONTINUOUS
 62
    7
 10
643.82710419495686
 20
573.88368656233627
 11
643.82710419495686
 21
571.21702016233655
  0
LINE
  8
_0-a_極細1
  6
CONTINUOUS
 62
    7
 10
663.02710227495754
 20
586.15035200233649
 11
663.02710227495754
 21
571.21702016233655
  0
LINE
  8
_0-a_極細1
  6
CONTINUOUS
 62
    7
 10
641.16043779495681
 20
588.81701840233643
 11
643.82710419495686
 21
591.48368480233637
  0
LINE
  8
_0-a_極細1
  6
CONTINUOUS
 62
    7
 10
643.82710419495686
 20
586.15035200233649
 11
641.16043779495681
 21
588.81701840233643
  0
LINE
  8
_0-a_極細1
  6
CONTINUOUS
 62
    7
 10
643.82710419495686
 20
573.88368656233627
 11
641.16043779495681
 21
576.55035296233666
  0
LINE
  8
_0-a_極細1
  6
CONTINUOUS
 62
    7
 10
641.16043779495681
 20
576.55035296233666
 11
643.82710419495686
 21
579.2170193623366
  0
LINE
  8
_0-a_極細1
  6
CONTINUOUS
 62
    7
 10
663.02710227495754
 20
586.15035200233649
 11
667.29376851495704
 21
594.15035120233586
  0
LINE
  8
_0-a_極細1
  6
CONTINUOUS
 62
    7
 10
643.82710419495686
 20
594.15035120233586
 11
643.82710419495686
 21
591.48368480233637
  0
ARC
  8
_0-a_極細1
  6
CONTINUOUS
 62
    7
 10
676.89376755495732
 20
626.6510946189286
 40
2.6666664000000004
 50
24.054548999999657
 51
89.999999999999915
  0
ARC
  8
_0-a_極細1
  6
CONTINUOUS
 62
    7
 10
678.49376739495733
 20
619.71776197892848
 40
1.0666665599999394
 50
269.99999999999977
 51
359.99999999999966
  0
ARC
  8
_0-a_極細1
  6
CONTINUOUS
 62
    7
 10
676.89376755495732
 20
626.6510946189286
 40
2.6666664000000004
 50
0
 51
24.054548999999657
  0
LINE
  8
_0-a_極細1
  6
CONTINUOUS
 62
    7
 10
668.0937684349567
 20
602.65109701892823
 11
668.09376843495829
 21
618.65109541892878
  0
LINE
  8
_0-a_極細1
  6
CONTINUOUS
 62
    7
 10
668.09376843495829
 20
618.65109541892878
 11
678.49376739495733
 21
618.65109541892878
  0
LINE
  8
_0-a_極細1
  6
CONTINUOUS
 62
    7
 10
679.56043395495749
 20
619.71776197892848
 11
679.56043395495749
 21
626.6510946189286
  0
LINE
  8
_0-a_極細1
  6
CONTINUOUS
 62
    7
 10
661.16043579495681
 20
538.6511034189283
 11
690.49376619495615
 21
538.6511034189283
  0
LINE
  8
_0-a_極細1
  6
CONTINUOUS
 62
    7
 10
656.73278823772171
 20
527.98443781892809
 11
661.16043579495681
 21
527.98443781892809
  0
LINE
  8
_0-a_極細1
  6
CONTINUOUS
 62
    7
 10
661.16043579495681
 20
553.05110197892861
 11
668.0937684349567
 21
553.05110197892861
  0
LINE
  8
_0-a_極細1
  6
CONTINUOUS
 62
    7
 10
661.16043579495681
 20
549.31776901892806
 11
671.82710139495657
 21
549.31776901892806
  0
LINE
  8
_0-a_極細1
  6
CONTINUOUS
 62
    7
 10
661.16043579495681
 20
527.98443781892809
 11
661.16043579495681
 21
559.98443461892828
  0
LINE
  8
_0-a_極細1
  6
CONTINUOUS
 62
    7
 10
698.38176540615723
 20
546.53910263012847
 11
690.49376619495615
 21
538.6511034189283
  0
LINE
  8
_0-a_極細1
  6
CONTINUOUS
 62
    7
 10
671.82710139495657
 20
549.31776901892806
 11
671.82710139495725
 21
609.3177630189283
  0
ARC
  8
_0-a_極細1
  6
CONTINUOUS
 62
    7
 10
677.42710083495717
 20
609.3177630189283
 40
5.5999994400000617
 50
89.999999999999915
 51
179.99999999999983
  0
LINE
  8
_0-a_極細1
  6
CONTINUOUS
 62
    7
 10
683.78029486630498
 20
614.91776245892891
 11
677.42710083495717
 21
614.91776245892891
  0
ARC
  8
_0-a_極細1
  6
CONTINUOUS
 62
    7
 10
683.78029486630498
 20
623.9844282189282
 40
9.066665759999939
 50
269.99999999999977
 51
356.64911199999887
  0
ARC
  8
_0-a_極細1
  6
CONTINUOUS
 62
    7
 10
683.78029486630498
 20
623.9844282189282
 40
5.3333328000000009
 50
269.99999999999977
 51
356.64911200000176
  0
ARC
  8
_0-a_極細1
  6
CONTINUOUS
 62
    7
 10
698.38176540615723
 20
622.65109501892846
 40
9.3333324000000015
 50
89.999999999999915
 51
175.84900999999914
  0
ARC
  8
_0-a_極細1
  6
CONTINUOUS
 62
    7
 10
677.42710083495717
 20
609.3177630189283
 40
9.3333324000000015
 50
89.999999999999915
 51
179.99999999999983
  0
LINE
  8
_0-a_極細1
  6
CONTINUOUS
 62
    7
 10
679.82710059495753
 20
618.65109541892878
 11
679.82710059495753
 21
631.9844274189287
  0
LINE
  8
_0-a_極細1
  6
CONTINUOUS
 62
    7
 10
668.0937684349567
 20
553.05110197892861
 11
668.0937684349567
 21
609.3177630189283
  0
LINE
  8
_0-a_極細1
  6
CONTINUOUS
 62
    7
 10
683.78029486630498
 20
618.65109541892878
 11
677.42710083495717
 21
618.65109541892878
  0
LINE
  8
_0-a_極細1
  6
CONTINUOUS
 62
    7
 10
646.4937705949576
 20
559.98443461892828
 11
668.0937684349567
 21
559.98443461892828
  0
LINE
  8
_0-a_極細1
  6
CONTINUOUS
 62
    7
 10
735.29376171495687
 20
624.4800868360295
 11
698.38176540615723
 21
620.21342059602932
  0
LINE
  8
_0-a_極細1
  6
CONTINUOUS
 62
    7
 10
698.38176540615541
 20
518.88009739602933
 11
690.49376619495615
 21
523.14676363602928
  0
LINE
  8
_0-a_極細1
  6
CONTINUOUS
 62
    7
 10
690.49376619495615
 20
523.14676363602928
 11
690.49376619495615
 21
538.6511034189283
  0
LINE
  8
_0-a_極細1
  6
CONTINUOUS
 62
    7
 10
735.29376171495687
 20
552.7747126732346
 11
735.29376171495687
 21
637.1658349007879
  0
LINE
  8
_0-a_極細1
  6
CONTINUOUS
 62
    7
 10
714.49376379495629
 20
549.81342763602913
 11
735.29376171495687
 21
549.81342763602913
  0
LINE
  8
_0-a_極細1
  6
CONTINUOUS
 62
    7
 10
735.29376171495687
 20
549.81342763602913
 11
735.29376171495687
 21
552.7747126732346
  0
LINE
  8
_0-a_極細1
  6
CONTINUOUS
 62
    7
 10
714.49376379495629
 20
507.14676523602895
 11
714.49376379495629
 21
549.81342763602913
  0
LINE
  8
_0-a_極細1
  6
CONTINUOUS
 62
    7
 10
698.38176540615723
 20
628.2134168826916
 11
735.29376171495687
 21
633.47078993695857
  0
LINE
  8
_0-a_極細1
  6
CONTINUOUS
 62
    7
 10
698.38176540615723
 20
546.53910263012847
 11
698.38176540615723
 21
628.25109445892883
  0
ARC
  8
_0-a_極細1
  6
CONTINUOUS
 62
    7
 10
698.38176540615723
 20
622.65109501892846
 40
5.5999994400000617
 50
89.999999999999915
 51
175.84900999999994
  0
LINE
  8
_0-a_極細1
  6
CONTINUOUS
 62
    7
 10
647.82710379495711
 20
523.18859296518019
 11
631.8271053949569
 21
523.18859296518019
  0
ARC
  8
_0-a_極細1
  6
CONTINUOUS
 62
    7
 10
647.82710379495711
 20
533.85525856517995
 40
10.666665600000002
 50
269.99999999999977
 51
359.99999999999966
  0
LINE
  8
_0-a_極細1
  6
CONTINUOUS
 62
    7
 10
658.49376939495687
 20
533.85525856517995
 11
658.49376939495687
 21
539.18859136517983
  0
LINE
  8
_0-a_極細1
  6
CONTINUOUS
 62
    7
 10
658.49376939495687
 20
539.18859136517983
 11
646.4937705949576
 21
539.18859136517983
  0
LINE
  8
_0-a_極細1
  6
CONTINUOUS
 62
    7
 10
663.82710219495652
 20
562.65525568517944
 11
646.4937705949576
 21
562.65525568517944
  0
LINE
  8
_0-a_極細1
  6
CONTINUOUS
 62
    7
 10
646.4937705949576
 20
539.18859136517983
 11
646.4937705949576
 21
562.6552556851799
  0
LINE
  8
_0-a_極細1
  6
CONTINUOUS
 62
    7
 10
662.22710235495742
 20
599.98443061892829
 11
662.22710235495742
 21
605.31776341892817
  0
ARC
  8
_0-a_極細1
  6
CONTINUOUS
 62
    7
 10
665.42710203495676
 20
602.65109701892823
 40
2.6666664000000004
 50
269.99999999999977
 51
359.99999999999966
  0
CIRCLE
  8
_0-a_極細1
  6
CONTINUOUS
 62
    7
 10
669.29472754747462
 20
586.20384480661494
 40
99.281077021678641
  0
ARC
  8
_0-a_極細1
  6
CONTINUOUS
 62
    7
 10
727.82709579495645
 20
484.052756878764
 40
26.666664000000004
 50
120.00000000000088
 51
161.13978923390169
  0
LINE
  8
_0-a_極細1
  6
CONTINUOUS
 62
    7
 10
687.82709979495644
 20
488.66778258619689
 11
687.82709979495644
 21
518.88009739602933
  0
LINE
  8
_0-a_極細1
  6
CONTINUOUS
 62
    7
 10
712.38299969366471
 20
505.79191197970874
 11
714.49376379495675
 21
507.902676081001
  0
LINE
  8
_0-a_極細1
  6
CONTINUOUS
 62
    7
 10
687.82709979495644
 20
488.77848365941026
 11
714.49376379495675
 21
515.44514765941028
  0
LINE
  8
_0-a_極細1
  6
CONTINUOUS
 62
    7
 10
687.82709979495644
 20
492.54971944861489
 11
714.49376379495675
 21
519.21638344861492
  0
LINE
  8
_0-a_極細1
  6
CONTINUOUS
 62
    7
 10
687.82709979495644
 20
496.32095523781965
 11
714.49376379495675
 21
522.98761923781956
  0
LINE
  8
_0-a_極細1
  6
CONTINUOUS
 62
    7
 10
687.82709979495644
 20
500.09219102702434
 11
714.49376379495675
 21
526.7588550270242
  0
LINE
  8
_0-a_極細1
  6
CONTINUOUS
 62
    7
 10
687.82709979495644
 20
503.86342681622898
 11
714.49376379495675
 21
530.53009081622884
  0
LINE
  8
_0-a_極細1
  6
CONTINUOUS
 62
    7
 10
733.77710061475682
 20
549.81342763602913
 11
735.29376171495687
 21
551.33008873622896
  0
LINE
  8
_0-a_極細1
  6
CONTINUOUS
 62
    7
 10
687.82709979495644
 20
507.63466260543316
 11
714.49376379495675
 21
534.30132660543347
  0
LINE
  8
_0-a_極細1
  6
CONTINUOUS
 62
    7
 10
730.00586482555241
 20
549.81342763602913
 11
735.29376171495733
 21
555.10132452543382
  0
LINE
  8
_0-a_極細1
  6
CONTINUOUS
 62
    7
 10
687.82709979495644
 20
511.40589839463803
 11
695.30129879634774
 21
518.88009739602933
  0
LINE
  8
_0-a_極細1
  6
CONTINUOUS
 62
    7
 10
696.38263854529328
 20
519.96143714497464
 11
714.49376379495675
 21
538.07256239463834
  0
LINE
  8
_0-a_極細1
  6
CONTINUOUS
 62
    7
 10
726.234629036348
 20
549.81342763602959
 11
735.29376171495687
 21
558.87256031463846
  0
LINE
  8
_0-a_極細1
  6
CONTINUOUS
 62
    7
 10
687.82709979495644
 20
515.17713418384244
 11
691.53006300714355
 21
518.88009739602978
  0
LINE
  8
_0-a_極細1
  6
CONTINUOUS
 62
    7
 10
693.93522400723577
 20
521.28525839612155
 11
714.49376379495675
 21
541.84379818384275
  0
LINE
  8
_0-a_極細1
  6
CONTINUOUS
 62
    7
 10
722.46339324714336
 20
549.81342763602913
 11
735.29376171495687
 21
562.6437961038431
  0
LINE
  8
_0-a_極細1
  6
CONTINUOUS
 62
    7
 10
691.48780946917782
 20
522.60907964726846
 11
714.49376379495675
 21
545.61503397304762
  0
LINE
  8
_0-a_極細1
  6
CONTINUOUS
 62
    7
 10
718.69215745793826
 20
549.81342763602913
 11
735.29376171495687
 21
566.41503189304751
  0
LINE
  8
_0-a_極細1
  6
CONTINUOUS
 62
    7
 10
690.49376619495683
 20
525.38627216225188
 11
714.49376379495675
 21
549.38626976225225
  0
LINE
  8
_0-a_極細1
  6
CONTINUOUS
 62
    7
 10
714.92092166873385
 20
549.81342763602913
 11
735.29376171495687
 21
570.18626768225215
  0
LINE
  8
_0-a_極細1
  6
CONTINUOUS
 62
    7
 10
690.49376619495683
 20
529.15750795145652
 11
735.29376171495687
 21
573.95750347145702
  0
LINE
  8
_0-a_極細1
  6
CONTINUOUS
 62
    7
 10
690.49376619495683
 20
532.92874374066093
 11
735.29376171495733
 21
577.72873926066165
  0
LINE
  8
_0-a_極細1
  6
CONTINUOUS
 62
    7
 10
690.49376619495683
 20
536.69997952986557
 11
735.29376171495733
 21
581.49997504986629
  0
LINE
  8
_0-a_極細1
  6
CONTINUOUS
 62
    7
 10
698.38176540615768
 20
548.35921453027129
 11
735.29376171495687
 21
585.27121083907093
  0
LINE
  8
_0-a_極細1
  6
CONTINUOUS
 62
    7
 10
698.38176540615768
 20
552.1304503194757
 11
735.29376171495687
 21
589.04244662827534
  0
LINE
  8
_0-a_極細1
  6
CONTINUOUS
 62
    7
 10
698.38176540615723
 20
555.90168610868034
 11
735.29376171495687
 21
592.81368241747998
  0
LINE
  8
_0-a_極細1
  6
CONTINUOUS
 62
    7
 10
698.38176540615723
 20
559.6729218978852
 11
735.29376171495687
 21
596.58491820668462
  0
LINE
  8
_0-a_極細1
  6
CONTINUOUS
 62
    7
 10
698.38176540615768
 20
563.44415768708984
 11
735.29376171495733
 21
600.35615399588926
  0
LINE
  8
_0-a_極細1
  6
CONTINUOUS
 62
    7
 10
698.38176540615768
 20
567.21539347629448
 11
735.29376171495733
 21
604.12738978509412
  0
LINE
  8
_0-a_極細1
  6
CONTINUOUS
 62
    7
 10
698.38176540615768
 20
570.98662926549912
 11
735.29376171495733
 21
607.89862557429876
  0
LINE
  8
_0-a_極細1
  6
CONTINUOUS
 62
    7
 10
698.38176540615768
 20
574.75786505470376
 11
735.29376171495687
 21
611.6698613635034
  0
LINE
  8
_0-a_極細1
  6
CONTINUOUS
 62
    7
 10
698.38176540615768
 20
578.5291008439084
 11
735.29376171495687
 21
615.44109715270781
  0
LINE
  8
_0-a_極細1
  6
CONTINUOUS
 62
    7
 10
698.38176540615768
 20
582.30033663311303
 11
735.29376171495687
 21
619.21233294191268
  0
LINE
  8
_0-a_極細1
  6
CONTINUOUS
 62
    7
 10
698.38176540615723
 20
586.07157242231744
 11
735.29376171495733
 21
622.98356873111709
  0
LINE
  8
_0-a_極細1
  6
CONTINUOUS
 62
    7
 10
698.38176540615723
 20
589.84280821152186
 11
732.72174389221732
 21
624.18278669758263
  0
LINE
  8
_0-a_極細1
  6
CONTINUOUS
 62
    7
 10
698.38176540615723
 20
593.61404400072672
 11
728.45761664224506
 21
623.68989523681387
  0
LINE
  8
_0-a_極細1
  6
CONTINUOUS
 62
    7
 10
698.38176540615723
 20
597.38527978993136
 11
724.19348939227143
 21
623.19700377604556
  0
LINE
  8
_0-a_極細1
  6
CONTINUOUS
 62
    7
 10
698.38176540615723
 20
601.156515579136
 11
719.92936214229871
 21
622.70411231527703
  0
LINE
  8
_0-a_極細1
  6
CONTINUOUS
 62
    7
 10
698.38176540615723
 20
604.92775136834086
 11
715.66523489232509
 21
622.2112208545085
  0
LINE
  8
_0-a_極細1
  6
CONTINUOUS
 62
    7
 10
698.38176540615723
 20
608.69898715754505
 11
711.40110764235192
 21
621.71832939373996
  0
LINE
  8
_0-a_極細1
  6
CONTINUOUS
 62
    7
 10
698.38176540615723
 20
612.47022294674969
 11
707.1369803923792
 21
621.22543793297143
  0
LINE
  8
_0-a_極細1
  6
CONTINUOUS
 62
    7
 10
698.38176540615723
 20
616.24145873595455
 11
702.87285314240603
 21
620.7325464722029
  0
LINE
  8
_0-a_極細1
  6
CONTINUOUS
 62
    7
 10
698.38176540615723
 20
620.01269452515919
 11
698.60872589243286
 21
620.23965501143459
  0
LINE
  8
_0-a_極細1
  6
CONTINUOUS
 62
    7
 10
692.49029325935339
 20
489.67044133460234
 11
714.49376379495675
 21
511.67391187020564
  0
LINE
  8
_0-a_極細1
  6
CONTINUOUS
 62
    7
 10
697.64885766918383
 20
491.05776995522848
 11
706.08794069401165
 21
499.49685298005568
  0
LINE
  8
_0-a_極細1
  6
CONTINUOUS
 62
    7
 10
596.32730132741278
 20
518.88009739602933
 11
698.38176540615541
 21
518.88009739602933
  0
LINE
  8
_0-a_極細1
  6
CONTINUOUS
 62
    7
 10
592.61006957190125
 20
523.14676363602928
 11
690.49376619495615
 21
523.14676363602928
  0
LINE
  8
_0-a_極細1
  6
CONTINUOUS
 62
    7
 10
582.14273938254348
 20
538.6511034189283
 11
631.8271053949569
 21
538.6511034189283
  0
LINE
  8
_0-a_極細1
  6
CONTINUOUS
 62
    7
 10
584.13687632190829
 20
637.24179763809946
 11
735.29376171495687
 21
637.24179763809946
  0
LINE
  8
_0-a_極細1
  6
CONTINUOUS
 62
    7
 10
581.19892452450665
 20
631.98442741892893
 11
698.38176540615723
 21
631.9844274189287
  0
LINE
  8
_0-a_極細1
  6
CONTINUOUS
 62
    7
 10
579.8636228722994
 20
629.31776101892854
 11
676.89376755495732
 21
629.31776101892831
  0
LINE
  8
_0-a_極細1
  6
CONTINUOUS
 62
    7
 10
571.87096058136751
 20
605.31776341892862
 11
662.22710235495742
 21
605.31776341892817
  0
LINE
  8
_0-a_極細1
  6
CONTINUOUS
 62
    7
 10
570.97470054761084
 20
599.98443061892851
 11
665.42710203495676
 21
599.98443061892829
  0
LINE
  8
_0-a_極細1
  6
CONTINUOUS
 62
    7
 10
663.82710219495652
 20
595.18858576517994
 11
570.42103698981418
 21
595.18858576517994
  0
LINE
  8
_0-a_極細1
  6
CONTINUOUS
 62
    7
 10
570.33218265958646
 20
594.15035120233654
 11
667.29376851495704
 21
594.15035120233586
  0
LINE
  8
_0-a_極細1
  6
CONTINUOUS
 62
    7
 10
570.04804710755684
 20
588.81701840233666
 11
641.16043779495681
 21
588.81701840233643
  0
LINE
  8
_0-a_極細1
  6
CONTINUOUS
 62
    7
 10
570.48408869822424
 20
576.55035296233666
 11
641.16043779495681
 21
576.55035296233666
  0
LINE
  8
_0-a_極細1
  6
CONTINUOUS
 62
    7
 10
571.15132562118026
 20
571.21702016233655
 11
663.02710227495754
 21
571.21702016233655
  0
LINE
  8
_0-a_極細1
  6
CONTINUOUS
 62
    7
 10
663.82710219495652
 20
570.65525488517926
 11
571.23875574544957
 21
570.65525488517926
  0
LINE
  8
_0-a_極細1
  6
CONTINUOUS
 62
    7
 10
646.4937705949576
 20
562.6552556851799
 11
572.8468338173659
 21
562.6552556851799
  0
LINE
  8
_0-a_極細1
  6
CONTINUOUS
 62
    7
 10
616.67013191956619
 20
529.58443765892878
 11
616.67013191956619
 21
538.6511034189283
  0
LINE
  8
_0-a_極細1
  6
CONTINUOUS
 62
    7
 10
615.60346535956648
 20
529.58443765892878
 11
615.60346535956648
 21
538.6511034189283
  0
LINE
  8
_0-a_極細1
  6
CONTINUOUS
 62
    7
 10
614.53679879956633
 20
529.58443765892878
 11
614.53679879956633
 21
538.6511034189283
  0
LINE
  8
_0-a_極細1
  6
CONTINUOUS
 62
    7
 10
613.47013223956617
 20
529.58443765892878
 11
613.47013223956617
 21
538.6511034189283
  0
LINE
  8
_0-a_極細1
  6
CONTINUOUS
 62
    7
 10
612.40346567956601
 20
529.58443765892878
 11
612.40346567956601
 21
538.6511034189283
  0
LINE
  8
_0-a_極細1
  6
CONTINUOUS
 62
    7
 10
611.33679911956585
 20
529.58443765892878
 11
611.33679911956585
 21
538.6511034189283
  0
LINE
  8
_0-a_極細1
  6
CONTINUOUS
 62
    7
 10
610.27013255956604
 20
529.58443765892878
 11
610.27013255956604
 21
538.6511034189283
  0
LINE
  8
_0-a_極細1
  6
CONTINUOUS
 62
    7
 10
609.20346599956622
 20
529.58443765892878
 11
609.20346599956622
 21
538.6511034189283
  0
LINE
  8
_0-a_極細1
  6
CONTINUOUS
 62
    7
 10
608.13679943956606
 20
529.58443765892878
 11
608.13679943956606
 21
538.6511034189283
  0
LINE
  8
_0-a_極細1
  6
CONTINUOUS
 62
    7
 10
607.0701328795659
 20
529.58443765892878
 11
607.0701328795659
 21
538.6511034189283
  0
LINE
  8
_0-a_極細1
  6
CONTINUOUS
 62
    7
 10
606.00346631956609
 20
529.58443765892878
 11
606.00346631956609
 21
538.6511034189283
  0
LINE
  8
_0-a_極細1
  6
CONTINUOUS
 62
    7
 10
604.93679975956559
 20
529.58443765892878
 11
604.93679975956559
 21
538.6511034189283
  0
LINE
  8
_0-a_極細1
  6
CONTINUOUS
 62
    7
 10
603.87013319956577
 20
529.58443765892878
 11
603.87013319956577
 21
538.6511034189283
  0
LINE
  8
_0-a_極細1
  6
CONTINUOUS
 62
    7
 10
602.80346663956595
 20
529.58443765892878
 11
602.80346663956595
 21
538.6511034189283
  0
LINE
  8
_0-a_極細1
  6
CONTINUOUS
 62
    7
 10
601.7368000795658
 20
529.58443765892878
 11
601.7368000795658
 21
538.6511034189283
  0
LINE
  8
_0-a_極細1
  6
CONTINUOUS
 62
    7
 10
600.67013351956564
 20
529.58443765892878
 11
600.67013351956564
 21
538.6511034189283
  0
LINE
  8
_0-a_極細1
  6
CONTINUOUS
 62
    7
 10
599.60346695956548
 20
529.58443765892878
 11
599.60346695956548
 21
538.6511034189283
  0
LINE
  8
_0-a_極細1
  6
CONTINUOUS
 62
    7
 10
598.53680039956532
 20
529.58443765892878
 11
598.53680039956532
 21
538.6511034189283
  0
LINE
  8
_0-a_極細1
  6
CONTINUOUS
 62
    7
 10
597.47013383956562
 20
529.58443765892878
 11
597.47013383956562
 21
538.6511034189283
  0
LINE
  8
_0-a_極細1
  6
CONTINUOUS
 62
    7
 10
596.40346727956546
 20
529.58443765892878
 11
596.40346727956546
 21
538.6511034189283
  0
LINE
  8
_0-a_極細1
  6
CONTINUOUS
 62
    7
 10
595.3368007195653
 20
529.58443765892878
 11
595.3368007195653
 21
538.6511034189283
  0
LINE
  8
_0-a_極細1
  6
CONTINUOUS
 62
    7
 10
594.27013415956549
 20
529.58443765892878
 11
594.27013415956549
 21
538.6511034189283
  0
LINE
  8
_0-a_極細1
  6
CONTINUOUS
 62
    7
 10
593.20346759956533
 20
529.58443765892878
 11
593.20346759956533
 21
538.6511034189283
  0
LINE
  8
_0-a_極細1
  6
CONTINUOUS
 62
    7
 10
592.13680103956517
 20
529.58443765892878
 11
592.13680103956517
 21
538.6511034189283
  0
LINE
  8
_0-a_極細1
  6
CONTINUOUS
 62
    7
 10
591.07013447956535
 20
529.58443765892878
 11
591.07013447956535
 21
538.6511034189283
  0
LINE
  8
_0-a_極細1
  6
CONTINUOUS
 62
    7
 10
617.35410950892344
 20
529.58443765892878
 11
617.35410950892344
 21
538.6511034189283
  0
LINE
  8
_0-a_極細1
  6
CONTINUOUS
 62
    7
 10
590.68744550892313
 20
529.58443765892878
 11
590.68744550892313
 21
538.6511034189283
  0
LINE
  8
_0-a_極細1
  6
CONTINUOUS
 62
    7
 10
590.68744550892313
 20
529.58443765892878
 11
617.35410950892344
 21
529.58443765892878
  0
ARC
  8
_0-a_極細1
  6
CONTINUOUS
 62
    7
 10
607.82710779495699
 20
525.18457143224884
 40
31.999996799999998
 50
55.166292356154599
 51
148.68484545273054
  0
LINE
  8
_0-a_極細1
  6
CONTINUOUS
 62
    7
 10
631.75796573577179
 20
538.6511034189283
 11
631.75796573577179
 21
540.67442062193334
  0
LINE
  8
_0-a_極細1
  6
CONTINUOUS
 62
    7
 10
630.15796573577188
 20
538.6511034189283
 11
630.15796573577188
 21
546.30381705034472
  0
LINE
  8
_0-a_極細1
  6
CONTINUOUS
 62
    7
 10
628.55796573577186
 20
538.6511034189283
 11
628.55796573577186
 21
548.88009199828264
  0
LINE
  8
_0-a_極細1
  6
CONTINUOUS
 62
    7
 10
626.95796573577184
 20
538.6511034189283
 11
626.95796573577184
 21
550.68223884942279
  0
LINE
  8
_0-a_極細1
  6
CONTINUOUS
 62
    7
 10
625.35796573577181
 20
538.6511034189283
 11
625.35796573577181
 21
551.95524223181917
  0
LINE
  8
_0-a_極細1
  6
CONTINUOUS
 62
    7
 10
623.75796573577179
 20
538.6511034189283
 11
623.75796573577179
 21
552.93718501132605
  0
LINE
  8
_0-a_極細1
  6
CONTINUOUS
 62
    7
 10
622.15796573577143
 20
538.6511034189283
 11
622.15796573577143
 21
553.79621776517058
  0
LINE
  8
_0-a_極細1
  6
CONTINUOUS
 62
    7
 10
620.55796573577152
 20
538.6511034189283
 11
620.55796573577152
 21
554.54313153472674
  0
LINE
  8
_0-a_極細1
  6
CONTINUOUS
 62
    7
 10
618.9579657357715
 20
538.6511034189283
 11
618.9579657357715
 21
555.18630132739679
  0
LINE
  8
_0-a_極細1
  6
CONTINUOUS
 62
    7
 10
617.35796573577147
 20
538.6511034189283
 11
617.35796573577147
 21
555.73228070990206
  0
LINE
  8
_0-a_極細1
  6
CONTINUOUS
 62
    7
 10
615.75796573577145
 20
538.6511034189283
 11
615.75796573577145
 21
556.18620505892443
  0
LINE
  8
_0-a_極細1
  6
CONTINUOUS
 62
    7
 10
614.15796573577143
 20
538.6511034189283
 11
614.15796573577143
 21
556.55207106057799
  0
LINE
  8
_0-a_極細1
  6
CONTINUOUS
 62
    7
 10
612.55796573577152
 20
538.6511034189283
 11
612.55796573577152
 21
556.83293281706358
  0
LINE
  8
_0-a_極細1
  6
CONTINUOUS
 62
    7
 10
610.9579657357715
 20
538.6511034189283
 11
610.9579657357715
 21
557.03103942721566
  0
LINE
  8
_0-a_極細1
  6
CONTINUOUS
 62
    7
 10
609.35796573577147
 20
538.6511034189283
 11
609.35796573577147
 21
557.1479296595229
  0
LINE
  8
_0-a_極細1
  6
CONTINUOUS
 62
    7
 10
607.75796573577145
 20
538.6511034189283
 11
607.75796573577145
 21
557.18449353489848
  0
LINE
  8
_0-a_極細1
  6
CONTINUOUS
 62
    7
 10
606.15796573577143
 20
538.6511034189283
 11
606.15796573577143
 21
557.14100677767271
  0
LINE
  8
_0-a_極細1
  6
CONTINUOUS
 62
    7
 10
604.55796573577106
 20
538.6511034189283
 11
604.55796573577106
 21
557.01714131588949
  0
LINE
  8
_0-a_極細1
  6
CONTINUOUS
 62
    7
 10
602.95796573577115
 20
538.6511034189283
 11
602.95796573577115
 21
556.81195277828317
  0
LINE
  8
_0-a_極細1
  6
CONTINUOUS
 62
    7
 10
601.35796573577113
 20
538.6511034189283
 11
601.35796573577113
 21
556.52384385868015
  0
LINE
  8
_0-a_極細1
  6
CONTINUOUS
 62
    7
 10
599.75796573577111
 20
538.6511034189283
 11
599.75796573577111
 21
556.15050015445388
  0
LINE
  8
_0-a_極細1
  6
CONTINUOUS
 62
    7
 10
598.15796573577109
 20
538.6511034189283
 11
598.15796573577109
 21
555.68879223920101
  0
LINE
  8
_0-a_極細1
  6
CONTINUOUS
 62
    7
 10
596.55796573577106
 20
538.6511034189283
 11
596.55796573577106
 21
555.13463374353466
  0
LINE
  8
_0-a_極細1
  6
CONTINUOUS
 62
    7
 10
594.95796573577115
 20
538.6511034189283
 11
594.95796573577115
 21
554.4827791907536
  0
LINE
  8
_0-a_極細1
  6
CONTINUOUS
 62
    7
 10
593.35796573577113
 20
538.6511034189283
 11
593.35796573577113
 21
553.72653568264866
  0
LINE
  8
_0-a_極細1
  6
CONTINUOUS
 62
    7
 10
591.75796573577111
 20
538.6511034189283
 11
591.75796573577111
 21
552.85734629639489
  0
LINE
  8
_0-a_極細1
  6
CONTINUOUS
 62
    7
 10
590.15796573577109
 20
538.6511034189283
 11
590.15796573577109
 21
551.86417439204422
  0
LINE
  8
_0-a_極細1
  6
CONTINUOUS
 62
    7
 10
588.55796573577106
 20
538.6511034189283
 11
588.55796573577106
 21
550.73256469009459
  0
LINE
  8
_0-a_極細1
  6
CONTINUOUS
 62
    7
 10
586.95796573577115
 20
538.6511034189283
 11
586.95796573577115
 21
549.44315145898429
  0
LINE
  8
_0-a_極細1
  6
CONTINUOUS
 62
    7
 10
585.35796573577113
 20
538.6511034189283
 11
585.35796573577113
 21
547.96915943212582
  0
LINE
  8
_0-a_極細1
  6
CONTINUOUS
 62
    7
 10
583.75796573577111
 20
538.6511034189283
 11
583.75796573577111
 21
546.27191824816521
  0
LINE
  8
_0-a_極細1
  6
CONTINUOUS
 62
    7
 10
582.15796573577109
 20
538.6511034189283
 11
582.15796573577109
 21
544.29202916857128
  0
LINE
  8
_0-a_極細1
  6
CONTINUOUS
 62
    7
 10
580.55796573577106
 20
541.67835370592627
 11
580.55796573577106
 21
541.92953146671732
  0
LINE
  8
_0-d_寸法1
  6
CONTINUOUS
 62
    7
 10
724.66227574518712
 20
627.15219948380911
 11
731.19334064426346
 21
641.75854027416631
  0
LINE
  8
_0-d_寸法1
  6
CONTINUOUS
 62
    7
 10
724.66227574518712
 20
627.15219948380911
 11
737.62151425673062
 21
636.53612921505317
  0
LINE
  8
_0-d_寸法1
  6
CONTINUOUS
 62
    7
 10
724.66227574518712
 20
627.15219948380911
 11
757.39497616487665
 21
667.44230279451415
  0
LINE
  8
_0-d_寸法1
  6
CONTINUOUS
 62
    7
 10
757.39497616487665
 20
667.44230279451415
 11
834.19497616487649
 21
667.44230279451415
  0
TEXT
  8
_0-d_寸法1
 62
    7
 10
757.39497616487665
 20
667.44230279451415
 40
24
 41
0.7999999999999999
 50
0
  1
パッキン
  0
LINE
  8
_0-d_寸法1
  6
CONTINUOUS
 62
    7
 10
655.803264053475
 20
578.43823944744906
 11
667.11691593582862
 21
567.12447433211651
  0
LINE
  8
_0-d_寸法1
  6
CONTINUOUS
 62
    7
 10
655.803264053475
 20
578.43823944744906
 11
659.94429143550053
 21
562.98340550394403
  0
LINE
  8
_0-d_寸法1
  6
CONTINUOUS
 62
    7
 10
655.803264053475
 20
578.43823944744906
 11
715.6517683109671
 21
474.77639132146049
  0
LINE
  8
_0-d_寸法1
  6
CONTINUOUS
 62
    7
 10
715.6517683109671
 20
474.77639132146049
 11
907.6517683109671
 21
474.77639132146049
  0
TEXT
  8
_0-d_寸法1
 62
    7
 10
715.6517683109671
 20
474.77639132146049
 40
24
 41
0.7999999999999999
 50
0
  1
防臭インナーパッキン
  0
LINE
  8
_0-d_寸法1
  6
CONTINUOUS
 62
    7
 10
723.56307997534759
 20
557.41469987642097
 11
734.87731340271262
 21
546.10151633017301
  0
LINE
  8
_0-d_寸法1
  6
CONTINUOUS
 62
    7
 10
723.56307997534759
 20
557.41469987642097
 11
727.70490177466877
 21
541.96007881401158
  0
LINE
  8
_0-d_寸法1
  6
CONTINUOUS
 62
    7
 10
723.56307997534759
 20
557.41469987642097
 11
753.43998080513529
 21
505.6719342098512
  0
LINE
  8
_0-d_寸法1
  6
CONTINUOUS
 62
    7
 10
753.43998080513529
 20
505.6719342098512
 11
887.83998080513527
 21
505.6719342098512
  0
TEXT
  8
_0-d_寸法1
 62
    7
 10
753.43998080513529
 20
505.6719342098512
 40
24
 41
0.7999999999999999
 50
0
  1
ロックフランジ
  0
TEXT
  8
_0-7_枠細線
 62
    5
 10
588.08626263169231
 20
415.38059238695314
 40
40
 41
0.8
 50
0
  1
Ｃ部拡大図
  0
TEXT
  8
_0-7_枠細線
 62
    5
 10
316.89467690029755
 20
167.56629978787964
 40
40
 41
0.8
 50
0
  1
排水部詳細図
  0
TEXT
  8
_0-7_枠細線
 62
    5
 10
537.07372549402317
 20
167.56629978787964
 40
32
 41
0.6000000000000002
 50
0
  1
Ｓ＝１：４
  0
LINE
  8
_0-5_寸法線
  6
CONTINUOUS
 62
    7
 10
253.35306891456821
 20
1076.8642826045293
 11
125.35306891456821
 21
1076.8642826045298
  0
LINE
  8
_0-5_寸法線
  6
CONTINUOUS
 62
    7
 10
133.35306891456821
 20
1076.8642826045298
 11
129.21196419292801
 21
1092.3190958251548
  0
LINE
  8
_0-5_寸法線
  6
CONTINUOUS
 62
    7
 10
133.35306891456821
 20
1076.8642826045298
 11
137.49417363620864
 21
1092.3190958251548
  0
LINE
  8
_0-5_寸法線
  6
CONTINUOUS
 62
    7
 10
253.35306891456821
 20
1220.8642826045293
 11
125.35306891456821
 21
1220.8642826045298
  0
LINE
  8
_0-5_寸法線
  6
CONTINUOUS
 62
    7
 10
133.35306891456821
 20
1220.8642826045298
 11
137.49417363620864
 21
1205.4094693839047
  0
LINE
  8
_0-5_寸法線
  6
CONTINUOUS
 62
    7
 10
133.35306891456821
 20
1220.8642826045298
 11
129.21196419292801
 21
1205.4094693839047
  0
LINE
  8
_0-5_寸法線
  6
CONTINUOUS
 62
    7
 10
133.35306891456821
 20
1076.8642826045298
 11
133.35306891456821
 21
1220.8642826045298
  0
TEXT
  8
_0-5_寸法線
 62
    7
 10
133.35306891456821
 20
1130.8642826045295
 40
24
 41
1
 50
90
  1
144
  0
LINE
  8
_0-5_寸法線
  6
CONTINUOUS
 62
    7
 10
253.35306891456821
 20
1220.8642826045293
 11
181.35306891456776
 21
1220.8642826045293
  0
LINE
  8
_0-5_寸法線
  6
CONTINUOUS
 62
    7
 10
189.35306891456776
 20
1220.8642826045293
 11
185.21196419292744
 21
1236.3190958251544
  0
LINE
  8
_0-5_寸法線
  6
CONTINUOUS
 62
    7
 10
189.35306891456776
 20
1220.8642826045293
 11
193.49417363620807
 21
1236.3190958251544
  0
LINE
  8
_0-5_寸法線
  6
CONTINUOUS
 62
    7
 10
253.35306891456821
 20
1211.3642826045291
 11
181.35306891456776
 21
1211.3642826045291
  0
LINE
  8
_0-5_寸法線
  6
CONTINUOUS
 62
    7
 10
189.35306891456776
 20
1277.7514608999352
 11
189.35306891456776
 21
1211.3642826045291
  0
TEXT
  8
_0-5_寸法線
 62
    7
 10
189.35306891456776
 20
1241.7514608999352
 40
24
 41
1
 50
90
  1
9.5
  0
LINE
  8
_0-5_寸法線
  6
CONTINUOUS
 62
    7
 10
189.35306891456776
 20
1211.3642826045291
 11
193.49417363620796
 21
1195.909469383904
  0
LINE
  8
_0-5_寸法線
  6
CONTINUOUS
 62
    7
 10
189.35306891456776
 20
1211.3642826045291
 11
185.21196419292733
 21
1195.909469383904
  0
LINE
  8
_0-5_寸法線
  6
CONTINUOUS
 62
    7
 10
253.35306891456821
 20
1086.3642826045293
 11
181.35306891456776
 21
1086.3642826045293
  0
LINE
  8
_0-5_寸法線
  6
CONTINUOUS
 62
    7
 10
189.35306891456776
 20
1086.3642826045293
 11
185.21196419292744
 21
1101.8190958251544
  0
LINE
  8
_0-5_寸法線
  6
CONTINUOUS
 62
    7
 10
189.35306891456776
 20
1086.3642826045293
 11
193.49417363620807
 21
1101.8190958251544
  0
LINE
  8
_0-5_寸法線
  6
CONTINUOUS
 62
    7
 10
189.35306891456776
 20
1211.3642826045291
 11
189.35306891456776
 21
1086.3642826045293
  0
TEXT
  8
_0-5_寸法線
 62
    7
 10
189.35306891456776
 20
1130.8642826045291
 40
24
 41
1
 50
90
  1
125
  0
LINE
  8
_0-5_寸法線
  6
CONTINUOUS
 62
    7
 10
253.35306891456821
 20
1076.8642826045293
 11
181.35306891456821
 21
1076.8642826045293
  0
LINE
  8
_0-5_寸法線
  6
CONTINUOUS
 62
    7
 10
189.35306891456821
 20
1076.8642826045293
 11
193.49417363620842
 21
1061.4094693839043
  0
LINE
  8
_0-5_寸法線
  6
CONTINUOUS
 62
    7
 10
189.35306891456821
 20
1076.8642826045293
 11
185.21196419292778
 21
1061.4094693839043
  0
LINE
  8
_0-5_寸法線
  6
CONTINUOUS
 62
    7
 10
189.35306891456776
 20
1086.3642826045293
 11
189.35306891457083
 21
1022.4811136182941
  0
TEXT
  8
_0-5_寸法線
 62
    7
 10
189.35306891456821
 20
1022.4811136182941
 40
24
 41
1
 50
90
  1
9.5
  0
ARC
  8
_0-1_計細線
  6
CONTINUOUS
 62
    3
 10
270.35306891456821
 20
835.86428260452919
 40
1
 50
89.999999999999915
 51
179.99999999998698
  0
LINE
  8
_0-1_計細線
  6
CONTINUOUS
 62
    3
 10
269.35306891456821
 20
828.86428260452919
 11
269.35306891456821
 21
835.86428260452942
  0
ARC
  8
_0-1_計細線
  6
CONTINUOUS
 62
    3
 10
281.35306891456821
 20
816.36428260452942
 40
1
 50
179.99999999999983
 51
269.99999999999977
  0
LINE
  8
_0-1_計細線
  6
CONTINUOUS
 62
    3
 10
280.35306891456821
 20
816.36428260452942
 11
280.35306891456821
 21
828.86428260453079
  0
LINE
  8
_0-5_寸法線
  6
CONTINUOUS
 62
    7
 10
2065.3530689145682
 20
1236.8642826045293
 11
2065.3530689145691
 21
1476.8642826045293
  0
LINE
  8
_0-5_寸法線
  6
CONTINUOUS
 62
    7
 10
2065.3530689145691
 20
1468.8642826045293
 11
2049.8982556939441
 21
1464.7231778828891
  0
LINE
  8
_0-5_寸法線
  6
CONTINUOUS
 62
    7
 10
2065.3530689145691
 20
1468.8642826045293
 11
2049.8982556939441
 21
1473.0053873261697
  0
LINE
  8
_0-5_寸法線
  6
CONTINUOUS
 62
    7
 10
269.35306891456821
 20
1236.8642826045293
 11
269.35306891456867
 21
1476.8642826045293
  0
LINE
  8
_0-5_寸法線
  6
CONTINUOUS
 62
    7
 10
269.35306891456867
 20
1468.8642826045293
 11
284.80788213519372
 21
1473.0053873261697
  0
LINE
  8
_0-5_寸法線
  6
CONTINUOUS
 62
    7
 10
269.35306891456867
 20
1468.8642826045293
 11
284.80788213519372
 21
1464.7231778828889
  0
LINE
  8
_0-5_寸法線
  6
CONTINUOUS
 62
    7
 10
2065.3530689145691
 20
1468.8642826045293
 11
269.35306891456867
 21
1468.8642826045293
  0
TEXT
  8
_0-5_寸法線
 62
    7
 10
1143.3530689145689
 20
1468.8642826045293
 40
24
 41
1
 50
0
  1
1796
  0
LINE
  8
_0-5_寸法線
  6
CONTINUOUS
 62
    7
 10
269.35306891456821
 20
1236.8642826045293
 11
269.35306891456821
 21
1420.8642826045293
  0
LINE
  8
_0-5_寸法線
  6
CONTINUOUS
 62
    7
 10
269.35306891456821
 20
1412.8642826045293
 11
253.89825569394316
 21
1408.7231778828891
  0
LINE
  8
_0-5_寸法線
  6
CONTINUOUS
 62
    7
 10
269.35306891456821
 20
1412.8642826045293
 11
253.89825569394316
 21
1417.0053873261697
  0
LINE
  8
_0-5_寸法線
  6
CONTINUOUS
 62
    7
 10
278.85306891456821
 20
1236.8642826045293
 11
278.85306891456821
 21
1420.8642826045293
  0
LINE
  8
_0-5_寸法線
  6
CONTINUOUS
 62
    7
 10
214.20059408028055
 20
1412.8642826045293
 11
278.85306891456821
 21
1412.8642826045293
  0
TEXT
  8
_0-5_寸法線
 62
    7
 10
214.20059408028055
 20
1412.8642826045293
 40
24
 41
1
 50
0
  1
9.5
  0
LINE
  8
_0-5_寸法線
  6
CONTINUOUS
 62
    7
 10
278.85306891456821
 20
1412.8642826045293
 11
294.30788213519327
 21
1417.0053873261695
  0
LINE
  8
_0-5_寸法線
  6
CONTINUOUS
 62
    7
 10
278.85306891456821
 20
1412.8642826045293
 11
294.30788213519327
 21
1408.7231778828889
  0
LINE
  8
_0-5_寸法線
  6
CONTINUOUS
 62
    7
 10
2055.8530689145682
 20
1236.8642826045293
 11
2055.8530689145691
 21
1420.8642826045293
  0
LINE
  8
_0-5_寸法線
  6
CONTINUOUS
 62
    7
 10
2055.8530689145691
 20
1412.8642826045293
 11
2040.3982556939441
 21
1408.7231778828891
  0
LINE
  8
_0-5_寸法線
  6
CONTINUOUS
 62
    7
 10
2055.8530689145691
 20
1412.8642826045293
 11
2040.3982556939441
 21
1417.0053873261697
  0
LINE
  8
_0-5_寸法線
  6
CONTINUOUS
 62
    7
 10
278.85306891456821
 20
1412.8642826045293
 11
2055.8530689145691
 21
1412.8642826045293
  0
TEXT
  8
_0-5_寸法線
 62
    7
 10
1143.3530689145682
 20
1412.8642826045293
 40
24
 41
1
 50
0
  1
1777
  0
LINE
  8
_0-5_寸法線
  6
CONTINUOUS
 62
    7
 10
2065.3530689145682
 20
1236.8642826045293
 11
2065.3530689145691
 21
1420.8642826045293
  0
LINE
  8
_0-5_寸法線
  6
CONTINUOUS
 62
    7
 10
2065.3530689145691
 20
1412.8642826045293
 11
2080.8078821351942
 21
1417.0053873261695
  0
LINE
  8
_0-5_寸法線
  6
CONTINUOUS
 62
    7
 10
2065.3530689145691
 20
1412.8642826045293
 11
2080.8078821351942
 21
1408.7231778828889
  0
LINE
  8
_0-5_寸法線
  6
CONTINUOUS
 62
    7
 10
2055.8530689145691
 20
1412.8642826045293
 11
2116.5139977663257
 21
1412.8642826045293
  0
TEXT
  8
_0-5_寸法線
 62
    7
 10
2080.5139977663257
 20
1412.8642826045293
 40
24
 41
1
 50
0
  1
9.5
  0
ARC
  8
_0-1_計細線
  6
CONTINUOUS
 62
    3
 10
2064.3530689145682
 20
835.86428260452931
 40
1
 50
0
 51
89.999999999999915
  0
LINE
  8
_0-1_計細線
  6
CONTINUOUS
 62
    3
 10
2065.3530689145682
 20
828.86428260452931
 11
2065.3530689145682
 21
835.86428260452931
  0
ARC
  8
_0-1_計細線
  6
CONTINUOUS
 62
    3
 10
2055.3530689145682
 20
835.86428260452931
 40
1
 50
89.999999999999915
 51
179.99999999999983
  0
LINE
  8
_0-1_計細線
  6
CONTINUOUS
 62
    3
 10
2064.6530689145684
 20
828.86428260452931
 11
2065.3530689145682
 21
828.86428260452931
  0
LINE
  8
_0-1_計細線
  6
CONTINUOUS
 62
    3
 10
2055.053068914568
 20
836.16428260452938
 11
2055.053068914568
 21
828.86428260452931
  0
LINE
  8
_0-1_計細線
  6
CONTINUOUS
 62
    3
 10
2055.053068914568
 20
828.86428260452931
 11
2064.6530689145684
 21
828.86428260452931
  0
LINE
  8
_0-1_計細線
  6
CONTINUOUS
 62
    3
 10
2064.6530689145684
 20
828.86428260452931
 11
2064.6530689145684
 21
836.16428260452938
  0
LINE
  8
_0-1_計細線
  6
CONTINUOUS
 62
    3
 10
2064.6530689145684
 20
836.16428260452938
 11
2055.053068914568
 21
836.16428260452938
  0
LINE
  8
_0-1_計細線
  6
CONTINUOUS
 62
    3
 10
2064.3530689145682
 20
836.86428260452931
 11
2054.8530689145682
 21
836.86428260452931
  0
LINE
  8
_0-1_計細線
  6
CONTINUOUS
 62
    3
 10
2054.8530689145682
 20
836.86428260452931
 11
270.35306891456867
 21
836.86428260452931
  0
ARC
  8
_0-1_計細線
  6
CONTINUOUS
 62
    3
 10
2054.053068914568
 20
816.36428260452931
 40
1
 50
269.99999999999977
 51
359.99999999999966
  0
LINE
  8
_0-1_計細線
  6
CONTINUOUS
 62
    3
 10
2055.053068914568
 20
828.86428260452931
 11
2055.053068914568
 21
816.36428260452931
  0
LINE
  8
_0-1_計細線
  6
CONTINUOUS
 62
    3
 10
2054.3530689145682
 20
835.86428260452931
 11
2054.3530689145682
 21
816.06428260452935
  0
LINE
  8
_0-1_計細線
  6
CONTINUOUS
 62
    3
 10
2053.3530689145682
 20
836.86428260452931
 11
2053.3530689145682
 21
816.86428260452931
  0
LINE
  8
_0-0_計極細
  6
CENTER2
 62
    2
 10
260.18160965674224
 20
1148.8642826045293
 11
2073.2103302833748
 21
1148.8642826045293
  0
LINE
  8
_0-1_計細線
  6
CONTINUOUS
 62
    3
 10
2162.1022132734479
 20
1220.8642826045291
 11
2155.1022132734479
 21
1220.8642826045291
  0
ARC
  8
_0-1_計細線
  6
CONTINUOUS
 62
    3
 10
2155.1022132734479
 20
1219.8642826045291
 40
1
 50
89.999999999999915
 51
179.99999999999983
  0
LINE
  8
_0-1_計細線
  6
CONTINUOUS
 62
    3
 10
2154.1022132734479
 20
1219.8642826045291
 11
2154.1022132734479
 21
1077.8642826045295
  0
ARC
  8
_0-1_計細線
  6
CONTINUOUS
 62
    3
 10
2155.1022132734479
 20
1077.8642826045295
 40
1
 50
179.99999999999983
 51
269.99999999999977
  0
LINE
  8
_0-1_計細線
  6
CONTINUOUS
 62
    3
 10
2162.1022132734479
 20
1076.8642826045295
 11
2162.1022132734479
 21
1220.8642826045291
  0
LINE
  8
_0-1_計細線
  6
CONTINUOUS
 62
    3
 10
2162.1022132734479
 20
1076.8642826045295
 11
2155.1022132734479
 21
1076.8642826045295
  0
LINE
  8
_0-0_計極細
  6
CENTER2
 62
    2
 10
2114.8599068877111
 20
1148.8642826045293
 11
2230.0829284704432
 21
1148.8642826045293
  0
LINE
  8
_0-1_計細線
  6
CONTINUOUS
 62
    3
 10
2179.6022132734479
 20
1199.8642826045293
 11
2179.6022132734479
 21
1148.8642826045291
  0
ARC
  8
_0-1_計細線
  6
CONTINUOUS
 62
    3
 10
2176.1022132734479
 20
1207.8642826045293
 40
0.5
 50
179.99999999999983
 51
269.99999999999977
  0
LINE
  8
_0-1_計細線
  6
CONTINUOUS
 62
    3
 10
2179.6022132734479
 20
1205.8642826045293
 11
2179.6022132734479
 21
1199.8642826045293
  0
LINE
  8
_0-1_計細線
  6
CONTINUOUS
 62
    3
 10
2176.1022132734479
 20
1207.3642826045293
 11
2178.1022132734479
 21
1207.3642826045293
  0
ARC
  8
_0-1_計細線
  6
CONTINUOUS
 62
    3
 10
2178.1022132734479
 20
1205.8642826045293
 40
1.5
 50
0
 51
89.999999999999915
  0
LINE
  8
_0-1_計細線
  6
CONTINUOUS
 62
    3
 10
2179.6022132734479
 20
1097.8642826045291
 11
2179.6022132734479
 21
1148.8642826045291
  0
ARC
  8
_0-1_計細線
  6
CONTINUOUS
 62
    3
 10
2176.1022132734479
 20
1089.8642826045291
 40
0.5
 50
89.999999999999915
 51
179.99999999999983
  0
LINE
  8
_0-1_計細線
  6
CONTINUOUS
 62
    3
 10
2179.6022132734479
 20
1091.8642826045291
 11
2179.6022132734479
 21
1097.8642826045291
  0
LINE
  8
_0-1_計細線
  6
CONTINUOUS
 62
    3
 10
2176.1022132734479
 20
1090.3642826045291
 11
2178.1022132734479
 21
1090.3642826045291
  0
ARC
  8
_0-1_計細線
  6
CONTINUOUS
 62
    3
 10
2178.1022132734479
 20
1091.8642826045291
 40
1.5
 50
269.99999999999977
 51
359.99999999999966
  0
ARC
  8
_0-1_計細線
  6
CONTINUOUS
 62
    3
 10
2174.6022132734479
 20
1087.8642826045295
 40
1
 50
269.99999999999977
 51
359.99999999999966
  0
LINE
  8
_0-1_計細線
  6
CONTINUOUS
 62
    3
 10
2175.6022132734479
 20
1087.8642826045295
 11
2175.6022132734479
 21
1148.8642826045291
  0
ARC
  8
_0-1_計細線
  6
CONTINUOUS
 62
    3
 10
2174.6022132734479
 20
1209.8642826045295
 40
1
 50
0
 51
89.999999999999915
  0
LINE
  8
_0-1_計細線
  6
CONTINUOUS
 62
    3
 10
2175.6022132734479
 20
1209.8642826045295
 11
2175.6022132734479
 21
1148.8642826045291
  0
LINE
  8
_0-1_計細線
  6
CONTINUOUS
 62
    3
 10
2163.6022132734479
 20
1086.8642826045295
 11
2198.6022132734479
 21
1086.8642826045295
  0
LINE
  8
_0-1_計細線
  6
CONTINUOUS
 62
    3
 10
2198.6022132734479
 20
1086.8642826045295
 11
2198.6022132734479
 21
1085.6642826045302
  0
LINE
  8
_0-1_計細線
  6
CONTINUOUS
 62
    3
 10
2198.6022132734479
 20
1085.6642826045302
 11
2163.6022132734479
 21
1085.6642826045302
  0
LINE
  8
_0-1_計細線
  6
CONTINUOUS
 62
    3
 10
2163.6022132734479
 20
1085.6642826045302
 11
2163.6022132734479
 21
1086.8642826045295
  0
LINE
  8
_0-1_計細線
  6
CONTINUOUS
 62
    3
 10
2165.6022132734479
 20
1085.6642826045302
 11
2165.6022132734479
 21
1086.8642826045295
  0
LINE
  8
_0-1_計細線
  6
CONTINUOUS
 62
    3
 10
2175.6022132734479
 20
1085.6642826045302
 11
2175.6022132734479
 21
1086.8642826045295
  0
LINE
  8
_0-1_計細線
  6
CONTINUOUS
 62
    3
 10
2177.6022132734479
 20
1085.6642826045302
 11
2177.6022132734479
 21
1086.8642826045295
  0
LINE
  8
_0-1_計細線
  6
CONTINUOUS
 62
    3
 10
2179.6022132734479
 20
1085.6642826045302
 11
2179.6022132734479
 21
1086.8642826045295
  0
LINE
  8
_0-1_計細線
  6
CONTINUOUS
 62
    3
 10
2181.6022132734479
 20
1085.6642826045302
 11
2181.6022132734479
 21
1086.8642826045295
  0
LINE
  8
_0-1_計細線
  6
CONTINUOUS
 62
    3
 10
2195.6022132734479
 20
1085.6642826045302
 11
2195.6022132734479
 21
1086.8642826045295
  0
LINE
  8
_0-1_計細線
  6
CONTINUOUS
 62
    3
 10
2163.6022132734479
 20
1212.0642826045291
 11
2198.6022132734479
 21
1212.0642826045289
  0
LINE
  8
_0-1_計細線
  6
CONTINUOUS
 62
    3
 10
2198.6022132734479
 20
1212.0642826045289
 11
2198.6022132734479
 21
1210.8642826045293
  0
LINE
  8
_0-1_計細線
  6
CONTINUOUS
 62
    3
 10
2198.6022132734479
 20
1210.8642826045293
 11
2163.6022132734479
 21
1210.8642826045295
  0
LINE
  8
_0-1_計細線
  6
CONTINUOUS
 62
    3
 10
2163.6022132734479
 20
1210.8642826045295
 11
2163.6022132734479
 21
1212.0642826045291
  0
LINE
  8
_0-1_計細線
  6
CONTINUOUS
 62
    3
 10
2165.6022132734479
 20
1210.8642826045295
 11
2165.6022132734479
 21
1212.0642826045291
  0
LINE
  8
_0-1_計細線
  6
CONTINUOUS
 62
    3
 10
2175.6022132734479
 20
1210.8642826045295
 11
2175.6022132734479
 21
1212.0642826045291
  0
LINE
  8
_0-1_計細線
  6
CONTINUOUS
 62
    3
 10
2177.6022132734479
 20
1210.8642826045293
 11
2177.6022132734479
 21
1212.0642826045291
  0
LINE
  8
_0-1_計細線
  6
CONTINUOUS
 62
    3
 10
2179.6022132734479
 20
1210.8642826045293
 11
2179.6022132734479
 21
1212.0642826045291
  0
LINE
  8
_0-1_計細線
  6
CONTINUOUS
 62
    3
 10
2181.6022132734479
 20
1210.8642826045293
 11
2181.6022132734479
 21
1212.0642826045291
  0
LINE
  8
_0-1_計細線
  6
CONTINUOUS
 62
    3
 10
2195.6022132734479
 20
1210.8642826045293
 11
2195.6022132734479
 21
1212.0642826045289
  0
LINE
  8
_0-1_計細線
  6
CONTINUOUS
 62
    3
 10
2174.6022132734479
 20
1210.8642826045295
 11
2162.1022132734479
 21
1210.8642826045295
  0
LINE
  8
_0-1_計細線
  6
CONTINUOUS
 62
    3
 10
2174.602213273447
 20
1086.8642826045295
 11
2162.1022132734479
 21
1086.8642826045295
  0
LINE
  8
_0-5_寸法線
  6
CONTINUOUS
 62
    7
 10
2154.1022132734479
 20
1236.8642826045291
 11
2154.1022132734479
 21
1364.8642826045291
  0
LINE
  8
_0-5_寸法線
  6
CONTINUOUS
 62
    7
 10
2154.1022132734479
 20
1356.8642826045291
 11
2169.5570264940729
 21
1361.0053873261695
  0
LINE
  8
_0-5_寸法線
  6
CONTINUOUS
 62
    7
 10
2154.1022132734479
 20
1356.8642826045291
 11
2169.5570264940729
 21
1352.7231778828886
  0
LINE
  8
_0-5_寸法線
  6
CONTINUOUS
 62
    7
 10
2198.6022132734479
 20
1228.0642826045291
 11
2198.6022132734488
 21
1364.8642826045291
  0
LINE
  8
_0-5_寸法線
  6
CONTINUOUS
 62
    7
 10
2198.6022132734488
 20
1356.8642826045291
 11
2183.1474000528237
 21
1352.7231778828889
  0
LINE
  8
_0-5_寸法線
  6
CONTINUOUS
 62
    7
 10
2198.6022132734488
 20
1356.8642826045291
 11
2183.1474000528237
 21
1361.0053873261695
  0
LINE
  8
_0-5_寸法線
  6
CONTINUOUS
 62
    7
 10
2154.1022132734479
 20
1356.8642826045291
 11
2198.6022132734488
 21
1356.8642826045291
  0
TEXT
  8
_0-5_寸法線
 62
    7
 10
2152.3522132734488
 20
1356.8642826045291
 40
24
 41
1
 50
0
  1
44.5
  0
LINE
  8
_0-5_寸法線
  6
CONTINUOUS
 62
    7
 10
2154.1022132734479
 20
1236.8642826045291
 11
2154.1022132734488
 21
1308.8642826045291
  0
LINE
  8
_0-5_寸法線
  6
CONTINUOUS
 62
    7
 10
2154.1022132734488
 20
1300.8642826045291
 11
2138.6474000528237
 21
1296.7231778828889
  0
LINE
  8
_0-5_寸法線
  6
CONTINUOUS
 62
    7
 10
2154.1022132734488
 20
1300.8642826045291
 11
2138.6474000528237
 21
1305.0053873261695
  0
LINE
  8
_0-5_寸法線
  6
CONTINUOUS
 62
    7
 10
2175.6022132734479
 20
1228.0642826045291
 11
2175.6022132734479
 21
1308.8642826045291
  0
CIRCLE
  8
_0-5_寸法線
  6
CONTINUOUS
 62
    1
 10
2175.6022132734479
 20
1300.8642826045291
 40
2.3999999999999999
  0
LINE
  8
_0-5_寸法線
  6
CONTINUOUS
 62
    7
 10
2091.6231195555101
 20
1300.8642826045291
 11
2175.6022132734479
 21
1300.8642826045291
  0
TEXT
  8
_0-5_寸法線
 62
    7
 10
2091.6231195555101
 20
1300.851875158558
 40
24
 41
1
 50
0
  1
21.5
  0
LINE
  8
_0-5_寸法線
  6
CONTINUOUS
 62
    7
 10
2198.6022132734479
 20
1228.0642826045291
 11
2198.6022132734488
 21
1308.8642826045291
  0
LINE
  8
_0-5_寸法線
  6
CONTINUOUS
 62
    7
 10
2198.6022132734488
 20
1300.8642826045291
 11
2214.0570264940739
 21
1305.0053873261693
  0
LINE
  8
_0-5_寸法線
  6
CONTINUOUS
 62
    7
 10
2198.6022132734488
 20
1300.8642826045291
 11
2214.0570264940739
 21
1296.7231778828886
  0
LINE
  8
_0-5_寸法線
  6
CONTINUOUS
 62
    7
 10
2175.6022132734479
 20
1300.8642826045291
 11
2246.4545582549363
 21
1300.8642826045291
  0
TEXT
  8
_0-5_寸法線
 62
    7
 10
2222.4545582549363
 20
1300.8518751585584
 40
24
 41
1
 50
0
  1
23
  0
LINE
  8
_0-5_寸法線
  6
CONTINUOUS
 62
    7
 10
1167.8530689145678
 20
1236.8642826045293
 11
1167.8530689145678
 21
1364.8642826045293
  0
LINE
  8
_0-5_寸法線
  6
CONTINUOUS
 62
    7
 10
1167.8530689145678
 20
1356.8642826045293
 11
1183.3078821351928
 21
1361.0053873261697
  0
LINE
  8
_0-5_寸法線
  6
CONTINUOUS
 62
    7
 10
1167.8530689145678
 20
1356.8642826045293
 11
1183.3078821351928
 21
1352.7231778828889
  0
LINE
  8
_0-5_寸法線
  6
CONTINUOUS
 62
    7
 10
1610.8530689145678
 20
1236.8642826045293
 11
1610.8530689145678
 21
1364.8642826045293
  0
LINE
  8
_0-5_寸法線
  6
CONTINUOUS
 62
    7
 10
1610.8530689145678
 20
1356.8642826045293
 11
1595.3982556939427
 21
1352.7231778828891
  0
LINE
  8
_0-5_寸法線
  6
CONTINUOUS
 62
    7
 10
1610.8530689145678
 20
1356.8642826045293
 11
1595.3982556939427
 21
1361.0053873261697
  0
LINE
  8
_0-5_寸法線
  6
CONTINUOUS
 62
    7
 10
1167.8530689145678
 20
1356.8642826045293
 11
1610.8530689145678
 21
1356.8642826045293
  0
TEXT
  8
_0-5_寸法線
 62
    7
 10
1371.3530689145678
 20
1356.8642826045293
 40
24
 41
1
 50
0
  1
443
  0
LINE
  8
_0-1_計細線
  6
CONTINUOUS
 62
    3
 10
722.85306891456776
 20
1209.8642826045293
 11
719.85306891456776
 21
1209.8642826045293
  0
LINE
  8
_0-1_計細線
  6
CONTINUOUS
 62
    3
 10
719.85306891456776
 20
1209.8642826045293
 11
719.85306891456776
 21
1087.8642826045293
  0
LINE
  8
_0-1_計細線
  6
CONTINUOUS
 62
    3
 10
719.85306891456776
 20
1087.8642826045293
 11
722.85306891456776
 21
1087.8642826045293
  0
LINE
  8
_0-1_計細線
  6
CONTINUOUS
 62
    3
 10
722.85306891456776
 20
1087.8642826045293
 11
722.85306891456776
 21
1209.8642826045293
  0
LINE
  8
_0-1_計細線
  6
CONTINUOUS
 62
    3
 10
282.85306891456776
 20
1209.8642826045293
 11
279.85306891456776
 21
1209.8642826045293
  0
LINE
  8
_0-1_計細線
  6
CONTINUOUS
 62
    3
 10
279.85306891456776
 20
1209.8642826045293
 11
279.85306891456776
 21
1087.8642826045293
  0
LINE
  8
_0-1_計細線
  6
CONTINUOUS
 62
    3
 10
279.85306891456776
 20
1087.8642826045293
 11
282.85306891456776
 21
1087.8642826045293
  0
LINE
  8
_0-1_計細線
  6
CONTINUOUS
 62
    3
 10
282.85306891456776
 20
1087.8642826045293
 11
282.85306891456776
 21
1209.8642826045293
  0
LINE
  8
_0-1_計細線
  6
CONTINUOUS
 62
    3
 10
282.85306891456776
 20
1201.8642826045293
 11
282.85306891456776
 21
1193.8642826045293
  0
LINE
  8
_0-1_計細線
  6
CONTINUOUS
 62
    3
 10
282.85306891456776
 20
1193.8642826045293
 11
719.85306891456776
 21
1193.8642826045293
  0
LINE
  8
_0-1_計細線
  6
CONTINUOUS
 62
    3
 10
719.85306891456776
 20
1193.8642826045293
 11
719.85306891456776
 21
1201.8642826045293
  0
LINE
  8
_0-1_計細線
  6
CONTINUOUS
 62
    3
 10
719.85306891456776
 20
1201.8642826045293
 11
282.85306891456776
 21
1201.8642826045293
  0
LINE
  8
_0-1_計細線
  6
CONTINUOUS
 62
    3
 10
282.85306891456776
 20
1187.8642826045293
 11
282.85306891456776
 21
1179.8642826045302
  0
LINE
  8
_0-1_計細線
  6
CONTINUOUS
 62
    3
 10
282.85306891456776
 20
1179.8642826045302
 11
719.85306891456776
 21
1179.8642826045302
  0
LINE
  8
_0-1_計細線
  6
CONTINUOUS
 62
    3
 10
719.85306891456776
 20
1179.8642826045302
 11
719.85306891456776
 21
1187.8642826045293
  0
LINE
  8
_0-1_計細線
  6
CONTINUOUS
 62
    3
 10
719.85306891456776
 20
1187.8642826045293
 11
282.85306891456776
 21
1187.8642826045293
  0
LINE
  8
_0-1_計細線
  6
CONTINUOUS
 62
    3
 10
282.85306891456776
 20
1173.8642826045293
 11
282.85306891456776
 21
1165.8642826045298
  0
LINE
  8
_0-1_計細線
  6
CONTINUOUS
 62
    3
 10
282.85306891456776
 20
1165.8642826045298
 11
719.85306891456776
 21
1165.8642826045298
  0
LINE
  8
_0-1_計細線
  6
CONTINUOUS
 62
    3
 10
719.85306891456776
 20
1165.8642826045298
 11
719.85306891456776
 21
1173.8642826045293
  0
LINE
  8
_0-1_計細線
  6
CONTINUOUS
 62
    3
 10
719.85306891456776
 20
1173.8642826045293
 11
282.85306891456776
 21
1173.8642826045293
  0
LINE
  8
_0-1_計細線
  6
CONTINUOUS
 62
    3
 10
282.85306891456776
 20
1159.8642826045293
 11
282.85306891456776
 21
1151.8642826045298
  0
LINE
  8
_0-1_計細線
  6
CONTINUOUS
 62
    3
 10
282.85306891456776
 20
1151.8642826045298
 11
719.85306891456776
 21
1151.8642826045298
  0
LINE
  8
_0-1_計細線
  6
CONTINUOUS
 62
    3
 10
719.85306891456776
 20
1151.8642826045298
 11
719.85306891456776
 21
1159.8642826045293
  0
LINE
  8
_0-1_計細線
  6
CONTINUOUS
 62
    3
 10
719.85306891456776
 20
1159.8642826045293
 11
282.85306891456776
 21
1159.8642826045293
  0
LINE
  8
_0-1_計細線
  6
CONTINUOUS
 62
    3
 10
282.85306891456776
 20
1145.8642826045293
 11
282.85306891456776
 21
1137.8642826045293
  0
LINE
  8
_0-1_計細線
  6
CONTINUOUS
 62
    3
 10
282.85306891456776
 20
1137.8642826045293
 11
719.85306891456776
 21
1137.8642826045293
  0
LINE
  8
_0-1_計細線
  6
CONTINUOUS
 62
    3
 10
719.85306891456776
 20
1137.8642826045293
 11
719.85306891456776
 21
1145.8642826045293
  0
LINE
  8
_0-1_計細線
  6
CONTINUOUS
 62
    3
 10
719.85306891456776
 20
1145.8642826045293
 11
282.85306891456776
 21
1145.8642826045293
  0
LINE
  8
_0-1_計細線
  6
CONTINUOUS
 62
    3
 10
282.85306891456776
 20
1131.8642826045293
 11
282.85306891456776
 21
1123.8642826045293
  0
LINE
  8
_0-1_計細線
  6
CONTINUOUS
 62
    3
 10
282.85306891456776
 20
1123.8642826045293
 11
719.85306891456776
 21
1123.8642826045293
  0
LINE
  8
_0-1_計細線
  6
CONTINUOUS
 62
    3
 10
719.85306891456776
 20
1123.8642826045293
 11
719.85306891456776
 21
1131.8642826045293
  0
LINE
  8
_0-1_計細線
  6
CONTINUOUS
 62
    3
 10
719.85306891456776
 20
1131.8642826045293
 11
282.85306891456776
 21
1131.8642826045293
  0
LINE
  8
_0-1_計細線
  6
CONTINUOUS
 62
    3
 10
282.85306891456776
 20
1117.8642826045293
 11
282.85306891456776
 21
1109.8642826045293
  0
LINE
  8
_0-1_計細線
  6
CONTINUOUS
 62
    3
 10
282.85306891456776
 20
1109.8642826045293
 11
719.85306891456776
 21
1109.8642826045293
  0
LINE
  8
_0-1_計細線
  6
CONTINUOUS
 62
    3
 10
719.85306891456776
 20
1109.8642826045293
 11
719.85306891456776
 21
1117.8642826045293
  0
LINE
  8
_0-1_計細線
  6
CONTINUOUS
 62
    3
 10
719.85306891456776
 20
1117.8642826045293
 11
282.85306891456776
 21
1117.8642826045293
  0
LINE
  8
_0-1_計細線
  6
CONTINUOUS
 62
    3
 10
282.85306891456776
 20
1103.8642826045293
 11
282.85306891456776
 21
1095.8642826045293
  0
LINE
  8
_0-1_計細線
  6
CONTINUOUS
 62
    3
 10
282.85306891456776
 20
1095.8642826045293
 11
719.85306891456776
 21
1095.8642826045293
  0
LINE
  8
_0-1_計細線
  6
CONTINUOUS
 62
    3
 10
719.85306891456776
 20
1095.8642826045293
 11
719.85306891456776
 21
1103.8642826045293
  0
LINE
  8
_0-1_計細線
  6
CONTINUOUS
 62
    3
 10
719.85306891456776
 20
1103.8642826045293
 11
282.85306891456776
 21
1103.8642826045293
  0
LINE
  8
_0-1_計細線
  6
CONTINUOUS
 62
    3
 10
282.85306891456776
 20
1209.8642826045293
 11
282.85306891456776
 21
1205.8642826045293
  0
LINE
  8
_0-1_計細線
  6
CONTINUOUS
 62
    3
 10
282.85306891456776
 20
1205.8642826045293
 11
719.85306891456776
 21
1205.8642826045293
  0
LINE
  8
_0-1_計細線
  6
CONTINUOUS
 62
    3
 10
719.85306891456776
 20
1205.8642826045293
 11
719.85306891456776
 21
1209.8642826045293
  0
LINE
  8
_0-1_計細線
  6
CONTINUOUS
 62
    3
 10
719.85306891456776
 20
1209.8642826045293
 11
282.85306891456776
 21
1209.8642826045293
  0
LINE
  8
_0-1_計細線
  6
CONTINUOUS
 62
    3
 10
282.85306891456776
 20
1091.8642826045293
 11
282.85306891456776
 21
1087.8642826045293
  0
LINE
  8
_0-1_計細線
  6
CONTINUOUS
 62
    3
 10
282.85306891456776
 20
1087.8642826045293
 11
719.85306891456776
 21
1087.8642826045293
  0
LINE
  8
_0-1_計細線
  6
CONTINUOUS
 62
    3
 10
719.85306891456776
 20
1087.8642826045293
 11
719.85306891456776
 21
1091.8642826045293
  0
LINE
  8
_0-1_計細線
  6
CONTINUOUS
 62
    3
 10
719.85306891456776
 20
1091.8642826045293
 11
282.85306891456776
 21
1091.8642826045293
  0
LINE
  8
_0-5_寸法線
  6
CONTINUOUS
 62
    7
 10
279.85306891456776
 20
1236.8642826045293
 11
279.85306891456776
 21
1364.8642826045293
  0
LINE
  8
_0-5_寸法線
  6
CONTINUOUS
 62
    7
 10
279.85306891456776
 20
1356.8642826045293
 11
295.30788213519281
 21
1361.0053873261697
  0
LINE
  8
_0-5_寸法線
  6
CONTINUOUS
 62
    7
 10
279.85306891456776
 20
1356.8642826045293
 11
295.30788213519281
 21
1352.7231778828889
  0
LINE
  8
_0-5_寸法線
  6
CONTINUOUS
 62
    7
 10
722.85306891456776
 20
1236.8642826045293
 11
722.85306891456776
 21
1364.8642826045293
  0
LINE
  8
_0-5_寸法線
  6
CONTINUOUS
 62
    7
 10
722.85306891456776
 20
1356.8642826045293
 11
707.3982556939427
 21
1352.7231778828891
  0
LINE
  8
_0-5_寸法線
  6
CONTINUOUS
 62
    7
 10
722.85306891456776
 20
1356.8642826045293
 11
707.3982556939427
 21
1361.0053873261697
  0
LINE
  8
_0-5_寸法線
  6
CONTINUOUS
 62
    7
 10
279.85306891456776
 20
1356.8642826045293
 11
722.85306891456776
 21
1356.8642826045293
  0
TEXT
  8
_0-5_寸法線
 62
    7
 10
483.35306891456776
 20
1356.8642826045293
 40
24
 41
1
 50
0
  1
443
  0
LINE
  8
_0-0_計極細
  6
CONTINUOUS
 62
    2
 10
553.85306895250176
 20
1193.8642826045293
 11
553.85306895250176
 21
1187.8642826045293
  0
LINE
  8
_0-0_計極細
  6
CONTINUOUS
 62
    2
 10
548.85306895250176
 20
1187.8642826045293
 11
548.85306895250176
 21
1193.8642826045293
  0
LINE
  8
_0-0_計極細
  6
CONTINUOUS
 62
    2
 10
553.85306895250176
 20
1179.8642826045293
 11
553.85306895250176
 21
1173.8642826045293
  0
LINE
  8
_0-0_計極細
  6
CONTINUOUS
 62
    2
 10
548.85306895250176
 20
1173.8642826045293
 11
548.85306895250176
 21
1179.8642826045293
  0
LINE
  8
_0-0_計極細
  6
CONTINUOUS
 62
    2
 10
553.85306895250176
 20
1165.8642826045293
 11
553.85306895250176
 21
1159.8642826045289
  0
LINE
  8
_0-0_計極細
  6
CONTINUOUS
 62
    2
 10
548.85306895250176
 20
1159.8642826045284
 11
548.85306895250176
 21
1165.8642826045293
  0
LINE
  8
_0-0_計極細
  6
CONTINUOUS
 62
    2
 10
553.85306895250176
 20
1151.8642826045293
 11
553.85306895250176
 21
1145.8642826045289
  0
LINE
  8
_0-0_計極細
  6
CONTINUOUS
 62
    2
 10
548.85306895250176
 20
1145.8642826045284
 11
548.85306895250176
 21
1151.8642826045293
  0
LINE
  8
_0-0_計極細
  6
CONTINUOUS
 62
    2
 10
553.85306895250176
 20
1137.8642826045293
 11
553.85306895250176
 21
1131.8642826045289
  0
LINE
  8
_0-0_計極細
  6
CONTINUOUS
 62
    2
 10
548.85306895250176
 20
1131.8642826045284
 11
548.85306895250176
 21
1137.8642826045293
  0
LINE
  8
_0-0_計極細
  6
CONTINUOUS
 62
    2
 10
553.85306895250176
 20
1123.8642826045293
 11
553.85306895250176
 21
1117.8642826045289
  0
LINE
  8
_0-0_計極細
  6
CONTINUOUS
 62
    2
 10
548.85306895250176
 20
1117.8642826045284
 11
548.85306895250176
 21
1123.8642826045293
  0
LINE
  8
_0-0_計極細
  6
CONTINUOUS
 62
    2
 10
553.85306895250176
 20
1109.8642826045293
 11
553.85306895250176
 21
1103.8642826045289
  0
LINE
  8
_0-0_計極細
  6
CONTINUOUS
 62
    2
 10
548.85306895250176
 20
1103.8642826045284
 11
548.85306895250176
 21
1109.8642826045293
  0
LINE
  8
_0-0_計極細
  6
CONTINUOUS
 62
    2
 10
553.85306895250176
 20
1205.8642826045293
 11
553.85306895250176
 21
1201.8642826045293
  0
LINE
  8
_0-0_計極細
  6
CONTINUOUS
 62
    2
 10
548.85306895250176
 20
1201.8642826045293
 11
548.85306895250176
 21
1205.8642826045293
  0
LINE
  8
_0-0_計極細
  6
CONTINUOUS
 62
    2
 10
553.85306895250176
 20
1095.8642826045293
 11
553.85306895250176
 21
1091.8642826045289
  0
LINE
  8
_0-0_計極細
  6
CONTINUOUS
 62
    2
 10
548.85306895250176
 20
1091.8642826045284
 11
548.85306895250176
 21
1095.8642826045293
  0
LINE
  8
_0-0_計極細
  6
CENTER2
 62
    2
 10
551.35306895250176
 20
1207.8642826045293
 11
551.35306885807802
 21
1089.8642826045293
  0
LINE
  8
_0-0_計極細
  6
CONTINUOUS
 62
    2
 10
453.85306895201791
 20
1193.8642826045293
 11
453.85306895201791
 21
1187.8642826045293
  0
LINE
  8
_0-0_計極細
  6
CONTINUOUS
 62
    2
 10
448.85306895201791
 20
1187.8642826045293
 11
448.85306895201791
 21
1193.8642826045293
  0
LINE
  8
_0-0_計極細
  6
CONTINUOUS
 62
    2
 10
453.85306895201791
 20
1179.8642826045293
 11
453.85306895201791
 21
1173.8642826045293
  0
LINE
  8
_0-0_計極細
  6
CONTINUOUS
 62
    2
 10
448.85306895201791
 20
1173.8642826045293
 11
448.85306895201791
 21
1179.8642826045293
  0
LINE
  8
_0-0_計極細
  6
CONTINUOUS
 62
    2
 10
453.85306895201791
 20
1165.8642826045293
 11
453.85306895201791
 21
1159.8642826045289
  0
LINE
  8
_0-0_計極細
  6
CONTINUOUS
 62
    2
 10
448.85306895201791
 20
1159.8642826045284
 11
448.85306895201791
 21
1165.8642826045293
  0
LINE
  8
_0-0_計極細
  6
CONTINUOUS
 62
    2
 10
453.85306895201791
 20
1151.8642826045293
 11
453.85306895201791
 21
1145.8642826045289
  0
LINE
  8
_0-0_計極細
  6
CONTINUOUS
 62
    2
 10
448.85306895201791
 20
1145.8642826045284
 11
448.85306895201791
 21
1151.8642826045293
  0
LINE
  8
_0-0_計極細
  6
CONTINUOUS
 62
    2
 10
453.85306895201791
 20
1137.8642826045293
 11
453.85306895201791
 21
1131.8642826045289
  0
LINE
  8
_0-0_計極細
  6
CONTINUOUS
 62
    2
 10
448.85306895201791
 20
1131.8642826045284
 11
448.85306895201791
 21
1137.8642826045293
  0
LINE
  8
_0-0_計極細
  6
CONTINUOUS
 62
    2
 10
453.85306895201791
 20
1123.8642826045293
 11
453.85306895201791
 21
1117.8642826045289
  0
LINE
  8
_0-0_計極細
  6
CONTINUOUS
 62
    2
 10
448.85306895201791
 20
1117.8642826045284
 11
448.85306895201791
 21
1123.8642826045293
  0
LINE
  8
_0-0_計極細
  6
CONTINUOUS
 62
    2
 10
453.85306895201791
 20
1109.8642826045293
 11
453.85306895201791
 21
1103.8642826045289
  0
LINE
  8
_0-0_計極細
  6
CONTINUOUS
 62
    2
 10
448.85306895201791
 20
1103.8642826045284
 11
448.85306895201791
 21
1109.8642826045293
  0
LINE
  8
_0-0_計極細
  6
CONTINUOUS
 62
    2
 10
453.85306895201791
 20
1205.8642826045293
 11
453.85306895201791
 21
1201.8642826045293
  0
LINE
  8
_0-0_計極細
  6
CONTINUOUS
 62
    2
 10
448.85306895201791
 20
1201.8642826045293
 11
448.85306895201791
 21
1205.8642826045293
  0
LINE
  8
_0-0_計極細
  6
CONTINUOUS
 62
    2
 10
453.85306895201791
 20
1095.8642826045293
 11
453.85306895201791
 21
1091.8642826045289
  0
LINE
  8
_0-0_計極細
  6
CONTINUOUS
 62
    2
 10
448.85306895201791
 20
1091.8642826045284
 11
448.85306895201791
 21
1095.8642826045293
  0
LINE
  8
_0-0_計極細
  6
CENTER2
 62
    2
 10
451.35306895201791
 20
1207.8642826045293
 11
451.35306885759417
 21
1089.8642826045293
  0
LINE
  8
_0-0_計極細
  6
CONTINUOUS
 62
    2
 10
653.8530686080635
 20
1193.8642826045293
 11
653.8530686080635
 21
1187.8642826045293
  0
LINE
  8
_0-0_計極細
  6
CONTINUOUS
 62
    2
 10
648.8530686080635
 20
1187.8642826045293
 11
648.8530686080635
 21
1193.8642826045293
  0
LINE
  8
_0-0_計極細
  6
CONTINUOUS
 62
    2
 10
653.8530686080635
 20
1179.8642826045293
 11
653.8530686080635
 21
1173.8642826045293
  0
LINE
  8
_0-0_計極細
  6
CONTINUOUS
 62
    2
 10
648.8530686080635
 20
1173.8642826045293
 11
648.8530686080635
 21
1179.8642826045293
  0
LINE
  8
_0-0_計極細
  6
CONTINUOUS
 62
    2
 10
653.8530686080635
 20
1165.8642826045293
 11
653.8530686080635
 21
1159.8642826045289
  0
LINE
  8
_0-0_計極細
  6
CONTINUOUS
 62
    2
 10
648.8530686080635
 20
1159.8642826045284
 11
648.8530686080635
 21
1165.8642826045293
  0
LINE
  8
_0-0_計極細
  6
CONTINUOUS
 62
    2
 10
653.8530686080635
 20
1151.8642826045293
 11
653.8530686080635
 21
1145.8642826045289
  0
LINE
  8
_0-0_計極細
  6
CONTINUOUS
 62
    2
 10
648.8530686080635
 20
1145.8642826045284
 11
648.8530686080635
 21
1151.8642826045293
  0
LINE
  8
_0-0_計極細
  6
CONTINUOUS
 62
    2
 10
653.8530686080635
 20
1137.8642826045293
 11
653.8530686080635
 21
1131.8642826045289
  0
LINE
  8
_0-0_計極細
  6
CONTINUOUS
 62
    2
 10
648.8530686080635
 20
1131.8642826045284
 11
648.8530686080635
 21
1137.8642826045293
  0
LINE
  8
_0-0_計極細
  6
CONTINUOUS
 62
    2
 10
653.8530686080635
 20
1123.8642826045293
 11
653.8530686080635
 21
1117.8642826045289
  0
LINE
  8
_0-0_計極細
  6
CONTINUOUS
 62
    2
 10
648.8530686080635
 20
1117.8642826045284
 11
648.8530686080635
 21
1123.8642826045293
  0
LINE
  8
_0-0_計極細
  6
CONTINUOUS
 62
    2
 10
653.8530686080635
 20
1109.8642826045293
 11
653.8530686080635
 21
1103.8642826045289
  0
LINE
  8
_0-0_計極細
  6
CONTINUOUS
 62
    2
 10
648.8530686080635
 20
1103.8642826045284
 11
648.8530686080635
 21
1109.8642826045293
  0
LINE
  8
_0-0_計極細
  6
CONTINUOUS
 62
    2
 10
653.8530686080635
 20
1205.8642826045293
 11
653.8530686080635
 21
1201.8642826045293
  0
LINE
  8
_0-0_計極細
  6
CONTINUOUS
 62
    2
 10
648.8530686080635
 20
1201.8642826045293
 11
648.8530686080635
 21
1205.8642826045293
  0
LINE
  8
_0-0_計極細
  6
CONTINUOUS
 62
    2
 10
653.8530686080635
 20
1095.8642826045293
 11
653.8530686080635
 21
1091.8642826045289
  0
LINE
  8
_0-0_計極細
  6
CONTINUOUS
 62
    2
 10
648.8530686080635
 20
1091.8642826045284
 11
648.8530686080635
 21
1095.8642826045293
  0
LINE
  8
_0-0_計極細
  6
CENTER2
 62
    2
 10
651.3530686080635
 20
1207.8642826045293
 11
651.35306899047691
 21
1089.8642826045293
  0
LINE
  8
_0-0_計極細
  6
CONTINUOUS
 62
    2
 10
353.85306895201768
 20
1193.8642826045293
 11
353.85306895201768
 21
1187.8642826045293
  0
LINE
  8
_0-0_計極細
  6
CONTINUOUS
 62
    2
 10
348.85306895201768
 20
1187.8642826045293
 11
348.85306895201768
 21
1193.8642826045293
  0
LINE
  8
_0-0_計極細
  6
CONTINUOUS
 62
    2
 10
353.85306895201768
 20
1179.8642826045293
 11
353.85306895201768
 21
1173.8642826045293
  0
LINE
  8
_0-0_計極細
  6
CONTINUOUS
 62
    2
 10
348.85306895201768
 20
1173.8642826045293
 11
348.85306895201768
 21
1179.8642826045293
  0
LINE
  8
_0-0_計極細
  6
CONTINUOUS
 62
    2
 10
353.85306895201768
 20
1165.8642826045293
 11
353.85306895201768
 21
1159.8642826045289
  0
LINE
  8
_0-0_計極細
  6
CONTINUOUS
 62
    2
 10
348.85306895201768
 20
1159.8642826045284
 11
348.85306895201768
 21
1165.8642826045293
  0
LINE
  8
_0-0_計極細
  6
CONTINUOUS
 62
    2
 10
353.85306895201768
 20
1151.8642826045293
 11
353.85306895201768
 21
1145.8642826045289
  0
LINE
  8
_0-0_計極細
  6
CONTINUOUS
 62
    2
 10
348.85306895201768
 20
1145.8642826045284
 11
348.85306895201768
 21
1151.8642826045293
  0
LINE
  8
_0-0_計極細
  6
CONTINUOUS
 62
    2
 10
353.85306895201768
 20
1137.8642826045293
 11
353.85306895201768
 21
1131.8642826045289
  0
LINE
  8
_0-0_計極細
  6
CONTINUOUS
 62
    2
 10
348.85306895201768
 20
1131.8642826045284
 11
348.85306895201768
 21
1137.8642826045293
  0
LINE
  8
_0-0_計極細
  6
CONTINUOUS
 62
    2
 10
353.85306895201768
 20
1123.8642826045293
 11
353.85306895201768
 21
1117.8642826045289
  0
LINE
  8
_0-0_計極細
  6
CONTINUOUS
 62
    2
 10
348.85306895201768
 20
1117.8642826045284
 11
348.85306895201768
 21
1123.8642826045293
  0
LINE
  8
_0-0_計極細
  6
CONTINUOUS
 62
    2
 10
353.85306895201768
 20
1109.8642826045293
 11
353.85306895201768
 21
1103.8642826045289
  0
LINE
  8
_0-0_計極細
  6
CONTINUOUS
 62
    2
 10
348.85306895201768
 20
1103.8642826045284
 11
348.85306895201768
 21
1109.8642826045293
  0
LINE
  8
_0-0_計極細
  6
CONTINUOUS
 62
    2
 10
353.85306895201768
 20
1205.8642826045293
 11
353.85306895201768
 21
1201.8642826045293
  0
LINE
  8
_0-0_計極細
  6
CONTINUOUS
 62
    2
 10
348.85306895201768
 20
1201.8642826045293
 11
348.85306895201768
 21
1205.8642826045293
  0
LINE
  8
_0-0_計極細
  6
CONTINUOUS
 62
    2
 10
353.85306895201768
 20
1095.8642826045293
 11
353.85306895201768
 21
1091.8642826045289
  0
LINE
  8
_0-0_計極細
  6
CONTINUOUS
 62
    2
 10
348.85306895201768
 20
1091.8642826045284
 11
348.85306895201768
 21
1095.8642826045293
  0
LINE
  8
_0-0_計極細
  6
CENTER2
 62
    2
 10
351.35306895201768
 20
1207.8642826045293
 11
351.35306885759394
 21
1089.8642826045293
  0
LINE
  8
_0-5_寸法線
  6
CONTINUOUS
 62
    7
 10
279.85306891456776
 20
1236.8642826045293
 11
279.85306891456787
 21
1308.8642826045293
  0
LINE
  8
_0-5_寸法線
  6
CONTINUOUS
 62
    7
 10
279.85306891456787
 20
1300.8642826045293
 11
295.30788213519304
 21
1305.0053873261697
  0
LINE
  8
_0-5_寸法線
  6
CONTINUOUS
 62
    7
 10
279.85306891456787
 20
1300.8642826045293
 11
295.30788213519304
 21
1296.7231778828889
  0
LINE
  8
_0-5_寸法線
  6
CONTINUOUS
 62
    7
 10
351.35306891456776
 20
1236.8642826045293
 11
351.35306891456787
 21
1308.8642826045293
  0
LINE
  8
_0-5_寸法線
  6
CONTINUOUS
 62
    7
 10
351.35306891456787
 20
1300.8642826045293
 11
335.8982556939427
 21
1296.7231778828891
  0
LINE
  8
_0-5_寸法線
  6
CONTINUOUS
 62
    7
 10
351.35306891456787
 20
1300.8642826045293
 11
335.89825569394282
 21
1305.0053873261697
  0
LINE
  8
_0-5_寸法線
  6
CONTINUOUS
 62
    7
 10
279.85306891456787
 20
1300.8642826045293
 11
351.35306891456787
 21
1300.8642826045293
  0
TEXT
  8
_0-5_寸法線
 62
    7
 10
291.60306891456867
 20
1300.8642826045291
 40
24
 41
1
 50
0
  1
71.5
  0
LINE
  8
_0-5_寸法線
  6
CONTINUOUS
 62
    7
 10
351.35306891456787
 20
1300.8642826045293
 11
366.80788213519304
 21
1305.0053873261695
  0
LINE
  8
_0-5_寸法線
  6
CONTINUOUS
 62
    7
 10
351.35306891456787
 20
1300.8642826045293
 11
366.80788213519293
 21
1296.7231778828889
  0
LINE
  8
_0-5_寸法線
  6
CONTINUOUS
 62
    7
 10
651.3530685157375
 20
1236.8642826045293
 11
651.35306851573762
 21
1308.8642826045293
  0
LINE
  8
_0-5_寸法線
  6
CONTINUOUS
 62
    7
 10
651.35306851573762
 20
1300.8642826045293
 11
635.89825529511256
 21
1296.7231778828891
  0
LINE
  8
_0-5_寸法線
  6
CONTINUOUS
 62
    7
 10
651.35306851573762
 20
1300.8642826045293
 11
635.89825529511256
 21
1305.0053873261697
  0
LINE
  8
_0-5_寸法線
  6
CONTINUOUS
 62
    7
 10
351.35306891456787
 20
1300.8642826045293
 11
651.35306851573762
 21
1300.8642826045293
  0
TEXT
  8
_0-5_寸法線
 62
    7
 10
447.35306871515354
 20
1300.8642826045291
 40
24
 41
1
 50
0
  1
3@100=300
  0
LINE
  8
_0-5_寸法線
  6
CONTINUOUS
 62
    7
 10
651.35306851573762
 20
1300.8642826045293
 11
666.80788173636279
 21
1305.0053873261695
  0
LINE
  8
_0-5_寸法線
  6
CONTINUOUS
 62
    7
 10
651.35306851573762
 20
1300.8642826045293
 11
666.80788173636267
 21
1296.7231778828889
  0
LINE
  8
_0-5_寸法線
  6
CONTINUOUS
 62
    7
 10
722.85306891456776
 20
1236.8642826045293
 11
722.85306891456787
 21
1308.8642826045293
  0
LINE
  8
_0-5_寸法線
  6
CONTINUOUS
 62
    7
 10
722.85306891456787
 20
1300.8642826045293
 11
707.39825569394282
 21
1296.7231778828891
  0
LINE
  8
_0-5_寸法線
  6
CONTINUOUS
 62
    7
 10
722.85306891456787
 20
1300.8642826045293
 11
707.39825569394282
 21
1305.0053873261697
  0
LINE
  8
_0-5_寸法線
  6
CONTINUOUS
 62
    7
 10
651.35306851573762
 20
1300.8642826045293
 11
722.85306891456787
 21
1300.8642826045293
  0
TEXT
  8
_0-5_寸法線
 62
    7
 10
663.10306871515309
 20
1300.8642826045291
 40
24
 41
1
 50
0
  1
71.5
  0
LINE
  8
_0-5_寸法線
  6
CONTINUOUS
 62
    7
 10
723.85306891456776
 20
1236.8642826045293
 11
723.85306891456776
 21
1364.8642826045293
  0
LINE
  8
_0-5_寸法線
  6
CONTINUOUS
 62
    7
 10
723.85306891456776
 20
1356.8642826045293
 11
739.30788213519281
 21
1361.0053873261697
  0
LINE
  8
_0-5_寸法線
  6
CONTINUOUS
 62
    7
 10
723.85306891456776
 20
1356.8642826045293
 11
739.30788213519281
 21
1352.7231778828889
  0
LINE
  8
_0-5_寸法線
  6
CONTINUOUS
 62
    7
 10
1166.8530689145678
 20
1236.8642826045293
 11
1166.8530689145678
 21
1364.8642826045293
  0
LINE
  8
_0-5_寸法線
  6
CONTINUOUS
 62
    7
 10
1166.8530689145678
 20
1356.8642826045293
 11
1151.3982556939427
 21
1352.7231778828891
  0
LINE
  8
_0-5_寸法線
  6
CONTINUOUS
 62
    7
 10
1166.8530689145678
 20
1356.8642826045293
 11
1151.3982556939427
 21
1361.0053873261697
  0
LINE
  8
_0-5_寸法線
  6
CONTINUOUS
 62
    7
 10
723.85306891456776
 20
1356.8642826045293
 11
1166.8530689145678
 21
1356.8642826045293
  0
TEXT
  8
_0-5_寸法線
 62
    7
 10
927.35306891456776
 20
1356.8642826045293
 40
24
 41
1
 50
0
  1
443
  0
LINE
  8
_0-5_寸法線
  6
CONTINUOUS
 62
    7
 10
1611.8530689145678
 20
1236.8642826045293
 11
1611.8530689145678
 21
1364.8642826045293
  0
LINE
  8
_0-5_寸法線
  6
CONTINUOUS
 62
    7
 10
1611.8530689145678
 20
1356.8642826045293
 11
1627.3078821351928
 21
1361.0053873261697
  0
LINE
  8
_0-5_寸法線
  6
CONTINUOUS
 62
    7
 10
1611.8530689145678
 20
1356.8642826045293
 11
1627.3078821351928
 21
1352.7231778828889
  0
LINE
  8
_0-5_寸法線
  6
CONTINUOUS
 62
    7
 10
2054.8530689145682
 20
1236.8642826045293
 11
2054.8530689145682
 21
1364.8642826045293
  0
LINE
  8
_0-5_寸法線
  6
CONTINUOUS
 62
    7
 10
2054.8530689145682
 20
1356.8642826045293
 11
2039.3982556939432
 21
1352.7231778828891
  0
LINE
  8
_0-5_寸法線
  6
CONTINUOUS
 62
    7
 10
2054.8530689145682
 20
1356.8642826045293
 11
2039.3982556939432
 21
1361.0053873261697
  0
LINE
  8
_0-5_寸法線
  6
CONTINUOUS
 62
    7
 10
1611.8530689145678
 20
1356.8642826045293
 11
2054.8530689145682
 21
1356.8642826045293
  0
TEXT
  8
_0-5_寸法線
 62
    7
 10
1815.353068914568
 20
1356.8642826045293
 40
24
 41
1
 50
0
  1
443
  0
LINE
  8
_0-1_計細線
  6
CONTINUOUS
 62
    3
 10
1614.853068914568
 20
1209.8642826045293
 11
1611.853068914568
 21
1209.8642826045293
  0
LINE
  8
_0-1_計細線
  6
CONTINUOUS
 62
    3
 10
1611.853068914568
 20
1209.8642826045293
 11
1611.853068914568
 21
1087.8642826045293
  0
LINE
  8
_0-1_計細線
  6
CONTINUOUS
 62
    3
 10
1611.853068914568
 20
1087.8642826045293
 11
1614.853068914568
 21
1087.8642826045293
  0
LINE
  8
_0-1_計細線
  6
CONTINUOUS
 62
    3
 10
1614.853068914568
 20
1087.8642826045293
 11
1614.853068914568
 21
1209.8642826045293
  0
LINE
  8
_0-0_計極細
  6
CONTINUOUS
 62
    2
 10
1885.8530689525021
 20
1193.8642826045293
 11
1885.8530689525021
 21
1187.8642826045293
  0
LINE
  8
_0-0_計極細
  6
CONTINUOUS
 62
    2
 10
1880.8530689525021
 20
1187.8642826045293
 11
1880.8530689525021
 21
1193.8642826045293
  0
LINE
  8
_0-0_計極細
  6
CONTINUOUS
 62
    2
 10
1885.8530689525021
 20
1179.8642826045293
 11
1885.8530689525021
 21
1173.8642826045293
  0
LINE
  8
_0-0_計極細
  6
CONTINUOUS
 62
    2
 10
1880.8530689525021
 20
1173.8642826045293
 11
1880.8530689525021
 21
1179.8642826045293
  0
LINE
  8
_0-0_計極細
  6
CONTINUOUS
 62
    2
 10
1885.8530689525021
 20
1165.8642826045293
 11
1885.8530689525021
 21
1159.8642826045289
  0
LINE
  8
_0-0_計極細
  6
CONTINUOUS
 62
    2
 10
1880.8530689525021
 20
1159.8642826045284
 11
1880.8530689525021
 21
1165.8642826045293
  0
LINE
  8
_0-0_計極細
  6
CONTINUOUS
 62
    2
 10
1885.8530689525021
 20
1151.8642826045293
 11
1885.8530689525021
 21
1145.8642826045289
  0
LINE
  8
_0-0_計極細
  6
CONTINUOUS
 62
    2
 10
1880.8530689525021
 20
1145.8642826045284
 11
1880.8530689525021
 21
1151.8642826045293
  0
LINE
  8
_0-0_計極細
  6
CONTINUOUS
 62
    2
 10
1885.8530689525021
 20
1137.8642826045293
 11
1885.8530689525021
 21
1131.8642826045289
  0
LINE
  8
_0-0_計極細
  6
CONTINUOUS
 62
    2
 10
1880.8530689525021
 20
1131.8642826045284
 11
1880.8530689525021
 21
1137.8642826045293
  0
LINE
  8
_0-0_計極細
  6
CONTINUOUS
 62
    2
 10
1885.8530689525021
 20
1123.8642826045293
 11
1885.8530689525021
 21
1117.8642826045289
  0
LINE
  8
_0-0_計極細
  6
CONTINUOUS
 62
    2
 10
1880.8530689525021
 20
1117.8642826045284
 11
1880.8530689525021
 21
1123.8642826045293
  0
LINE
  8
_0-0_計極細
  6
CONTINUOUS
 62
    2
 10
1885.8530689525021
 20
1109.8642826045293
 11
1885.8530689525021
 21
1103.8642826045289
  0
LINE
  8
_0-0_計極細
  6
CONTINUOUS
 62
    2
 10
1880.8530689525021
 20
1103.8642826045284
 11
1880.8530689525021
 21
1109.8642826045293
  0
LINE
  8
_0-0_計極細
  6
CONTINUOUS
 62
    2
 10
1885.8530689525021
 20
1205.8642826045293
 11
1885.8530689525021
 21
1201.8642826045293
  0
LINE
  8
_0-0_計極細
  6
CONTINUOUS
 62
    2
 10
1880.8530689525021
 20
1201.8642826045293
 11
1880.8530689525021
 21
1205.8642826045293
  0
LINE
  8
_0-0_計極細
  6
CONTINUOUS
 62
    2
 10
1885.8530689525021
 20
1095.8642826045293
 11
1885.8530689525021
 21
1091.8642826045289
  0
LINE
  8
_0-0_計極細
  6
CONTINUOUS
 62
    2
 10
1880.8530689525021
 20
1091.8642826045284
 11
1880.8530689525021
 21
1095.8642826045293
  0
LINE
  8
_0-0_計極細
  6
CENTER2
 62
    2
 10
1883.3530689525021
 20
1207.8642826045293
 11
1883.3530688580784
 21
1089.8642826045293
  0
LINE
  8
_0-0_計極細
  6
CONTINUOUS
 62
    2
 10
1785.8530689520182
 20
1193.8642826045293
 11
1785.8530689520182
 21
1187.8642826045293
  0
LINE
  8
_0-0_計極細
  6
CONTINUOUS
 62
    2
 10
1780.8530689520182
 20
1187.8642826045293
 11
1780.8530689520182
 21
1193.8642826045293
  0
LINE
  8
_0-0_計極細
  6
CONTINUOUS
 62
    2
 10
1785.8530689520182
 20
1179.8642826045293
 11
1785.8530689520182
 21
1173.8642826045293
  0
LINE
  8
_0-0_計極細
  6
CONTINUOUS
 62
    2
 10
1780.8530689520182
 20
1173.8642826045293
 11
1780.8530689520182
 21
1179.8642826045293
  0
LINE
  8
_0-0_計極細
  6
CONTINUOUS
 62
    2
 10
1785.8530689520182
 20
1165.8642826045293
 11
1785.8530689520182
 21
1159.8642826045289
  0
LINE
  8
_0-0_計極細
  6
CONTINUOUS
 62
    2
 10
1780.8530689520182
 20
1159.8642826045284
 11
1780.8530689520182
 21
1165.8642826045293
  0
LINE
  8
_0-0_計極細
  6
CONTINUOUS
 62
    2
 10
1785.8530689520182
 20
1151.8642826045293
 11
1785.8530689520182
 21
1145.8642826045289
  0
LINE
  8
_0-0_計極細
  6
CONTINUOUS
 62
    2
 10
1780.8530689520182
 20
1145.8642826045284
 11
1780.8530689520182
 21
1151.8642826045293
  0
LINE
  8
_0-0_計極細
  6
CONTINUOUS
 62
    2
 10
1785.8530689520182
 20
1137.8642826045293
 11
1785.8530689520182
 21
1131.8642826045289
  0
LINE
  8
_0-0_計極細
  6
CONTINUOUS
 62
    2
 10
1780.8530689520182
 20
1131.8642826045284
 11
1780.8530689520182
 21
1137.8642826045293
  0
LINE
  8
_0-0_計極細
  6
CONTINUOUS
 62
    2
 10
1785.8530689520182
 20
1123.8642826045293
 11
1785.8530689520182
 21
1117.8642826045289
  0
LINE
  8
_0-0_計極細
  6
CONTINUOUS
 62
    2
 10
1780.8530689520182
 20
1117.8642826045284
 11
1780.8530689520182
 21
1123.8642826045293
  0
LINE
  8
_0-0_計極細
  6
CONTINUOUS
 62
    2
 10
1785.8530689520182
 20
1109.8642826045293
 11
1785.8530689520182
 21
1103.8642826045289
  0
LINE
  8
_0-0_計極細
  6
CONTINUOUS
 62
    2
 10
1780.8530689520182
 20
1103.8642826045284
 11
1780.8530689520182
 21
1109.8642826045293
  0
LINE
  8
_0-0_計極細
  6
CONTINUOUS
 62
    2
 10
1785.8530689520182
 20
1205.8642826045293
 11
1785.8530689520182
 21
1201.8642826045293
  0
LINE
  8
_0-0_計極細
  6
CONTINUOUS
 62
    2
 10
1780.8530689520182
 20
1201.8642826045293
 11
1780.8530689520182
 21
1205.8642826045293
  0
LINE
  8
_0-0_計極細
  6
CONTINUOUS
 62
    2
 10
1785.8530689520182
 20
1095.8642826045293
 11
1785.8530689520182
 21
1091.8642826045289
  0
LINE
  8
_0-0_計極細
  6
CONTINUOUS
 62
    2
 10
1780.8530689520182
 20
1091.8642826045284
 11
1780.8530689520182
 21
1095.8642826045293
  0
LINE
  8
_0-0_計極細
  6
CENTER2
 62
    2
 10
1783.3530689520182
 20
1207.8642826045293
 11
1783.3530688575945
 21
1089.8642826045293
  0
LINE
  8
_0-0_計極細
  6
CONTINUOUS
 62
    2
 10
1685.8530689520178
 20
1193.8642826045293
 11
1685.8530689520178
 21
1187.8642826045293
  0
LINE
  8
_0-0_計極細
  6
CONTINUOUS
 62
    2
 10
1680.8530689520178
 20
1187.8642826045293
 11
1680.8530689520178
 21
1193.8642826045293
  0
LINE
  8
_0-0_計極細
  6
CONTINUOUS
 62
    2
 10
1685.8530689520178
 20
1179.8642826045293
 11
1685.8530689520178
 21
1173.8642826045293
  0
LINE
  8
_0-0_計極細
  6
CONTINUOUS
 62
    2
 10
1680.8530689520178
 20
1173.8642826045293
 11
1680.8530689520178
 21
1179.8642826045293
  0
LINE
  8
_0-0_計極細
  6
CONTINUOUS
 62
    2
 10
1685.8530689520178
 20
1165.8642826045293
 11
1685.8530689520178
 21
1159.8642826045289
  0
LINE
  8
_0-0_計極細
  6
CONTINUOUS
 62
    2
 10
1680.8530689520178
 20
1159.8642826045284
 11
1680.8530689520178
 21
1165.8642826045293
  0
LINE
  8
_0-0_計極細
  6
CONTINUOUS
 62
    2
 10
1685.8530689520178
 20
1151.8642826045293
 11
1685.8530689520178
 21
1145.8642826045289
  0
LINE
  8
_0-0_計極細
  6
CONTINUOUS
 62
    2
 10
1680.8530689520178
 20
1145.8642826045284
 11
1680.8530689520178
 21
1151.8642826045293
  0
LINE
  8
_0-0_計極細
  6
CONTINUOUS
 62
    2
 10
1685.8530689520178
 20
1137.8642826045293
 11
1685.8530689520178
 21
1131.8642826045289
  0
LINE
  8
_0-0_計極細
  6
CONTINUOUS
 62
    2
 10
1680.8530689520178
 20
1131.8642826045284
 11
1680.8530689520178
 21
1137.8642826045293
  0
LINE
  8
_0-0_計極細
  6
CONTINUOUS
 62
    2
 10
1685.8530689520178
 20
1123.8642826045293
 11
1685.8530689520178
 21
1117.8642826045289
  0
LINE
  8
_0-0_計極細
  6
CONTINUOUS
 62
    2
 10
1680.8530689520178
 20
1117.8642826045284
 11
1680.8530689520178
 21
1123.8642826045293
  0
LINE
  8
_0-0_計極細
  6
CONTINUOUS
 62
    2
 10
1685.8530689520178
 20
1109.8642826045293
 11
1685.8530689520178
 21
1103.8642826045289
  0
LINE
  8
_0-0_計極細
  6
CONTINUOUS
 62
    2
 10
1680.8530689520178
 20
1103.8642826045284
 11
1680.8530689520178
 21
1109.8642826045293
  0
LINE
  8
_0-0_計極細
  6
CONTINUOUS
 62
    2
 10
1685.8530689520178
 20
1205.8642826045293
 11
1685.8530689520178
 21
1201.8642826045293
  0
LINE
  8
_0-0_計極細
  6
CONTINUOUS
 62
    2
 10
1680.8530689520178
 20
1201.8642826045293
 11
1680.8530689520178
 21
1205.8642826045293
  0
LINE
  8
_0-0_計極細
  6
CONTINUOUS
 62
    2
 10
1685.8530689520178
 20
1095.8642826045293
 11
1685.8530689520178
 21
1091.8642826045289
  0
LINE
  8
_0-0_計極細
  6
CONTINUOUS
 62
    2
 10
1680.8530689520178
 20
1091.8642826045284
 11
1680.8530689520178
 21
1095.8642826045293
  0
LINE
  8
_0-0_計極細
  6
CENTER2
 62
    2
 10
1683.3530689520178
 20
1207.8642826045293
 11
1683.3530688575941
 21
1089.8642826045293
  0
LINE
  8
_0-5_寸法線
  6
CONTINUOUS
 62
    7
 10
305.3530689145681
 20
792.36428260452931
 11
314.07835633490436
 21
778.95274430974291
  0
LINE
  8
_0-5_寸法線
  6
CONTINUOUS
 62
    7
 10
305.3530689145681
 20
792.36428260452931
 11
306.20362032850699
 21
776.3869060272483
  0
LINE
  8
_0-5_寸法線
  6
CONTINUOUS
 62
    7
 10
305.3530689145681
 20
792.36428260452931
 11
318.49362221924127
 21
752.03501128674043
  0
LINE
  8
_0-5_寸法線
  6
CONTINUOUS
 62
    7
 10
318.49362221924127
 20
752.03501128674043
 11
395.29362221924134
 21
752.03501128674043
  0
TEXT
  8
_0-5_寸法線
 62
    7
 10
318.49362221924127
 20
752.03501128674043
 40
24
 41
0.8000000000000001
 50
0
  1
アンカー
  0
LINE
  8
_0-0_計極細
  6
CENTER1
 62
    2
 10
305.3530689145681
 20
787.58140087879065
 11
305.3530689145681
 21
832.63510095632819
  0
LINE
  8
_0-1_計細線
  6
CONTINUOUS
 62
    3
 10
299.35306906764879
 20
827.36428260452931
 11
297.35306906764879
 21
825.36428260452931
  0
LINE
  8
_0-1_計細線
  6
CONTINUOUS
 62
    3
 10
297.35306906764879
 20
815.36428260452931
 11
297.35306906764879
 21
825.36428260452931
  0
LINE
  8
_0-1_計細線
  6
CONTINUOUS
 62
    3
 10
313.35306876148741
 20
815.36428260452931
 11
313.35306876148741
 21
825.36428260452931
  0
LINE
  8
_0-1_計細線
  6
CONTINUOUS
 62
    3
 10
299.35306906764879
 20
811.36428260452931
 11
297.35306906764879
 21
809.36428260452931
  0
LINE
  8
_0-1_計細線
  6
CONTINUOUS
 62
    3
 10
299.35306906764879
 20
813.36428260452931
 11
299.35306906764879
 21
811.36428260452931
  0
LINE
  8
_0-1_計細線
  6
CONTINUOUS
 62
    3
 10
297.35306906764879
 20
815.36428260452931
 11
299.35306906764879
 21
813.36428260452931
  0
LINE
  8
_0-1_計細線
  6
CONTINUOUS
 62
    3
 10
311.35306876148741
 20
811.36428260452931
 11
313.35306876148741
 21
809.36428260452931
  0
LINE
  8
_0-1_計細線
  6
CONTINUOUS
 62
    3
 10
311.35306876148741
 20
813.36428260452931
 11
311.35306876148741
 21
811.36428260452931
  0
LINE
  8
_0-1_計細線
  6
CONTINUOUS
 62
    3
 10
313.35306876148741
 20
815.36428260452931
 11
311.35306876148741
 21
813.36428260452931
  0
LINE
  8
_0-1_計細線
  6
CONTINUOUS
 62
    3
 10
297.35306906764879
 20
809.36428260452931
 11
297.35306906764879
 21
795.36428260452931
  0
ARC
  8
_0-1_計細線
  6
CONTINUOUS
 62
    3
 10
300.35306906764879
 20
795.36428260452931
 40
3
 50
179.99999999999983
 51
269.99999999999977
  0
LINE
  8
_0-1_計細線
  6
CONTINUOUS
 62
    3
 10
300.35306906764879
 20
792.36428260452931
 11
310.35306876148741
 21
792.36428260452931
  0
LINE
  8
_0-1_計細線
  6
CONTINUOUS
 62
    3
 10
313.35306876148741
 20
809.36428260452931
 11
313.35306876148741
 21
795.36428260452931
  0
ARC
  8
_0-1_計細線
  6
CONTINUOUS
 62
    3
 10
310.35306876148741
 20
795.36428260452931
 40
3
 50
269.99999999999977
 51
359.99999999999966
  0
LINE
  8
_0-1_計細線
  6
CONTINUOUS
 62
    3
 10
299.35306906764879
 20
827.36428260452931
 11
311.35306876148741
 21
827.36428260452931
  0
LINE
  8
_0-1_計細線
  6
CONTINUOUS
 62
    3
 10
313.35306876148741
 20
825.36428260452931
 11
311.35306876148741
 21
827.36428260452931
  0
LINE
  8
_0-1_計細線
  6
CONTINUOUS
 62
    3
 10
281.35306891456821
 20
815.36428260452931
 11
297.35306906764879
 21
815.36428260452931
  0
LINE
  8
_0-0_計極細
  6
DASHED2
 62
    2
 10
2029.353068914568
 20
787.58140087879065
 11
2029.353068914568
 21
832.63510095632819
  0
LINE
  8
_0-1_計細線
  6
DASHED2
 62
    3
 10
2037.3530687614873
 20
825.36428260452931
 11
2035.3530687614873
 21
827.36428260452931
  0
LINE
  8
_0-1_計細線
  6
DASHED2
 62
    3
 10
2023.3530690676487
 20
827.36428260452931
 11
2035.3530687614873
 21
827.36428260452931
  0
ARC
  8
_0-1_計細線
  6
DASHED2
 62
    3
 10
2034.3530687614873
 20
795.36428260452931
 40
3
 50
269.99999999999977
 51
359.99999999999966
  0
LINE
  8
_0-1_計細線
  6
DASHED2
 62
    3
 10
2037.3530687614873
 20
809.36428260452931
 11
2037.3530687614873
 21
795.36428260452931
  0
LINE
  8
_0-1_計細線
  6
DASHED2
 62
    3
 10
2024.3530690676487
 20
792.36428260452931
 11
2034.3530687614873
 21
792.36428260452931
  0
ARC
  8
_0-1_計細線
  6
DASHED2
 62
    3
 10
2024.3530690676487
 20
795.36428260452931
 40
3
 50
179.99999999999983
 51
269.99999999999977
  0
LINE
  8
_0-1_計細線
  6
DASHED2
 62
    3
 10
2021.3530690676487
 20
809.36428260452931
 11
2021.3530690676487
 21
795.36428260452931
  0
LINE
  8
_0-1_計細線
  6
DASHED2
 62
    3
 10
2037.3530687614873
 20
815.36428260452931
 11
2035.3530687614873
 21
813.36428260452931
  0
LINE
  8
_0-1_計細線
  6
DASHED2
 62
    3
 10
2035.3530687614873
 20
813.36428260452931
 11
2035.3530687614873
 21
811.36428260452931
  0
LINE
  8
_0-1_計細線
  6
DASHED2
 62
    3
 10
2035.3530687614873
 20
811.36428260452931
 11
2037.3530687614873
 21
809.36428260452931
  0
LINE
  8
_0-1_計細線
  6
DASHED2
 62
    3
 10
2021.3530690676487
 20
815.36428260452931
 11
2023.3530690676487
 21
813.36428260452931
  0
LINE
  8
_0-1_計細線
  6
DASHED2
 62
    3
 10
2023.3530690676487
 20
813.36428260452931
 11
2023.3530690676487
 21
811.36428260452931
  0
LINE
  8
_0-1_計細線
  6
DASHED2
 62
    3
 10
2023.3530690676487
 20
811.36428260452931
 11
2021.3530690676487
 21
809.36428260452931
  0
LINE
  8
_0-1_計細線
  6
DASHED2
 62
    3
 10
2037.3530687614873
 20
815.36428260452931
 11
2037.3530687614873
 21
825.36428260452931
  0
LINE
  8
_0-1_計細線
  6
DASHED2
 62
    3
 10
2021.3530690676487
 20
815.36428260452931
 11
2021.3530690676487
 21
825.36428260452931
  0
LINE
  8
_0-1_計細線
  6
DASHED2
 62
    3
 10
2023.3530690676487
 20
827.36428260452931
 11
2021.3530690676487
 21
825.36428260452931
  0
LINE
  8
_0-0_計極細
  6
CENTER1
 62
    2
 10
736.3530689145681
 20
787.58140087879065
 11
736.3530689145681
 21
832.63510095632819
  0
LINE
  8
_0-1_計細線
  6
CONTINUOUS
 62
    3
 10
730.35306906764879
 20
827.36428260452931
 11
728.35306906764879
 21
825.36428260452931
  0
LINE
  8
_0-1_計細線
  6
CONTINUOUS
 62
    3
 10
728.35306906764879
 20
815.36428260452931
 11
728.35306906764879
 21
825.36428260452931
  0
LINE
  8
_0-1_計細線
  6
CONTINUOUS
 62
    3
 10
744.35306876148741
 20
815.36428260452931
 11
744.35306876148741
 21
825.36428260452931
  0
LINE
  8
_0-1_計細線
  6
CONTINUOUS
 62
    3
 10
730.35306906764879
 20
811.36428260452931
 11
728.35306906764879
 21
809.36428260452931
  0
LINE
  8
_0-1_計細線
  6
CONTINUOUS
 62
    3
 10
730.35306906764879
 20
813.36428260452931
 11
730.35306906764879
 21
811.36428260452931
  0
LINE
  8
_0-1_計細線
  6
CONTINUOUS
 62
    3
 10
728.35306906764879
 20
815.36428260452931
 11
730.35306906764879
 21
813.36428260452931
  0
LINE
  8
_0-1_計細線
  6
CONTINUOUS
 62
    3
 10
742.35306876148741
 20
811.36428260452931
 11
744.35306876148741
 21
809.36428260452931
  0
LINE
  8
_0-1_計細線
  6
CONTINUOUS
 62
    3
 10
742.35306876148741
 20
813.36428260452931
 11
742.35306876148741
 21
811.36428260452931
  0
LINE
  8
_0-1_計細線
  6
CONTINUOUS
 62
    3
 10
744.35306876148741
 20
815.36428260452931
 11
742.35306876148741
 21
813.36428260452931
  0
LINE
  8
_0-1_計細線
  6
CONTINUOUS
 62
    3
 10
728.35306906764879
 20
809.36428260452931
 11
728.35306906764879
 21
795.36428260452931
  0
ARC
  8
_0-1_計細線
  6
CONTINUOUS
 62
    3
 10
731.35306906764879
 20
795.36428260452931
 40
3
 50
179.99999999999983
 51
269.99999999999977
  0
LINE
  8
_0-1_計細線
  6
CONTINUOUS
 62
    3
 10
731.35306906764879
 20
792.36428260452931
 11
741.35306876148741
 21
792.36428260452931
  0
LINE
  8
_0-1_計細線
  6
CONTINUOUS
 62
    3
 10
744.35306876148741
 20
809.36428260452931
 11
744.35306876148741
 21
795.36428260452931
  0
ARC
  8
_0-1_計細線
  6
CONTINUOUS
 62
    3
 10
741.35306876148741
 20
795.36428260452931
 40
3
 50
269.99999999999977
 51
359.99999999999966
  0
LINE
  8
_0-1_計細線
  6
CONTINUOUS
 62
    3
 10
730.35306906764879
 20
827.36428260452931
 11
742.35306876148741
 21
827.36428260452931
  0
LINE
  8
_0-1_計細線
  6
CONTINUOUS
 62
    3
 10
744.35306876148741
 20
825.36428260452931
 11
742.35306876148741
 21
827.36428260452931
  0
LINE
  8
_0-1_計細線
  6
CONTINUOUS
 62
    3
 10
313.35306876148741
 20
815.36428260452931
 11
728.35306906764879
 21
815.36428260452931
  0
LINE
  8
_0-5_寸法線
  6
CONTINUOUS
 62
    7
 10
269.35306891456833
 20
852.86428260452931
 11
269.35306891456867
 21
924.86428260452931
  0
LINE
  8
_0-5_寸法線
  6
CONTINUOUS
 62
    7
 10
269.35306891456867
 20
916.86428260452931
 11
284.80788213519372
 21
921.00538732616963
  0
LINE
  8
_0-5_寸法線
  6
CONTINUOUS
 62
    7
 10
269.35306891456867
 20
916.86428260452931
 11
284.80788213519372
 21
912.72317788288899
  0
LINE
  8
_0-5_寸法線
  6
CONTINUOUS
 62
    7
 10
305.35306891456821
 20
852.86428260452931
 11
305.35306891456867
 21
924.86428260452931
  0
LINE
  8
_0-5_寸法線
  6
CONTINUOUS
 62
    7
 10
305.35306891456855
 20
916.86428260452931
 11
289.89825569394338
 21
912.72317788288899
  0
LINE
  8
_0-5_寸法線
  6
CONTINUOUS
 62
    7
 10
305.35306891456855
 20
916.86428260452931
 11
289.8982556939435
 21
921.00538732616974
  0
LINE
  8
_0-5_寸法線
  6
CONTINUOUS
 62
    7
 10
269.35306891456867
 20
916.86428260452931
 11
305.35306891456855
 21
916.86428260452931
  0
TEXT
  8
_0-5_寸法線
 62
    7
 10
275.35306891456867
 20
916.86428260452931
 40
24
 41
1
 50
0
  1
36
  0
LINE
  8
_0-5_寸法線
  6
CONTINUOUS
 62
    7
 10
305.35306891456855
 20
916.86428260452931
 11
320.80788213519372
 21
921.00538732616951
  0
LINE
  8
_0-5_寸法線
  6
CONTINUOUS
 62
    7
 10
305.35306891456855
 20
916.86428260452931
 11
320.80788213519361
 21
912.72317788288888
  0
LINE
  8
_0-5_寸法線
  6
CONTINUOUS
 62
    7
 10
2029.353068914568
 20
852.86428260452931
 11
2029.3530689145684
 21
924.86428260452931
  0
LINE
  8
_0-5_寸法線
  6
CONTINUOUS
 62
    7
 10
2029.3530689145684
 20
916.86428260452931
 11
2013.8982556939434
 21
912.72317788288899
  0
LINE
  8
_0-5_寸法線
  6
CONTINUOUS
 62
    7
 10
2029.3530689145684
 20
916.86428260452931
 11
2013.8982556939434
 21
921.00538732616974
  0
LINE
  8
_0-5_寸法線
  6
CONTINUOUS
 62
    7
 10
305.35306891456855
 20
916.86428260452931
 11
2029.3530689145684
 21
916.86428260452931
  0
TEXT
  8
_0-5_寸法線
 62
    7
 10
1107.3530689145684
 20
916.86428260452897
 40
24
 41
1
 50
0
  1
4@431=1724
  0
LINE
  8
_0-5_寸法線
  6
CONTINUOUS
 62
    7
 10
2029.3530689145684
 20
916.86428260452931
 11
2044.8078821351935
 21
921.00538732616951
  0
LINE
  8
_0-5_寸法線
  6
CONTINUOUS
 62
    7
 10
2029.3530689145684
 20
916.86428260452931
 11
2044.8078821351935
 21
912.72317788288888
  0
LINE
  8
_0-5_寸法線
  6
CONTINUOUS
 62
    7
 10
2065.3530689145682
 20
852.86428260452931
 11
2065.3530689145691
 21
924.86428260452931
  0
LINE
  8
_0-5_寸法線
  6
CONTINUOUS
 62
    7
 10
2065.3530689145691
 20
916.86428260452931
 11
2049.8982556939441
 21
912.72317788288899
  0
LINE
  8
_0-5_寸法線
  6
CONTINUOUS
 62
    7
 10
2065.3530689145691
 20
916.86428260452931
 11
2049.8982556939441
 21
921.00538732616974
  0
LINE
  8
_0-5_寸法線
  6
CONTINUOUS
 62
    7
 10
2029.3530689145684
 20
916.86428260452931
 11
2065.3530689145691
 21
916.86428260452931
  0
TEXT
  8
_0-5_寸法線
 62
    7
 10
2035.3530689145689
 20
916.86428260452908
 40
24
 41
1
 50
0
  1
36
  0
ARC
  8
_0-1_計細線
  6
CONTINUOUS
 62
    3
 10
2023.9678305361847
 20
1163.0640874925348
 40
0.501740082747087
 50
330.00000000003996
 51
20.189990999990084
  0
ARC
  8
_0-1_計細線
  6
CONTINUOUS
 62
    3
 10
2023.9678305361847
 20
1134.6644777165257
 40
0.501740082747087
 50
339.81000900000919
 51
29.999999999959307
  0
LINE
  8
_0-1_計細線
  6
CONTINUOUS
 62
    3
 10
1986.6566370099833
 20
1151.1221220082493
 11
1985.353068914568
 21
1153.3799614119685
  0
LINE
  8
_0-1_計細線
  6
CONTINUOUS
 62
    3
 10
1986.6566370099833
 20
1151.1221220082493
 11
1966.5167456542365
 21
1186.005433729556
  0
LINE
  8
_0-1_計細線
  6
CONTINUOUS
 62
    3
 10
1986.6566370099833
 20
1151.1221220082493
 11
1989.26376717991
 21
1151.1221220082493
  0
LINE
  8
_0-1_計細線
  6
CONTINUOUS
 62
    3
 10
1982.7459447655472
 20
1148.8642826045293
 11
1962.6060534097967
 21
1183.7475943258382
  0
ARC
  8
_0-1_計細線
  6
CONTINUOUS
 62
    3
 10
1953.7482965509923
 20
1122.5228228944693
 40
0.501740082747087
 50
219.81000899998574
 51
269.99999999999977
  0
LINE
  8
_0-1_計細線
  6
CONTINUOUS
 62
    3
 10
1986.6566370099833
 20
1146.6064432008102
 11
1966.5167456542365
 21
1111.7231314795031
  0
LINE
  8
_0-1_計細線
  6
CONTINUOUS
 62
    3
 10
1982.7459447655472
 20
1148.8642826045293
 11
1962.6060534097967
 21
1113.9809708832222
  0
ARC
  8
_0-1_計細線
  6
CONTINUOUS
 62
    3
 10
1985.353068914568
 20
1148.8642826045293
 40
46.4111412917104
 50
89.999999999999915
 51
269.99999999999977
  0
ARC
  8
_0-1_計細線
  6
CONTINUOUS
 62
    3
 10
1985.353068914568
 20
1148.8642826045293
 40
57.198598227560829
 50
89.999999999999915
 51
269.99999999999977
  0
CIRCLE
  8
_0-1_計細線
  6
CONTINUOUS
 62
    3
 10
1985.353068914568
 20
1148.8642826045293
 40
58.202084413960065
  0
LINE
  8
_0-1_計細線
  6
CONTINUOUS
 62
    3
 10
1986.6566370099833
 20
1151.1221220082493
 11
2026.9364137005739
 21
1151.1221220082493
  0
LINE
  8
_0-1_計細線
  6
CONTINUOUS
 62
    3
 10
1986.6566370099833
 20
1146.6064432008102
 11
2026.9364137005739
 21
1146.6064432008102
  0
ARC
  8
_0-1_計細線
  6
CONTINUOUS
 62
    3
 10
1985.353068914568
 20
1148.8642826045293
 40
46.4111412917104
 50
269.99999999999977
 51
89.999999999999545
  0
ARC
  8
_0-1_計細線
  6
CONTINUOUS
 62
    3
 10
1985.353068914568
 20
1148.8642826045293
 40
57.198598227560829
 50
269.99999999999977
 51
89.999999999999545
  0
ARC
  8
_0-1_計細線
  6
CONTINUOUS
 62
    3
 10
1985.353068914568
 20
1148.8642826045293
 40
41.644595453350369
 50
89.999999999999915
 51
116.89207624474167
  0
ARC
  8
_0-1_計細線
  6
CONTINUOUS
 62
    3
 10
1985.353068914568
 20
1148.8642826045293
 40
41.644595453350369
 50
123.10791868694014
 51
236.89208131305782
  0
ARC
  8
_0-1_計細線
  6
CONTINUOUS
 62
    3
 10
1985.353068914568
 20
1148.8642826045293
 40
41.644595453350369
 50
243.10792375525659
 51
269.99999999999977
  0
ARC
  8
_0-1_計細線
  6
CONTINUOUS
 62
    3
 10
1985.353068914568
 20
1148.8642826045293
 40
41.644595453350369
 50
269.99999999999977
 51
356.8920785890931
  0
ARC
  8
_0-1_計細線
  6
CONTINUOUS
 62
    3
 10
1985.353068914568
 20
1148.8642826045293
 40
41.644595453350369
 50
3.1079214109077964
 51
89.999999999999915
  0
ARC
  8
_0-0_計極細
  6
CONTINUOUS
 62
    2
 10
1985.353068914568
 20
1148.8642826045293
 40
50.153133796808191
 50
269.99999999999977
 51
89.999999999999545
  0
ARC
  8
_0-0_計極細
  6
CONTINUOUS
 62
    2
 10
1985.353068914568
 20
1148.8642826045293
 40
50.153133796808191
 50
89.999999999999915
 51
269.99999999999977
  0
ARC
  8
_0-0_計極細
  6
CONTINUOUS
 62
    2
 10
1971.7380678700608
 20
1119.7632403749381
 40
0.501740082747087
 50
149.99997568607938
 51
210.00002243784951
  0
ARC
  8
_0-0_計極細
  6
CONTINUOUS
 62
    2
 10
1985.6427527205167
 20
1142.8433775279432
 40
1.0034861863992508
 50
29.999999999951111
 51
149.99999999997101
  0
ARC
  8
_0-0_計極細
  6
CONTINUOUS
 62
    2
 10
1985.6427527205167
 20
1142.8433775279432
 40
1.0034861863992508
 50
29.999999999951111
 51
106.77865499997519
  0
ARC
  8
_0-0_計極細
  6
CONTINUOUS
 62
    2
 10
1979.9939757030959
 20
1146.1047031180628
 40
1.0034861863992508
 50
329.99999999995163
 51
89.999999999999545
  0
ARC
  8
_0-0_計極細
  6
CONTINUOUS
 62
    2
 10
1944.85785261453
 20
1156.1430434036224
 40
0.501740082747087
 50
89.993779916795503
 51
169.8086801233749
  0
ARC
  8
_0-0_計極細
  6
CONTINUOUS
 62
    2
 10
1944.8562869090972
 20
1141.592520070868
 40
0.501740082747087
 50
190.17882981053808
 51
269.99383436904543
  0
ARC
  8
_0-0_計極細
  6
CONTINUOUS
 62
    2
 10
1944.804554618491
 20
1151.6273690011635
 40
1.0034861863992508
 50
176.10042624738318
 51
269.99385985774035
  0
ARC
  8
_0-0_計極細
  6
CONTINUOUS
 62
    2
 10
1985.353068914568
 20
1148.8642826045293
 40
37.630656728658437
 50
317.45760300000074
 51
327.38710799999916
  0
ARC
  8
_0-0_計極細
  6
CONTINUOUS
 62
    2
 10
1985.353068914568
 20
1148.8642826045293
 40
37.630656728658437
 50
32.612892000001082
 51
42.54239699999939
  0
LINE
  8
_0-0_計極細
  6
CONTINUOUS
 62
    2
 10
2020.5272866855555
 20
1129.585344549304
 11
2011.5691974645549
 21
1145.1012169316655
  0
LINE
  8
_0-0_計極細
  6
CONTINUOUS
 62
    2
 10
2019.1204600680765
 20
1124.9976496962431
 11
2006.7894598231712
 21
1146.3555701489836
  0
LINE
  8
_0-0_計極細
  6
CONTINUOUS
 62
    2
 10
2014.498524327845
 20
1120.9612650374256
 11
2000.5613212147562
 21
1145.1012169316655
  0
LINE
  8
_0-0_計極細
  6
CONTINUOUS
 62
    2
 10
2020.5272866855555
 20
1168.143220659756
 11
2011.5691974645549
 21
1152.6273482773954
  0
LINE
  8
_0-0_計極細
  6
CONTINUOUS
 62
    2
 10
2019.1204600680765
 20
1172.7309155128164
 11
2006.7894598231712
 21
1151.3729950600755
  0
LINE
  8
_0-0_計極細
  6
CONTINUOUS
 62
    2
 10
2014.498524327845
 20
1176.7672941507299
 11
2000.5613212147562
 21
1152.6273482773954
  0
LINE
  8
_0-0_計極細
  6
CONTINUOUS
 62
    2
 10
1983.3461025626746
 20
1121.844646209358
 11
1983.3461025626746
 21
1129.7620581133019
  0
LINE
  8
_0-0_計極細
  6
CONTINUOUS
 62
    2
 10
1983.8478426454219
 20
1121.8120550501781
 11
1983.8478426454219
 21
1128.893018737263
  0
ARC
  8
_0-0_計極細
  6
CONTINUOUS
 62
    2
 10
1985.353068914568
 20
1148.8642826045293
 40
37.630656728658437
 50
213.59599499999973
 51
225.50677599999941
  0
LINE
  8
_0-0_計極細
  6
CONTINUOUS
 62
    2
 10
2012.3354058027905
 20
1117.6835144182596
 11
1995.7815835733725
 21
1146.3555701489836
  0
LINE
  8
_0-0_計極細
  6
CONTINUOUS
 62
    2
 10
2007.1475531526019
 20
1114.6273270850038
 11
1989.5534449649565
 21
1145.1012169316655
  0
LINE
  8
_0-0_計極細
  6
CONTINUOUS
 62
    2
 10
1989.1384841870783
 20
1107.68754760106
 11
1976.8074839421731
 21
1129.045468053801
  0
LINE
  8
_0-0_計極細
  6
CONTINUOUS
 62
    2
 10
1994.9450631056513
 20
1109.6720680188278
 11
1981.0078599925616
 21
1133.8120199130667
  0
LINE
  8
_0-0_計極細
  6
CONTINUOUS
 62
    2
 10
1998.8652442964919
 20
1109.9065100207017
 11
1982.3114220670739
 21
1138.578571772332
  0
LINE
  8
_0-0_計極細
  6
CONTINUOUS
 62
    2
 10
2004.1059002842028
 20
1112.871233784937
 11
1986.5117981174624
 21
1143.3451176106919
  0
LINE
  8
_0-0_計極細
  6
CONTINUOUS
 62
    2
 10
1953.7482965509923
 20
1122.0210828117224
 11
1966.9583308743638
 21
1122.0210828117224
  0
ARC
  8
_0-0_計極細
  6
CONTINUOUS
 62
    2
 10
1963.4821613283964
 20
1117.5054040042828
 40
1.0034861863992508
 50
329.99999999997061
 51
89.999999999999545
  0
ARC
  8
_0-0_計極細
  6
CONTINUOUS
 62
    2
 10
1985.353068914568
 20
1148.8642826045293
 40
37.630656728658437
 50
233.77152299999938
 51
236.31964599999873
  0
ARC
  8
_0-0_計極細
  6
CONTINUOUS
 62
    2
 10
1959.5011810380945
 20
1117.5054040042828
 40
1.0034861863992508
 50
89.999999999999915
 51
230.49822999997428
  0
LINE
  8
_0-0_計極細
  6
CONTINUOUS
 62
    2
 10
1959.5011810380945
 20
1118.508884169777
 11
1963.4821613283964
 21
1118.508884169777
  0
ARC
  8
_0-0_計極細
  6
CONTINUOUS
 62
    2
 10
1985.353068914568
 20
1148.8642826045293
 40
37.630656728658437
 50
272.61289199999942
 51
282.54239699999982
  0
ARC
  8
_0-0_計極細
  6
CONTINUOUS
 62
    2
 10
1989.5730068855498
 20
1107.9384206528857
 40
0.501740082747087
 50
210.00000000000426
 51
275.88706199997517
  0
LINE
  8
_0-0_計極細
  6
CONTINUOUS
 62
    2
 10
1984.4620110886633
 20
1108.7630438121764
 11
1975.5039218676627
 21
1124.278922215442
  0
LINE
  8
_0-0_計極細
  6
CONTINUOUS
 62
    2
 10
1977.9085629789586
 20
1108.0721449546395
 11
1971.3035458172742
 21
1119.5123703561771
  0
ARC
  8
_0-0_計極細
  6
CONTINUOUS
 62
    2
 10
1985.353068914568
 20
1148.8642826045293
 40
37.630656728658437
 50
254.49322399999932
 51
266.40400499999907
  0
ARC
  8
_0-0_計極細
  6
CONTINUOUS
 62
    2
 10
1966.9583308743638
 20
1122.5228228944693
 40
0.501740082747087
 50
269.99999999999977
 51
329.99999999989114
  0
ARC
  8
_0-0_計極細
  6
CONTINUOUS
 62
    2
 10
1971.121431501422
 20
1110.7964479582611
 40
1.0034861863992508
 50
249.50177000005806
 51
29.999999999976708
  0
LINE
  8
_0-0_計極細
  6
CONTINUOUS
 62
    2
 10
1971.9904708774627
 20
1111.2981880410084
 11
1969.9999837427638
 21
1114.74581849691
  0
ARC
  8
_0-0_計極細
  6
CONTINUOUS
 62
    2
 10
1974.6348764707179
 20
1123.7771761117906
 40
1.0034861863992508
 50
29.999999999977071
 51
149.99999999999699
  0
ARC
  8
_0-0_計極細
  6
CONTINUOUS
 62
    2
 10
1985.353068914568
 20
1148.8642826045293
 40
27.094072844634088
 50
244.78019200000111
 51
249.77896100000117
  0
ARC
  8
_0-0_計極細
  6
CONTINUOUS
 62
    2
 10
1985.353068914568
 20
1148.8642826045293
 40
37.630656728658437
 50
243.68035399999945
 51
246.22847699999838
  0
ARC
  8
_0-0_計極細
  6
CONTINUOUS
 62
    2
 10
1969.130938345819
 20
1114.244078414165
 40
1.0034861863992508
 50
29.999999999977071
 51
150.00000000002294
  0
ARC
  8
_0-0_計極細
  6
CONTINUOUS
 62
    2
 10
1983.5929717126253
 20
1108.2613037294309
 40
1.0034861863992508
 50
267.5178359999677
 51
30.000000000002665
  0
ARC
  8
_0-0_計極細
  6
CONTINUOUS
 62
    2
 10
1978.3430856774301
 20
1108.3230180064652
 40
0.501740082747087
 50
210.00000000010814
 51
260.18999100005101
  0
ARC
  8
_0-0_計極細
  6
CONTINUOUS
 62
    2
 10
1985.353068914568
 20
1148.8642826045293
 40
27.094072844634088
 50
260.29098299999907
 51
275.37568199999987
  0
ARC
  8
_0-0_計極細
  6
CONTINUOUS
 62
    2
 10
1985.353068914568
 20
1148.8642826045293
 40
37.630656728658437
 50
288.07291800000053
 51
297.3252259999997
  0
ARC
  8
_0-0_計極細
  6
CONTINUOUS
 62
    2
 10
1985.353068914568
 20
1148.8642826045293
 40
27.094072844634088
 50
283.31934900000118
 51
296.2837799999993
  0
ARC
  8
_0-0_計極細
  6
CONTINUOUS
 62
    2
 10
1999.2997609740576
 20
1110.1573830725279
 40
0.501740082747087
 50
210.00000000010814
 51
289.81487200010849
  0
ARC
  8
_0-0_計極細
  6
CONTINUOUS
 62
    2
 10
1994.0760177087075
 20
1109.1703279360813
 40
1.0034861863992508
 50
282.39403400005705
 51
30.000000000002665
  0
ARC
  8
_0-0_計極細
  6
CONTINUOUS
 62
    2
 10
1985.353068914568
 20
1148.8642826045293
 40
37.630656728658437
 50
302.67477399999865
 51
311.92708199999919
  0
ARC
  8
_0-0_計極細
  6
CONTINUOUS
 62
    2
 10
2008.0165925286399
 20
1115.1290731886565
 40
1.0034861863992508
 50
210.00000000002515
 51
303.89345000001418
  0
ARC
  8
_0-0_計極細
  6
CONTINUOUS
 62
    2
 10
2011.9008831043182
 20
1117.4326413664339
 40
0.501740082747087
 50
310.18512800003361
 51
29.999999999907399
  0
ARC
  8
_0-0_計極細
  6
CONTINUOUS
 62
    2
 10
2003.2368609081639
 20
1112.3694876812842
 40
1.0034861863992508
 50
296.10655000002453
 51
29.999999999999204
  0
LINE
  8
_0-0_計極細
  6
CONTINUOUS
 62
    2
 10
1951.0699089694851
 20
1128.0419878883081
 11
1968.9860994532953
 21
1128.0419878883081
  0
ARC
  8
_0-0_計極細
  6
CONTINUOUS
 62
    2
 10
1963.4821613283964
 20
1180.2231612047776
 40
1.0034861863992508
 50
269.99999999999977
 51
30.000000000051159
  0
LINE
  8
_0-0_計極細
  6
CONTINUOUS
 62
    2
 10
1953.7482965509923
 20
1175.707482397338
 11
1966.9583308743638
 21
1175.707482397338
  0
LINE
  8
_0-0_計極細
  6
CONTINUOUS
 62
    2
 10
1951.0699089694851
 20
1169.6865773207514
 11
1968.9860994532953
 21
1169.6865773207514
  0
LINE
  8
_0-0_計極細
  6
CONTINUOUS
 62
    2
 10
1947.8002685094559
 20
1166.1743846997128
 11
1972.4622689992627
 21
1166.1743846997128
  0
LINE
  8
_0-0_計極細
  6
CONTINUOUS
 62
    2
 10
1946.6156253311117
 20
1160.1534796231276
 11
1974.4900375781961
 21
1160.1534796231276
  0
LINE
  8
_0-0_計極細
  6
CONTINUOUS
 62
    2
 10
1944.8585686862314
 20
1156.6412870020872
 11
1977.9662071241617
 21
1156.6412870020872
  0
LINE
  8
_0-0_計極細
  6
CONTINUOUS
 62
    2
 10
1944.8057593278043
 20
1150.620381925502
 11
1979.9939757030959
 21
1150.620381925502
  0
LINE
  8
_0-0_計極細
  6
CONTINUOUS
 62
    2
 10
1947.8002685094559
 20
1131.5541805093476
 11
1972.4622689992627
 21
1131.5541805093476
  0
LINE
  8
_0-0_計極細
  6
CONTINUOUS
 62
    2
 10
1946.6156253311117
 20
1137.5750855859333
 11
1974.4900375781961
 21
1137.5750855859333
  0
LINE
  8
_0-0_計極細
  6
CONTINUOUS
 62
    2
 10
1944.8585686862314
 20
1141.0872782069732
 11
1977.9662071241617
 21
1141.0872782069732
  0
LINE
  8
_0-0_計極細
  6
CONTINUOUS
 62
    2
 10
1944.8057593278043
 20
1147.1081832835571
 11
1979.9939757030959
 21
1147.1081832835571
  0
ARC
  8
_0-0_計極細
  6
CONTINUOUS
 62
    2
 10
1985.353068914568
 20
1148.8642826045293
 40
27.094072844634088
 50
140.2909829999995
 51
155.37568200000004
  0
ARC
  8
_0-0_計極細
  6
CONTINUOUS
 62
    2
 10
1985.353068914568
 20
1148.8642826045293
 40
37.630656728658437
 50
152.61289200000007
 51
162.54239699999968
  0
ARC
  8
_0-0_計極細
  6
CONTINUOUS
 62
    2
 10
1946.6156253311117
 20
1161.1569658095282
 40
1.0034861863992508
 50
162.39403400002107
 51
269.99999999999977
  0
ARC
  8
_0-0_計極細
  6
CONTINUOUS
 62
    2
 10
1951.0699089694851
 20
1127.0385017019075
 40
1.0034861863992508
 50
89.999999999999915
 51
212.4821639999854
  0
ARC
  8
_0-0_計極細
  6
CONTINUOUS
 62
    2
 10
1985.353068914568
 20
1148.8642826045293
 40
37.630656728658437
 50
168.07291799999925
 51
177.32522600000016
  0
ARC
  8
_0-0_計極細
  6
CONTINUOUS
 62
    2
 10
1985.353068914568
 20
1148.8642826045293
 40
37.630656728658437
 50
182.67477399999882
 51
191.9270819999997
  0
ARC
  8
_0-0_計極細
  6
CONTINUOUS
 62
    2
 10
1985.353068914568
 20
1148.8642826045293
 40
37.630656728658437
 50
197.4576029999993
 51
207.38710799999896
  0
ARC
  8
_0-0_計極細
  6
CONTINUOUS
 62
    2
 10
1944.8057593278043
 20
1146.1047031180638
 40
1.0034861863992508
 50
89.999999999999915
 51
183.89344999999844
  0
ARC
  8
_0-0_計極細
  6
CONTINUOUS
 62
    2
 10
1946.6156253311117
 20
1136.5715993995341
 40
1.0034861863992508
 50
89.999999999999915
 51
197.60596600000332
  0
ARC
  8
_0-0_計極細
  6
CONTINUOUS
 62
    2
 10
1947.8002685094559
 20
1132.0559205920936
 40
0.501740082747087
 50
204.11293800002809
 51
269.99999999999977
  0
ARC
  8
_0-0_計極細
  6
CONTINUOUS
 62
    2
 10
1985.353068914568
 20
1148.8642826045293
 40
27.094072844634088
 50
163.31934899999951
 51
176.28377999999955
  0
ARC
  8
_0-0_計極細
  6
CONTINUOUS
 62
    2
 10
1985.353068914568
 20
1148.8642826045293
 40
27.094072844634088
 50
183.71621999999911
 51
196.68065099999922
  0
ARC
  8
_0-0_計極細
  6
CONTINUOUS
 62
    2
 10
1985.353068914568
 20
1148.8642826045293
 40
27.094072844634088
 50
204.62431799999874
 51
219.70901699999865
  0
ARC
  8
_0-0_計極細
  6
CONTINUOUS
 62
    2
 10
1947.8002685094559
 20
1165.6726446169669
 40
0.501740082747087
 50
89.999999999999915
 51
155.88706199997156
  0
ARC
  8
_0-0_計極細
  6
CONTINUOUS
 62
    2
 10
1951.0699089694851
 20
1170.6900635071524
 40
1.0034861863992508
 50
147.5178360000142
 51
269.99999999999977
  0
ARC
  8
_0-0_計極細
  6
CONTINUOUS
 62
    2
 10
1985.353068914568
 20
1148.8642826045293
 40
37.630656728658437
 50
123.68035400000058
 51
126.22847700000025
  0
ARC
  8
_0-0_計極細
  6
CONTINUOUS
 62
    2
 10
1985.353068914568
 20
1148.8642826045293
 40
37.630656728658437
 50
134.49322399999971
 51
146.40400499999933
  0
ARC
  8
_0-0_計極細
  6
CONTINUOUS
 62
    2
 10
1953.7482965509923
 20
1175.2057423145916
 40
0.501740082747087
 50
89.999999999999915
 51
140.18999100005377
  0
ARC
  8
_0-0_計極細
  6
CONTINUOUS
 62
    2
 10
1959.5011810380945
 20
1180.2231612047776
 40
1.0034861863992508
 50
129.50177000002535
 51
269.99999999999977
  0
LINE
  8
_0-0_計極細
  6
CONTINUOUS
 62
    2
 10
1959.5011810380945
 20
1179.2196810392834
 11
1963.4821613283964
 21
1179.2196810392834
  0
ARC
  8
_0-0_計極細
  6
CONTINUOUS
 62
    2
 10
1985.353068914568
 20
1148.8642826045293
 40
37.630656728658437
 50
77.457603000000148
 51
87.387108000000282
  0
ARC
  8
_0-0_計極細
  6
CONTINUOUS
 62
    2
 10
1985.353068914568
 20
1148.8642826045293
 40
37.630656728658437
 50
77.457603000000148
 51
87.387108000000282
  0
ARC
  8
_0-0_計極細
  6
CONTINUOUS
 62
    2
 10
1990.4224903619013
 20
1145.6029570144119
 40
1.0034861863992508
 50
89.999999999999915
 51
209.9999999999992
  0
ARC
  8
_0-0_計極細
  6
CONTINUOUS
 62
    2
 10
1990.4224903619013
 20
1152.1256081946499
 40
1.0034861863992508
 50
150.00000000000043
 51
269.99999999999977
  0
ARC
  8
_0-0_計極細
  6
CONTINUOUS
 62
    2
 10
1989.5730068855498
 20
1189.790144556172
 40
0.501740082747087
 50
84.112938000024442
 51
150.00000000004033
  0
LINE
  8
_0-0_計極細
  6
CONTINUOUS
 62
    2
 10
1994.9450631056513
 20
1188.0564911693255
 11
1981.0078599925616
 21
1163.9165452959937
  0
LINE
  8
_0-0_計極細
  6
CONTINUOUS
 62
    2
 10
1998.8652442964919
 20
1187.8220491674542
 11
1982.3114220670739
 21
1159.1499934367284
  0
LINE
  8
_0-0_計極細
  6
CONTINUOUS
 62
    2
 10
2004.1059002842028
 20
1184.8573314241235
 11
1986.5117981174624
 21
1154.3834475983685
  0
LINE
  8
_0-0_計極細
  6
CONTINUOUS
 62
    2
 10
1983.3461025626746
 20
1156.856130957935
 11
1983.3461025626746
 21
1160.9421158327737
  0
LINE
  8
_0-0_計極細
  6
CONTINUOUS
 62
    2
 10
1983.8478426454219
 20
1155.987091581896
 11
1983.8478426454219
 21
1161.8111612297166
  0
ARC
  8
_0-0_計極細
  6
CONTINUOUS
 62
    2
 10
1974.4900375781961
 20
1161.1569658095282
 40
1.0034861863992508
 50
269.99999999999977
 51
29.999999999999204
  0
LINE
  8
_0-0_計極細
  6
CONTINUOUS
 62
    2
 10
1986.858295183715
 20
1154.9836053954982
 11
1986.858295183715
 21
1167.0254155486678
  0
LINE
  8
_0-0_計極細
  6
CONTINUOUS
 62
    2
 10
1987.3600412873664
 20
1155.8526507924407
 11
1987.3600412873664
 21
1167.894460945613
  0
ARC
  8
_0-0_計極細
  6
CONTINUOUS
 62
    2
 10
1974.4900375781961
 20
1136.5715993995341
 40
1.0034861863992508
 50
329.9999999999776
 51
89.999999999999545
  0
ARC
  8
_0-0_計極細
  6
CONTINUOUS
 62
    2
 10
1972.4622689992627
 20
1132.0559205920936
 40
0.501740082747087
 50
269.99999999999977
 51
329.999999999995
  0
ARC
  8
_0-0_計極細
  6
CONTINUOUS
 62
    2
 10
1985.353068914568
 20
1148.8642826045293
 40
27.094072844634088
 50
230.22103899999877
 51
235.21980799999864
  0
ARC
  8
_0-0_計極細
  6
CONTINUOUS
 62
    2
 10
1968.9860994532953
 20
1127.0385017019075
 40
1.0034861863992508
 50
330.00000000000011
 51
89.999999999999545
  0
ARC
  8
_0-0_計極細
  6
CONTINUOUS
 62
    2
 10
1977.2420066406455
 20
1129.296341105628
 40
0.501740082747087
 50
149.9999999999884
 51
210.00000000005619
  0
LINE
  8
_0-0_計極細
  6
CONTINUOUS
 62
    2
 10
1983.3461025626746
 20
1136.7864493762868
 11
1983.3461025626746
 21
1140.8724342511255
  0
LINE
  8
_0-0_計極細
  6
CONTINUOUS
 62
    2
 10
1983.8478426454219
 20
1135.917403979342
 11
1983.8478426454219
 21
1141.7414736271639
  0
ARC
  8
_0-0_計極細
  6
CONTINUOUS
 62
    2
 10
1977.9662071241617
 20
1141.5890243106246
 40
0.501740082747087
 50
269.99999999999977
 51
330.00000000003996
  0
ARC
  8
_0-0_計極細
  6
CONTINUOUS
 62
    2
 10
1982.7459447655472
 20
1138.8294388032523
 40
0.501740082747087
 50
150.00000000009922
 51
209.99999999985545
  0
ARC
  8
_0-0_計極細
  6
CONTINUOUS
 62
    2
 10
1980.1388145956169
 20
1133.3102798303194
 40
1.0034861863992508
 50
29.999999999999559
 51
150.00000000000043
  0
ARC
  8
_0-0_計極細
  6
CONTINUOUS
 62
    2
 10
1982.7459447655472
 20
1158.8991264058072
 40
0.501740082747087
 50
150.00000000009922
 51
209.99999999985545
  0
ARC
  8
_0-0_計極細
  6
CONTINUOUS
 62
    2
 10
1985.6427527205167
 20
1154.8851876811159
 40
1.0034861863992508
 50
210.00000000005113
 51
330.00000000002603
  0
ARC
  8
_0-0_計極細
  6
CONTINUOUS
 62
    2
 10
1977.9662071241617
 20
1156.1395408984345
 40
0.501740082747087
 50
29.99999999995967
 51
89.999999999999901
  0
ARC
  8
_0-0_計極細
  6
CONTINUOUS
 62
    2
 10
1979.9939757030959
 20
1151.6238620909967
 40
1.0034861863992508
 50
269.99999999999977
 51
30.000000000002665
  0
LINE
  8
_0-0_計極細
  6
CONTINUOUS
 62
    2
 10
1986.858295183715
 20
1130.7031496603918
 11
1986.858295183715
 21
1142.7449598135636
  0
LINE
  8
_0-0_計極細
  6
CONTINUOUS
 62
    2
 10
1987.3600412873664
 20
1129.8341042634488
 11
1987.3600412873664
 21
1141.8759144166188
  0
ARC
  8
_0-0_計極細
  6
CONTINUOUS
 62
    2
 10
1985.6427527205167
 20
1154.8851876811159
 40
1.0034861863992508
 50
253.22134500003193
 51
330.00000000002603
  0
LINE
  8
_0-0_計極細
  6
CONTINUOUS
 62
    2
 10
1984.4620110886633
 20
1188.9655153759791
 11
1975.5039218676627
 21
1173.449642993618
  0
ARC
  8
_0-0_計極細
  6
CONTINUOUS
 62
    2
 10
1985.353068914568
 20
1148.8642826045293
 40
37.630656728658437
 50
93.595995000000485
 51
105.50677600000017
  0
LINE
  8
_0-0_計極細
  6
CONTINUOUS
 62
    2
 10
1977.9085629789586
 20
1189.6564202544232
 11
1971.3035458172742
 21
1178.2161948528828
  0
LINE
  8
_0-0_計極細
  6
CONTINUOUS
 62
    2
 10
1989.1384841870783
 20
1190.041017607999
 11
1976.8074839421731
 21
1168.6830971552577
  0
ARC
  8
_0-0_計極細
  6
CONTINUOUS
 62
    2
 10
1977.2420066406455
 20
1168.4322241034324
 40
0.501740082747087
 50
149.9999999999884
 51
210.00000000001123
  0
ARC
  8
_0-0_計極細
  6
CONTINUOUS
 62
    2
 10
1985.353068914568
 20
1148.8642826045293
 40
27.094072844634088
 50
110.2210389999981
 51
115.21980799999808
  0
ARC
  8
_0-0_計極細
  6
CONTINUOUS
 62
    2
 10
1974.6348764707179
 20
1173.9513890972712
 40
1.0034861863992508
 50
210.00000000000267
 51
330.00000000002257
  0
ARC
  8
_0-0_計極細
  6
CONTINUOUS
 62
    2
 10
1971.7380685157457
 20
1177.9653218010567
 40
0.501740082747087
 50
149.99999999999537
 51
209.9999999999593
  0
ARC
  8
_0-0_計極細
  6
CONTINUOUS
 62
    2
 10
1985.353068914568
 20
1148.8642826045293
 40
37.630656728658437
 50
113.77152300000098
 51
116.31964599999986
  0
ARC
  8
_0-0_計極細
  6
CONTINUOUS
 62
    2
 10
1971.121431501422
 20
1186.9321172507994
 40
1.0034861863992508
 50
330.00000000002257
 51
110.49822999994124
  0
ARC
  8
_0-0_計極細
  6
CONTINUOUS
 62
    2
 10
1969.130938345819
 20
1183.4844867948946
 40
1.0034861863992508
 50
209.9999999999992
 51
330.00000000000011
  0
LINE
  8
_0-0_計極細
  6
CONTINUOUS
 62
    2
 10
1971.9904708774627
 20
1186.430377168052
 11
1969.9999837427638
 21
1182.9827467121499
  0
ARC
  8
_0-0_計極細
  6
CONTINUOUS
 62
    2
 10
1985.353068914568
 20
1148.8642826045293
 40
27.094072844634088
 50
124.78019199999984
 51
129.77896100000024
  0
ARC
  8
_0-0_計極細
  6
CONTINUOUS
 62
    2
 10
1966.9583308743638
 20
1175.2057423145916
 40
0.501740082747087
 50
30.000000000063526
 51
89.999999999999915
  0
ARC
  8
_0-0_計極細
  6
CONTINUOUS
 62
    2
 10
1968.9860994532953
 20
1170.6900635071524
 40
1.0034861863992508
 50
269.99999999999977
 51
29.999999999999204
  0
ARC
  8
_0-0_計極細
  6
CONTINUOUS
 62
    2
 10
1972.4622689992627
 20
1165.6726446169669
 40
0.501740082747087
 50
29.99999999995967
 51
89.999999999999901
  0
LINE
  8
_0-0_計極細
  6
CONTINUOUS
 62
    2
 10
1983.8478426454219
 20
1168.8355464717974
 11
1983.8478426454219
 21
1175.9165101588824
  0
LINE
  8
_0-0_計極細
  6
CONTINUOUS
 62
    2
 10
1983.3461025626746
 20
1167.966507095759
 11
1983.3461025626746
 21
1175.8839189997025
  0
ARC
  8
_0-0_計極細
  6
CONTINUOUS
 62
    2
 10
1983.5929717126253
 20
1189.4672614796327
 40
1.0034861863992508
 50
329.99999999997414
 51
92.482164000031602
  0
ARC
  8
_0-0_計極細
  6
CONTINUOUS
 62
    2
 10
1985.353068914568
 20
1148.8642826045293
 40
27.094072844634088
 50
84.624317999999832
 51
99.709017000000401
  0
ARC
  8
_0-0_計極細
  6
CONTINUOUS
 62
    2
 10
1978.3430856774301
 20
1189.405547202598
 40
0.501740082747087
 50
99.810008999948636
 51
149.99999999993648
  0
ARC
  8
_0-0_計極細
  6
CONTINUOUS
 62
    2
 10
1980.1388145956169
 20
1164.4182853787397
 40
1.0034861863992508
 50
209.9999999999992
 51
330.00000000000011
  0
ARC
  8
_0-0_計極細
  6
CONTINUOUS
 62
    2
 10
1985.353068914568
 20
1148.8642826045293
 40
27.094072844634088
 50
84.624317999999832
 51
89.999999999999915
  0
ARC
  8
_0-0_計極細
  6
CONTINUOUS
 62
    2
 10
1985.353068914568
 20
1148.8642826045293
 40
27.094072844634088
 50
20.290983000001571
 51
35.37568200000068
  0
LINE
  8
_0-0_計極細
  6
CONTINUOUS
 62
    2
 10
2012.3354058027905
 20
1180.0450507908022
 11
1995.7815835733725
 21
1151.3729950600755
  0
LINE
  8
_0-0_計極細
  6
CONTINUOUS
 62
    2
 10
2007.1475531526019
 20
1183.1012381240562
 11
1989.5534449649565
 21
1152.6273482773954
  0
ARC
  8
_0-0_計極細
  6
CONTINUOUS
 62
    2
 10
1985.353068914568
 20
1148.8642826045293
 40
27.094072844634088
 50
303.71622000000156
 51
316.68065099999922
  0
ARC
  8
_0-0_計極細
  6
CONTINUOUS
 62
    2
 10
2001.4303605907933
 20
1145.6029570144119
 40
1.0034861863992508
 50
89.999999999999915
 51
210.00000000002515
  0
ARC
  8
_0-0_計極細
  6
CONTINUOUS
 62
    2
 10
1995.347060874901
 20
1146.1047031180638
 40
0.501740082747087
 50
30.0000000001085
 51
89.999999999999915
  0
ARC
  8
_0-0_計極細
  6
CONTINUOUS
 62
    2
 10
2001.4303605907933
 20
1152.1256081946499
 40
1.0034861863992508
 50
149.99999999997448
 51
269.99999999999977
  0
ARC
  8
_0-0_計極細
  6
CONTINUOUS
 62
    2
 10
1995.347060874901
 20
1151.6238620909967
 40
0.501740082747087
 50
269.99999999999977
 51
329.99999999989114
  0
ARC
  8
_0-0_計極細
  6
CONTINUOUS
 62
    2
 10
1985.353068914568
 20
1148.8642826045293
 40
27.094072844634088
 50
324.62431799999973
 51
339.7090169999999
  0
ARC
  8
_0-0_計極細
  6
CONTINUOUS
 62
    2
 10
1985.353068914568
 20
1148.8642826045293
 40
27.094072844634088
 50
350.22103899999934
 51
355.21980800000068
  0
ARC
  8
_0-0_計極細
  6
CONTINUOUS
 62
    2
 10
1985.353068914568
 20
1148.8642826045293
 40
27.094072844634088
 50
4.7801919999998796
 51
9.778961000001221
  0
ARC
  8
_0-0_計極細
  6
CONTINUOUS
 62
    2
 10
2012.4382368405929
 20
1145.6029570144119
 40
1.0034861863992508
 50
89.999999999999915
 51
210.00000000002515
  0
ARC
  8
_0-0_計極細
  6
CONTINUOUS
 62
    2
 10
2006.3549371246997
 20
1146.1047031180638
 40
0.501740082747087
 50
30.000000000056566
 51
89.999999999999915
  0
ARC
  8
_0-0_計極細
  6
CONTINUOUS
 62
    2
 10
2012.4382368405929
 20
1152.1256081946499
 40
1.0034861863992508
 50
149.99999999997448
 51
269.99999999999977
  0
ARC
  8
_0-0_計極細
  6
CONTINUOUS
 62
    2
 10
2006.3549371246997
 20
1151.6238620909967
 40
0.501740082747087
 50
269.99999999999977
 51
329.9999999999431
  0
ARC
  8
_0-0_計極細
  6
CONTINUOUS
 62
    2
 10
1985.353068914568
 20
1148.8642826045293
 40
27.094072844634088
 50
43.319349000001104
 51
56.28377999999919
  0
ARC
  8
_0-0_計極細
  6
CONTINUOUS
 62
    2
 10
1985.353068914568
 20
1148.8642826045293
 40
37.630656728658437
 50
62.674774000000312
 51
71.927081999999317
  0
ARC
  8
_0-0_計極細
  6
CONTINUOUS
 62
    2
 10
1985.353068914568
 20
1148.8642826045293
 40
27.094072844634088
 50
63.716220000000746
 51
76.680650999998889
  0
ARC
  8
_0-0_計極細
  6
CONTINUOUS
 62
    2
 10
1999.2997609740576
 20
1187.5711821365321
 40
0.501740082747087
 50
70.185127999891137
 51
149.99999999993648
  0
ARC
  8
_0-0_計極細
  6
CONTINUOUS
 62
    2
 10
1994.0760177087075
 20
1188.5582372729791
 40
1.0034861863992508
 50
329.99999999999665
 51
77.605965999942228
  0
ARC
  8
_0-0_計極細
  6
CONTINUOUS
 62
    2
 10
1985.353068914568
 20
1148.8642826045293
 40
37.630656728658437
 50
48.072918000001373
 51
57.325226000001372
  0
ARC
  8
_0-0_計極細
  6
CONTINUOUS
 62
    2
 10
2008.0165925286399
 20
1182.5994920204043
 40
1.0034861863992508
 50
56.106549999971008
 51
149.99999999999699
  0
ARC
  8
_0-0_計極細
  6
CONTINUOUS
 62
    2
 10
2011.9008831043182
 20
1180.2959178217225
 40
0.501740082747087
 50
330.00000000009186
 51
49.814871999965682
  0
ARC
  8
_0-0_計極細
  6
CONTINUOUS
 62
    2
 10
2003.2368609081639
 20
1185.3590775277748
 40
1.0034861863992508
 50
330.00000000000011
 51
63.893449999974756
  0
ARC
  8
_0-0_計極細
  6
CONTINUOUS
 62
    2
 10
2015.3675697247879
 20
1121.4630111410784
 40
1.0034861863992508
 50
210.00000000002515
 51
317.6059660000256
  0
ARC
  8
_0-0_計極細
  6
CONTINUOUS
 62
    2
 10
2018.6859433905081
 20
1124.7467766444174
 40
0.501740082747087
 50
324.11293799996702
 51
29.999999999959307
  0
ARC
  8
_0-0_計極細
  6
CONTINUOUS
 62
    2
 10
1985.353068914568
 20
1148.8642826045293
 40
37.630656728658437
 50
14.493223999999607
 51
26.404005000000534
  0
LINE
  8
_0-0_計極細
  6
CONTINUOUS
 62
    2
 10
2024.4023532346562
 20
1162.8132204616145
 11
2017.7973360729709
 21
1151.3729950600755
  0
ARC
  8
_0-0_計極細
  6
CONTINUOUS
 62
    2
 10
2025.4366062459974
 20
1142.1553265585076
 40
1.0034861863992508
 50
209.99999999997672
 51
350.4982300000064
  0
ARC
  8
_0-0_計極細
  6
CONTINUOUS
 62
    2
 10
2025.4366062459974
 20
1155.5732386505529
 40
1.0034861863992508
 50
9.5017699999932326
 51
150.00000000000043
  0
ARC
  8
_0-0_計極細
  6
CONTINUOUS
 62
    2
 10
1985.353068914568
 20
1148.8642826045293
 40
37.630656728658437
 50
3.6803540000001762
 51
6.228477000000372
  0
ARC
  8
_0-0_計極細
  6
CONTINUOUS
 62
    2
 10
1985.353068914568
 20
1148.8642826045293
 40
37.630656728658437
 50
353.77152300000063
 51
356.31964600000015
  0
ARC
  8
_0-0_計極細
  6
CONTINUOUS
 62
    2
 10
1985.353068914568
 20
1148.8642826045293
 40
37.630656728658437
 50
333.59599499999973
 51
345.50677600000074
  0
ARC
  8
_0-0_計極細
  6
CONTINUOUS
 62
    2
 10
2021.3963320825003
 20
1130.0870846320508
 40
1.0034861863992508
 50
209.99999999997672
 51
332.48216400001218
  0
ARC
  8
_0-0_計極細
  6
CONTINUOUS
 62
    2
 10
2023.4461130903917
 20
1145.6029570144119
 40
1.0034861863992508
 50
89.999999999999915
 51
210.00000000002515
  0
ARC
  8
_0-0_計極細
  6
CONTINUOUS
 62
    2
 10
2017.3628133744985
 20
1146.1047031180638
 40
0.501740082747087
 50
30.000000000004636
 51
89.999999999999915
  0
LINE
  8
_0-0_計極細
  6
CONTINUOUS
 62
    2
 10
2024.5675608490526
 20
1141.6535864757611
 11
2022.5770737143537
 21
1145.1012169316655
  0
LINE
  8
_0-0_計極細
  6
CONTINUOUS
 62
    2
 10
2024.4023532346562
 20
1134.9153447474469
 11
2017.7973360729709
 21
1146.3555701489836
  0
ARC
  8
_0-0_計極細
  6
CONTINUOUS
 62
    2
 10
2023.4461130903917
 20
1152.1256081946499
 40
1.0034861863992508
 50
149.99999999997448
 51
269.99999999999977
  0
ARC
  8
_0-0_計極細
  6
CONTINUOUS
 62
    2
 10
2017.3628133744985
 20
1151.6238620909967
 40
0.501740082747087
 50
269.99999999999977
 51
329.999999999995
  0
LINE
  8
_0-0_計極細
  6
CONTINUOUS
 62
    2
 10
2024.5675608490526
 20
1156.0749787332993
 11
2022.5770737143537
 21
1152.6273482773954
  0
ARC
  8
_0-0_計極細
  6
CONTINUOUS
 62
    2
 10
2015.3675697247879
 20
1176.2655540679821
 40
1.0034861863992508
 50
42.394033999974049
 51
149.99999999997448
  0
ARC
  8
_0-0_計極細
  6
CONTINUOUS
 62
    2
 10
2018.6859433905081
 20
1172.9817885646426
 40
0.501740082747087
 50
330.00000000003996
 51
35.887062000032259
  0
ARC
  8
_0-0_計極細
  6
CONTINUOUS
 62
    2
 10
2021.3963320825003
 20
1167.6414805770096
 40
1.0034861863992508
 50
27.517836000010465
 51
150.00000000000043
  0
LINE
  8
_0-0_計極細
  6
CONTINUOUS
 62
    2
 10
1986.858295183715
 20
1121.8120539128117
 11
1986.858295183715
 21
1123.678765562905
  0
LINE
  8
_0-0_計極細
  6
CONTINUOUS
 62
    2
 10
1987.3600412873664
 20
1121.8446444647402
 11
1987.3600412873664
 21
1122.8097155313467
  0
LINE
  8
_0-0_計極細
  6
CONTINUOUS
 62
    2
 10
1986.858295183715
 20
1174.0497971187528
 11
1986.858295183715
 21
1175.9165112962473
  0
LINE
  8
_0-0_計極細
  6
CONTINUOUS
 62
    2
 10
1987.3600412873664
 20
1174.9188469335554
 11
1987.3600412873664
 21
1175.8839207443189
  0
ARC
  8
_0-0_計極細
  6
CONTINUOUS
 62
    2
 10
1852.7694238568572
 20
1177.8642826044445
 40
54.312365187078854
 50
327.72737804884275
 51
36.099154316385302
  0
ARC
  8
_0-0_計極細
  6
CONTINUOUS
 62
    2
 10
1944.6134876219091
 20
1119.8642826046207
 40
54.312365187078854
 50
147.72737804884292
 51
216.09915431639362
  0
LINE
  8
_0-0_計極細
  6
CENTER2
 62
    2
 10
1985.353068914568
 20
654.95372725407947
 11
1985.353068914568
 21
1231.5142826045294
  0
LINE
  8
_0-1_計細線
  6
CONTINUOUS
 62
    3
 10
1985.3530689145675
 20
832.96428260452944
 11
2053.3530689145682
 21
832.96428260452944
  0
LINE
  8
_0-0_計極細
  6
CONTINUOUS
 62
    2
 10
1985.353068914568
 20
835.7642826045294
 11
2053.3530689145682
 21
835.7642826045294
  0
LINE
  8
_0-1_計細線
  6
CONTINUOUS
 62
    3
 10
1985.353068914568
 20
816.86428260452931
 11
2053.3530689145682
 21
816.86428260452931
  0
ARC
  8
_0-1_計細線
  6
CONTINUOUS
 62
    3
 10
2044.3530689145684
 20
814.56428260452935
 40
0.8
 50
89.999999999999915
 51
179.99999999999983
  0
LINE
  8
_0-1_計細線
  6
CONTINUOUS
 62
    3
 10
2044.3530689145684
 20
815.36428260452931
 11
2054.053068914568
 21
815.36428260452931
  0
LINE
  8
_0-1_計細線
  6
CONTINUOUS
 62
    3
 10
2043.5530689145687
 20
814.56428260452935
 11
2043.5530689145687
 21
812.86428260452931
  0
LINE
  8
_0-1_計細線
  6
CONTINUOUS
 62
    3
 10
2044.3530689145689
 20
816.06428260452935
 11
2054.3530689145682
 21
816.06428260452935
  0
ARC
  8
_0-1_計細線
  6
CONTINUOUS
 62
    3
 10
2044.3530689145689
 20
814.56428260452935
 40
1.5
 50
89.999999999999915
 51
179.99999999999983
  0
LINE
  8
_0-1_計細線
  6
CONTINUOUS
 62
    3
 10
2042.8530689145689
 20
814.56428260452935
 11
2042.8530689145689
 21
812.86428260452954
  0
ARC
  8
_0-1_計細線
  6
CONTINUOUS
 62
    3
 10
2042.0530689145687
 20
812.86428260452965
 40
0.8
 50
284.47751218588252
 51
359.99999999999147
  0
ARC
  8
_0-1_計細線
  6
CONTINUOUS
 62
    3
 10
2042.0530689145687
 20
812.86428260452931
 40
1.5
 50
277.66225566074115
 51
359.99999999999966
  0
LINE
  8
_0-1_計細線
  6
CONTINUOUS
 62
    3
 10
269.35306891456821
 20
828.86428260453067
 11
1985.353068914568
 21
828.86428260453067
  0
LINE
  8
_0-1_計細線
  6
CONTINUOUS
 62
    3
 10
1166.8530689145678
 20
1209.8642826045293
 11
1163.8530689145678
 21
1209.8642826045293
  0
LINE
  8
_0-1_計細線
  6
CONTINUOUS
 62
    3
 10
1163.8530689145678
 20
1209.8642826045293
 11
1163.8530689145678
 21
1087.8642826045293
  0
LINE
  8
_0-1_計細線
  6
CONTINUOUS
 62
    3
 10
1163.8530689145678
 20
1087.8642826045293
 11
1166.8530689145678
 21
1087.8642826045293
  0
LINE
  8
_0-1_計細線
  6
CONTINUOUS
 62
    3
 10
1166.8530689145678
 20
1087.8642826045293
 11
1166.8530689145678
 21
1209.8642826045293
  0
LINE
  8
_0-1_計細線
  6
CONTINUOUS
 62
    3
 10
726.85306891456776
 20
1209.8642826045293
 11
723.85306891456776
 21
1209.8642826045293
  0
LINE
  8
_0-1_計細線
  6
CONTINUOUS
 62
    3
 10
723.85306891456776
 20
1209.8642826045293
 11
723.85306891456776
 21
1087.8642826045293
  0
LINE
  8
_0-1_計細線
  6
CONTINUOUS
 62
    3
 10
723.85306891456776
 20
1087.8642826045293
 11
726.85306891456776
 21
1087.8642826045293
  0
LINE
  8
_0-1_計細線
  6
CONTINUOUS
 62
    3
 10
726.85306891456776
 20
1087.8642826045293
 11
726.85306891456776
 21
1209.8642826045293
  0
LINE
  8
_0-1_計細線
  6
CONTINUOUS
 62
    3
 10
726.85306891456776
 20
1201.8642826045293
 11
726.85306891456776
 21
1193.8642826045293
  0
LINE
  8
_0-1_計細線
  6
CONTINUOUS
 62
    3
 10
726.85306891456776
 20
1193.8642826045293
 11
1163.8530689145678
 21
1193.8642826045293
  0
LINE
  8
_0-1_計細線
  6
CONTINUOUS
 62
    3
 10
1163.8530689145678
 20
1193.8642826045293
 11
1163.8530689145678
 21
1201.8642826045293
  0
LINE
  8
_0-1_計細線
  6
CONTINUOUS
 62
    3
 10
1163.8530689145678
 20
1201.8642826045293
 11
726.85306891456776
 21
1201.8642826045293
  0
LINE
  8
_0-1_計細線
  6
CONTINUOUS
 62
    3
 10
726.85306891456776
 20
1187.8642826045293
 11
726.85306891456776
 21
1179.8642826045302
  0
LINE
  8
_0-1_計細線
  6
CONTINUOUS
 62
    3
 10
726.85306891456776
 20
1179.8642826045302
 11
1163.8530689145678
 21
1179.8642826045302
  0
LINE
  8
_0-1_計細線
  6
CONTINUOUS
 62
    3
 10
1163.8530689145678
 20
1179.8642826045302
 11
1163.8530689145678
 21
1187.8642826045293
  0
LINE
  8
_0-1_計細線
  6
CONTINUOUS
 62
    3
 10
1163.8530689145678
 20
1187.8642826045293
 11
726.85306891456776
 21
1187.8642826045293
  0
LINE
  8
_0-1_計細線
  6
CONTINUOUS
 62
    3
 10
726.85306891456776
 20
1173.8642826045293
 11
726.85306891456776
 21
1165.8642826045298
  0
LINE
  8
_0-1_計細線
  6
CONTINUOUS
 62
    3
 10
726.85306891456776
 20
1165.8642826045298
 11
1163.8530689145678
 21
1165.8642826045298
  0
LINE
  8
_0-1_計細線
  6
CONTINUOUS
 62
    3
 10
1163.8530689145678
 20
1165.8642826045298
 11
1163.8530689145678
 21
1173.8642826045293
  0
LINE
  8
_0-1_計細線
  6
CONTINUOUS
 62
    3
 10
1163.8530689145678
 20
1173.8642826045293
 11
726.85306891456776
 21
1173.8642826045293
  0
LINE
  8
_0-1_計細線
  6
CONTINUOUS
 62
    3
 10
726.85306891456776
 20
1159.8642826045293
 11
726.85306891456776
 21
1151.8642826045298
  0
LINE
  8
_0-1_計細線
  6
CONTINUOUS
 62
    3
 10
726.85306891456776
 20
1151.8642826045298
 11
1163.8530689145678
 21
1151.8642826045298
  0
LINE
  8
_0-1_計細線
  6
CONTINUOUS
 62
    3
 10
1163.8530689145678
 20
1151.8642826045298
 11
1163.8530689145678
 21
1159.8642826045293
  0
LINE
  8
_0-1_計細線
  6
CONTINUOUS
 62
    3
 10
1163.8530689145678
 20
1159.8642826045293
 11
726.85306891456776
 21
1159.8642826045293
  0
LINE
  8
_0-1_計細線
  6
CONTINUOUS
 62
    3
 10
726.85306891456776
 20
1145.8642826045293
 11
726.85306891456776
 21
1137.8642826045293
  0
LINE
  8
_0-1_計細線
  6
CONTINUOUS
 62
    3
 10
726.85306891456776
 20
1137.8642826045293
 11
1163.8530689145678
 21
1137.8642826045293
  0
LINE
  8
_0-1_計細線
  6
CONTINUOUS
 62
    3
 10
1163.8530689145678
 20
1137.8642826045293
 11
1163.8530689145678
 21
1145.8642826045293
  0
LINE
  8
_0-1_計細線
  6
CONTINUOUS
 62
    3
 10
1163.8530689145678
 20
1145.8642826045293
 11
726.85306891456776
 21
1145.8642826045293
  0
LINE
  8
_0-1_計細線
  6
CONTINUOUS
 62
    3
 10
726.85306891456776
 20
1131.8642826045293
 11
726.85306891456776
 21
1123.8642826045293
  0
LINE
  8
_0-1_計細線
  6
CONTINUOUS
 62
    3
 10
726.85306891456776
 20
1123.8642826045293
 11
1163.8530689145678
 21
1123.8642826045293
  0
LINE
  8
_0-1_計細線
  6
CONTINUOUS
 62
    3
 10
1163.8530689145678
 20
1123.8642826045293
 11
1163.8530689145678
 21
1131.8642826045293
  0
LINE
  8
_0-1_計細線
  6
CONTINUOUS
 62
    3
 10
1163.8530689145678
 20
1131.8642826045293
 11
726.85306891456776
 21
1131.8642826045293
  0
LINE
  8
_0-1_計細線
  6
CONTINUOUS
 62
    3
 10
726.85306891456776
 20
1117.8642826045293
 11
726.85306891456776
 21
1109.8642826045293
  0
LINE
  8
_0-1_計細線
  6
CONTINUOUS
 62
    3
 10
726.85306891456776
 20
1109.8642826045293
 11
1163.8530689145678
 21
1109.8642826045293
  0
LINE
  8
_0-1_計細線
  6
CONTINUOUS
 62
    3
 10
1163.8530689145678
 20
1109.8642826045293
 11
1163.8530689145678
 21
1117.8642826045293
  0
LINE
  8
_0-1_計細線
  6
CONTINUOUS
 62
    3
 10
1163.8530689145678
 20
1117.8642826045293
 11
726.85306891456776
 21
1117.8642826045293
  0
LINE
  8
_0-1_計細線
  6
CONTINUOUS
 62
    3
 10
726.85306891456776
 20
1103.8642826045293
 11
726.85306891456776
 21
1095.8642826045293
  0
LINE
  8
_0-1_計細線
  6
CONTINUOUS
 62
    3
 10
726.85306891456776
 20
1095.8642826045293
 11
1163.8530689145678
 21
1095.8642826045293
  0
LINE
  8
_0-1_計細線
  6
CONTINUOUS
 62
    3
 10
1163.8530689145678
 20
1095.8642826045293
 11
1163.8530689145678
 21
1103.8642826045293
  0
LINE
  8
_0-1_計細線
  6
CONTINUOUS
 62
    3
 10
1163.8530689145678
 20
1103.8642826045293
 11
726.85306891456776
 21
1103.8642826045293
  0
LINE
  8
_0-1_計細線
  6
CONTINUOUS
 62
    3
 10
726.85306891456776
 20
1209.8642826045293
 11
726.85306891456776
 21
1205.8642826045293
  0
LINE
  8
_0-1_計細線
  6
CONTINUOUS
 62
    3
 10
726.85306891456776
 20
1205.8642826045293
 11
1163.8530689145678
 21
1205.8642826045293
  0
LINE
  8
_0-1_計細線
  6
CONTINUOUS
 62
    3
 10
1163.8530689145678
 20
1205.8642826045293
 11
1163.8530689145678
 21
1209.8642826045293
  0
LINE
  8
_0-1_計細線
  6
CONTINUOUS
 62
    3
 10
1163.8530689145678
 20
1209.8642826045293
 11
726.85306891456776
 21
1209.8642826045293
  0
LINE
  8
_0-1_計細線
  6
CONTINUOUS
 62
    3
 10
726.85306891456776
 20
1091.8642826045293
 11
726.85306891456776
 21
1087.8642826045293
  0
LINE
  8
_0-1_計細線
  6
CONTINUOUS
 62
    3
 10
726.85306891456776
 20
1087.8642826045293
 11
1163.8530689145678
 21
1087.8642826045293
  0
LINE
  8
_0-1_計細線
  6
CONTINUOUS
 62
    3
 10
1163.8530689145678
 20
1087.8642826045293
 11
1163.8530689145678
 21
1091.8642826045293
  0
LINE
  8
_0-1_計細線
  6
CONTINUOUS
 62
    3
 10
1163.8530689145678
 20
1091.8642826045293
 11
726.85306891456776
 21
1091.8642826045293
  0
LINE
  8
_0-0_計極細
  6
CONTINUOUS
 62
    2
 10
997.85306895250176
 20
1193.8642826045293
 11
997.85306895250176
 21
1187.8642826045293
  0
LINE
  8
_0-0_計極細
  6
CONTINUOUS
 62
    2
 10
992.85306895250176
 20
1187.8642826045293
 11
992.85306895250176
 21
1193.8642826045293
  0
LINE
  8
_0-0_計極細
  6
CONTINUOUS
 62
    2
 10
997.85306895250176
 20
1179.8642826045293
 11
997.85306895250176
 21
1173.8642826045293
  0
LINE
  8
_0-0_計極細
  6
CONTINUOUS
 62
    2
 10
992.85306895250176
 20
1173.8642826045293
 11
992.85306895250176
 21
1179.8642826045293
  0
LINE
  8
_0-0_計極細
  6
CONTINUOUS
 62
    2
 10
997.85306895250176
 20
1165.8642826045293
 11
997.85306895250176
 21
1159.8642826045289
  0
LINE
  8
_0-0_計極細
  6
CONTINUOUS
 62
    2
 10
992.85306895250176
 20
1159.8642826045284
 11
992.85306895250176
 21
1165.8642826045293
  0
LINE
  8
_0-0_計極細
  6
CONTINUOUS
 62
    2
 10
997.85306895250176
 20
1151.8642826045293
 11
997.85306895250176
 21
1145.8642826045289
  0
LINE
  8
_0-0_計極細
  6
CONTINUOUS
 62
    2
 10
992.85306895250176
 20
1145.8642826045284
 11
992.85306895250176
 21
1151.8642826045293
  0
LINE
  8
_0-0_計極細
  6
CONTINUOUS
 62
    2
 10
997.85306895250176
 20
1137.8642826045293
 11
997.85306895250176
 21
1131.8642826045289
  0
LINE
  8
_0-0_計極細
  6
CONTINUOUS
 62
    2
 10
992.85306895250176
 20
1131.8642826045284
 11
992.85306895250176
 21
1137.8642826045293
  0
LINE
  8
_0-0_計極細
  6
CONTINUOUS
 62
    2
 10
997.85306895250176
 20
1123.8642826045293
 11
997.85306895250176
 21
1117.8642826045289
  0
LINE
  8
_0-0_計極細
  6
CONTINUOUS
 62
    2
 10
992.85306895250176
 20
1117.8642826045284
 11
992.85306895250176
 21
1123.8642826045293
  0
LINE
  8
_0-0_計極細
  6
CONTINUOUS
 62
    2
 10
997.85306895250176
 20
1109.8642826045293
 11
997.85306895250176
 21
1103.8642826045289
  0
LINE
  8
_0-0_計極細
  6
CONTINUOUS
 62
    2
 10
992.85306895250176
 20
1103.8642826045284
 11
992.85306895250176
 21
1109.8642826045293
  0
LINE
  8
_0-0_計極細
  6
CONTINUOUS
 62
    2
 10
997.85306895250176
 20
1205.8642826045293
 11
997.85306895250176
 21
1201.8642826045293
  0
LINE
  8
_0-0_計極細
  6
CONTINUOUS
 62
    2
 10
992.85306895250176
 20
1201.8642826045293
 11
992.85306895250176
 21
1205.8642826045293
  0
LINE
  8
_0-0_計極細
  6
CONTINUOUS
 62
    2
 10
997.85306895250176
 20
1095.8642826045293
 11
997.85306895250176
 21
1091.8642826045289
  0
LINE
  8
_0-0_計極細
  6
CONTINUOUS
 62
    2
 10
992.85306895250176
 20
1091.8642826045284
 11
992.85306895250176
 21
1095.8642826045293
  0
LINE
  8
_0-0_計極細
  6
CENTER2
 62
    2
 10
995.35306895250176
 20
1207.8642826045293
 11
995.35306885807802
 21
1089.8642826045293
  0
LINE
  8
_0-0_計極細
  6
CONTINUOUS
 62
    2
 10
897.85306895201791
 20
1193.8642826045293
 11
897.85306895201791
 21
1187.8642826045293
  0
LINE
  8
_0-0_計極細
  6
CONTINUOUS
 62
    2
 10
892.85306895201791
 20
1187.8642826045293
 11
892.85306895201791
 21
1193.8642826045293
  0
LINE
  8
_0-0_計極細
  6
CONTINUOUS
 62
    2
 10
897.85306895201791
 20
1179.8642826045293
 11
897.85306895201791
 21
1173.8642826045293
  0
LINE
  8
_0-0_計極細
  6
CONTINUOUS
 62
    2
 10
892.85306895201791
 20
1173.8642826045293
 11
892.85306895201791
 21
1179.8642826045293
  0
LINE
  8
_0-0_計極細
  6
CONTINUOUS
 62
    2
 10
897.85306895201791
 20
1165.8642826045293
 11
897.85306895201791
 21
1159.8642826045289
  0
LINE
  8
_0-0_計極細
  6
CONTINUOUS
 62
    2
 10
892.85306895201791
 20
1159.8642826045284
 11
892.85306895201791
 21
1165.8642826045293
  0
LINE
  8
_0-0_計極細
  6
CONTINUOUS
 62
    2
 10
897.85306895201791
 20
1151.8642826045293
 11
897.85306895201791
 21
1145.8642826045289
  0
LINE
  8
_0-0_計極細
  6
CONTINUOUS
 62
    2
 10
892.85306895201791
 20
1145.8642826045284
 11
892.85306895201791
 21
1151.8642826045293
  0
LINE
  8
_0-0_計極細
  6
CONTINUOUS
 62
    2
 10
897.85306895201791
 20
1137.8642826045293
 11
897.85306895201791
 21
1131.8642826045289
  0
LINE
  8
_0-0_計極細
  6
CONTINUOUS
 62
    2
 10
892.85306895201791
 20
1131.8642826045284
 11
892.85306895201791
 21
1137.8642826045293
  0
LINE
  8
_0-0_計極細
  6
CONTINUOUS
 62
    2
 10
897.85306895201791
 20
1123.8642826045293
 11
897.85306895201791
 21
1117.8642826045289
  0
LINE
  8
_0-0_計極細
  6
CONTINUOUS
 62
    2
 10
892.85306895201791
 20
1117.8642826045284
 11
892.85306895201791
 21
1123.8642826045293
  0
LINE
  8
_0-0_計極細
  6
CONTINUOUS
 62
    2
 10
897.85306895201791
 20
1109.8642826045293
 11
897.85306895201791
 21
1103.8642826045289
  0
LINE
  8
_0-0_計極細
  6
CONTINUOUS
 62
    2
 10
892.85306895201791
 20
1103.8642826045284
 11
892.85306895201791
 21
1109.8642826045293
  0
LINE
  8
_0-0_計極細
  6
CONTINUOUS
 62
    2
 10
897.85306895201791
 20
1205.8642826045293
 11
897.85306895201791
 21
1201.8642826045293
  0
LINE
  8
_0-0_計極細
  6
CONTINUOUS
 62
    2
 10
892.85306895201791
 20
1201.8642826045293
 11
892.85306895201791
 21
1205.8642826045293
  0
LINE
  8
_0-0_計極細
  6
CONTINUOUS
 62
    2
 10
897.85306895201791
 20
1095.8642826045293
 11
897.85306895201791
 21
1091.8642826045289
  0
LINE
  8
_0-0_計極細
  6
CONTINUOUS
 62
    2
 10
892.85306895201791
 20
1091.8642826045284
 11
892.85306895201791
 21
1095.8642826045293
  0
LINE
  8
_0-0_計極細
  6
CENTER2
 62
    2
 10
895.35306895201791
 20
1207.8642826045293
 11
895.35306885759417
 21
1089.8642826045293
  0
LINE
  8
_0-0_計極細
  6
CONTINUOUS
 62
    2
 10
1097.8530686080635
 20
1193.8642826045293
 11
1097.8530686080635
 21
1187.8642826045293
  0
LINE
  8
_0-0_計極細
  6
CONTINUOUS
 62
    2
 10
1092.8530686080635
 20
1187.8642826045293
 11
1092.8530686080635
 21
1193.8642826045293
  0
LINE
  8
_0-0_計極細
  6
CONTINUOUS
 62
    2
 10
1097.8530686080635
 20
1179.8642826045293
 11
1097.8530686080635
 21
1173.8642826045293
  0
LINE
  8
_0-0_計極細
  6
CONTINUOUS
 62
    2
 10
1092.8530686080635
 20
1173.8642826045293
 11
1092.8530686080635
 21
1179.8642826045293
  0
LINE
  8
_0-0_計極細
  6
CONTINUOUS
 62
    2
 10
1097.8530686080635
 20
1165.8642826045293
 11
1097.8530686080635
 21
1159.8642826045289
  0
LINE
  8
_0-0_計極細
  6
CONTINUOUS
 62
    2
 10
1092.8530686080635
 20
1159.8642826045284
 11
1092.8530686080635
 21
1165.8642826045293
  0
LINE
  8
_0-0_計極細
  6
CONTINUOUS
 62
    2
 10
1097.8530686080635
 20
1151.8642826045293
 11
1097.8530686080635
 21
1145.8642826045289
  0
LINE
  8
_0-0_計極細
  6
CONTINUOUS
 62
    2
 10
1092.8530686080635
 20
1145.8642826045284
 11
1092.8530686080635
 21
1151.8642826045293
  0
LINE
  8
_0-0_計極細
  6
CONTINUOUS
 62
    2
 10
1097.8530686080635
 20
1137.8642826045293
 11
1097.8530686080635
 21
1131.8642826045289
  0
LINE
  8
_0-0_計極細
  6
CONTINUOUS
 62
    2
 10
1092.8530686080635
 20
1131.8642826045284
 11
1092.8530686080635
 21
1137.8642826045293
  0
LINE
  8
_0-0_計極細
  6
CONTINUOUS
 62
    2
 10
1097.8530686080635
 20
1123.8642826045293
 11
1097.8530686080635
 21
1117.8642826045289
  0
LINE
  8
_0-0_計極細
  6
CONTINUOUS
 62
    2
 10
1092.8530686080635
 20
1117.8642826045284
 11
1092.8530686080635
 21
1123.8642826045293
  0
LINE
  8
_0-0_計極細
  6
CONTINUOUS
 62
    2
 10
1097.8530686080635
 20
1109.8642826045293
 11
1097.8530686080635
 21
1103.8642826045289
  0
LINE
  8
_0-0_計極細
  6
CONTINUOUS
 62
    2
 10
1092.8530686080635
 20
1103.8642826045284
 11
1092.8530686080635
 21
1109.8642826045293
  0
LINE
  8
_0-0_計極細
  6
CONTINUOUS
 62
    2
 10
1097.8530686080635
 20
1205.8642826045293
 11
1097.8530686080635
 21
1201.8642826045293
  0
LINE
  8
_0-0_計極細
  6
CONTINUOUS
 62
    2
 10
1092.8530686080635
 20
1201.8642826045293
 11
1092.8530686080635
 21
1205.8642826045293
  0
LINE
  8
_0-0_計極細
  6
CONTINUOUS
 62
    2
 10
1097.8530686080635
 20
1095.8642826045293
 11
1097.8530686080635
 21
1091.8642826045289
  0
LINE
  8
_0-0_計極細
  6
CONTINUOUS
 62
    2
 10
1092.8530686080635
 20
1091.8642826045284
 11
1092.8530686080635
 21
1095.8642826045293
  0
LINE
  8
_0-0_計極細
  6
CENTER2
 62
    2
 10
1095.3530686080635
 20
1207.8642826045293
 11
1095.3530689904769
 21
1089.8642826045293
  0
LINE
  8
_0-0_計極細
  6
CONTINUOUS
 62
    2
 10
797.85306895201768
 20
1193.8642826045293
 11
797.85306895201768
 21
1187.8642826045293
  0
LINE
  8
_0-0_計極細
  6
CONTINUOUS
 62
    2
 10
792.85306895201768
 20
1187.8642826045293
 11
792.85306895201768
 21
1193.8642826045293
  0
LINE
  8
_0-0_計極細
  6
CONTINUOUS
 62
    2
 10
797.85306895201768
 20
1179.8642826045293
 11
797.85306895201768
 21
1173.8642826045293
  0
LINE
  8
_0-0_計極細
  6
CONTINUOUS
 62
    2
 10
792.85306895201768
 20
1173.8642826045293
 11
792.85306895201768
 21
1179.8642826045293
  0
LINE
  8
_0-0_計極細
  6
CONTINUOUS
 62
    2
 10
797.85306895201768
 20
1165.8642826045293
 11
797.85306895201768
 21
1159.8642826045289
  0
LINE
  8
_0-0_計極細
  6
CONTINUOUS
 62
    2
 10
792.85306895201768
 20
1159.8642826045284
 11
792.85306895201768
 21
1165.8642826045293
  0
LINE
  8
_0-0_計極細
  6
CONTINUOUS
 62
    2
 10
797.85306895201768
 20
1151.8642826045293
 11
797.85306895201768
 21
1145.8642826045289
  0
LINE
  8
_0-0_計極細
  6
CONTINUOUS
 62
    2
 10
792.85306895201768
 20
1145.8642826045284
 11
792.85306895201768
 21
1151.8642826045293
  0
LINE
  8
_0-0_計極細
  6
CONTINUOUS
 62
    2
 10
797.85306895201768
 20
1137.8642826045293
 11
797.85306895201768
 21
1131.8642826045289
  0
LINE
  8
_0-0_計極細
  6
CONTINUOUS
 62
    2
 10
792.85306895201768
 20
1131.8642826045284
 11
792.85306895201768
 21
1137.8642826045293
  0
LINE
  8
_0-0_計極細
  6
CONTINUOUS
 62
    2
 10
797.85306895201768
 20
1123.8642826045293
 11
797.85306895201768
 21
1117.8642826045289
  0
LINE
  8
_0-0_計極細
  6
CONTINUOUS
 62
    2
 10
792.85306895201768
 20
1117.8642826045284
 11
792.85306895201768
 21
1123.8642826045293
  0
LINE
  8
_0-0_計極細
  6
CONTINUOUS
 62
    2
 10
797.85306895201768
 20
1109.8642826045293
 11
797.85306895201768
 21
1103.8642826045289
  0
LINE
  8
_0-0_計極細
  6
CONTINUOUS
 62
    2
 10
792.85306895201768
 20
1103.8642826045284
 11
792.85306895201768
 21
1109.8642826045293
  0
LINE
  8
_0-0_計極細
  6
CONTINUOUS
 62
    2
 10
797.85306895201768
 20
1205.8642826045293
 11
797.85306895201768
 21
1201.8642826045293
  0
LINE
  8
_0-0_計極細
  6
CONTINUOUS
 62
    2
 10
792.85306895201768
 20
1201.8642826045293
 11
792.85306895201768
 21
1205.8642826045293
  0
LINE
  8
_0-0_計極細
  6
CONTINUOUS
 62
    2
 10
797.85306895201768
 20
1095.8642826045293
 11
797.85306895201768
 21
1091.8642826045289
  0
LINE
  8
_0-0_計極細
  6
CONTINUOUS
 62
    2
 10
792.85306895201768
 20
1091.8642826045284
 11
792.85306895201768
 21
1095.8642826045293
  0
LINE
  8
_0-0_計極細
  6
CENTER2
 62
    2
 10
795.35306895201768
 20
1207.8642826045293
 11
795.35306885759394
 21
1089.8642826045293
  0
LINE
  8
_0-1_計細線
  6
CONTINUOUS
 62
    3
 10
1610.8530689145678
 20
1209.8642826045293
 11
1607.8530689145678
 21
1209.8642826045293
  0
LINE
  8
_0-1_計細線
  6
CONTINUOUS
 62
    3
 10
1607.8530689145678
 20
1209.8642826045293
 11
1607.8530689145678
 21
1087.8642826045293
  0
LINE
  8
_0-1_計細線
  6
CONTINUOUS
 62
    3
 10
1607.8530689145678
 20
1087.8642826045293
 11
1610.8530689145678
 21
1087.8642826045293
  0
LINE
  8
_0-1_計細線
  6
CONTINUOUS
 62
    3
 10
1610.8530689145678
 20
1087.8642826045293
 11
1610.8530689145678
 21
1209.8642826045293
  0
LINE
  8
_0-1_計細線
  6
CONTINUOUS
 62
    3
 10
1170.8530689145678
 20
1209.8642826045293
 11
1167.8530689145678
 21
1209.8642826045293
  0
LINE
  8
_0-1_計細線
  6
CONTINUOUS
 62
    3
 10
1167.8530689145678
 20
1209.8642826045293
 11
1167.8530689145678
 21
1087.8642826045293
  0
LINE
  8
_0-1_計細線
  6
CONTINUOUS
 62
    3
 10
1167.8530689145678
 20
1087.8642826045293
 11
1170.8530689145678
 21
1087.8642826045293
  0
LINE
  8
_0-1_計細線
  6
CONTINUOUS
 62
    3
 10
1170.8530689145678
 20
1087.8642826045293
 11
1170.8530689145678
 21
1209.8642826045293
  0
LINE
  8
_0-1_計細線
  6
CONTINUOUS
 62
    3
 10
1170.8530689145678
 20
1201.8642826045293
 11
1170.8530689145678
 21
1193.8642826045293
  0
LINE
  8
_0-1_計細線
  6
CONTINUOUS
 62
    3
 10
1170.8530689145678
 20
1193.8642826045293
 11
1607.8530689145678
 21
1193.8642826045293
  0
LINE
  8
_0-1_計細線
  6
CONTINUOUS
 62
    3
 10
1607.8530689145678
 20
1193.8642826045293
 11
1607.8530689145678
 21
1201.8642826045293
  0
LINE
  8
_0-1_計細線
  6
CONTINUOUS
 62
    3
 10
1607.8530689145678
 20
1201.8642826045293
 11
1170.8530689145678
 21
1201.8642826045293
  0
LINE
  8
_0-1_計細線
  6
CONTINUOUS
 62
    3
 10
1170.8530689145678
 20
1187.8642826045293
 11
1170.8530689145678
 21
1179.8642826045302
  0
LINE
  8
_0-1_計細線
  6
CONTINUOUS
 62
    3
 10
1170.8530689145678
 20
1179.8642826045302
 11
1607.8530689145678
 21
1179.8642826045302
  0
LINE
  8
_0-1_計細線
  6
CONTINUOUS
 62
    3
 10
1607.8530689145678
 20
1179.8642826045302
 11
1607.8530689145678
 21
1187.8642826045293
  0
LINE
  8
_0-1_計細線
  6
CONTINUOUS
 62
    3
 10
1607.8530689145678
 20
1187.8642826045293
 11
1170.8530689145678
 21
1187.8642826045293
  0
LINE
  8
_0-1_計細線
  6
CONTINUOUS
 62
    3
 10
1170.8530689145678
 20
1173.8642826045293
 11
1170.8530689145678
 21
1165.8642826045298
  0
LINE
  8
_0-1_計細線
  6
CONTINUOUS
 62
    3
 10
1170.8530689145678
 20
1165.8642826045298
 11
1607.8530689145678
 21
1165.8642826045298
  0
LINE
  8
_0-1_計細線
  6
CONTINUOUS
 62
    3
 10
1607.8530689145678
 20
1165.8642826045298
 11
1607.8530689145678
 21
1173.8642826045293
  0
LINE
  8
_0-1_計細線
  6
CONTINUOUS
 62
    3
 10
1607.8530689145678
 20
1173.8642826045293
 11
1170.8530689145678
 21
1173.8642826045293
  0
LINE
  8
_0-1_計細線
  6
CONTINUOUS
 62
    3
 10
1170.8530689145678
 20
1159.8642826045293
 11
1170.8530689145678
 21
1151.8642826045298
  0
LINE
  8
_0-1_計細線
  6
CONTINUOUS
 62
    3
 10
1170.8530689145678
 20
1151.8642826045298
 11
1607.8530689145678
 21
1151.8642826045298
  0
LINE
  8
_0-1_計細線
  6
CONTINUOUS
 62
    3
 10
1607.8530689145678
 20
1151.8642826045298
 11
1607.8530689145678
 21
1159.8642826045293
  0
LINE
  8
_0-1_計細線
  6
CONTINUOUS
 62
    3
 10
1607.8530689145678
 20
1159.8642826045293
 11
1170.8530689145678
 21
1159.8642826045293
  0
LINE
  8
_0-1_計細線
  6
CONTINUOUS
 62
    3
 10
1170.8530689145678
 20
1145.8642826045293
 11
1170.8530689145678
 21
1137.8642826045293
  0
LINE
  8
_0-1_計細線
  6
CONTINUOUS
 62
    3
 10
1170.8530689145678
 20
1137.8642826045293
 11
1607.8530689145678
 21
1137.8642826045293
  0
LINE
  8
_0-1_計細線
  6
CONTINUOUS
 62
    3
 10
1607.8530689145678
 20
1137.8642826045293
 11
1607.8530689145678
 21
1145.8642826045293
  0
LINE
  8
_0-1_計細線
  6
CONTINUOUS
 62
    3
 10
1607.8530689145678
 20
1145.8642826045293
 11
1170.8530689145678
 21
1145.8642826045293
  0
LINE
  8
_0-1_計細線
  6
CONTINUOUS
 62
    3
 10
1170.8530689145678
 20
1131.8642826045293
 11
1170.8530689145678
 21
1123.8642826045293
  0
LINE
  8
_0-1_計細線
  6
CONTINUOUS
 62
    3
 10
1170.8530689145678
 20
1123.8642826045293
 11
1607.8530689145678
 21
1123.8642826045293
  0
LINE
  8
_0-1_計細線
  6
CONTINUOUS
 62
    3
 10
1607.8530689145678
 20
1123.8642826045293
 11
1607.8530689145678
 21
1131.8642826045293
  0
LINE
  8
_0-1_計細線
  6
CONTINUOUS
 62
    3
 10
1607.8530689145678
 20
1131.8642826045293
 11
1170.8530689145678
 21
1131.8642826045293
  0
LINE
  8
_0-1_計細線
  6
CONTINUOUS
 62
    3
 10
1170.8530689145678
 20
1117.8642826045293
 11
1170.8530689145678
 21
1109.8642826045293
  0
LINE
  8
_0-1_計細線
  6
CONTINUOUS
 62
    3
 10
1170.8530689145678
 20
1109.8642826045293
 11
1607.8530689145678
 21
1109.8642826045293
  0
LINE
  8
_0-1_計細線
  6
CONTINUOUS
 62
    3
 10
1607.8530689145678
 20
1109.8642826045293
 11
1607.8530689145678
 21
1117.8642826045293
  0
LINE
  8
_0-1_計細線
  6
CONTINUOUS
 62
    3
 10
1607.8530689145678
 20
1117.8642826045293
 11
1170.8530689145678
 21
1117.8642826045293
  0
LINE
  8
_0-1_計細線
  6
CONTINUOUS
 62
    3
 10
1170.8530689145678
 20
1103.8642826045293
 11
1170.8530689145678
 21
1095.8642826045293
  0
LINE
  8
_0-1_計細線
  6
CONTINUOUS
 62
    3
 10
1170.8530689145678
 20
1095.8642826045293
 11
1607.8530689145678
 21
1095.8642826045293
  0
LINE
  8
_0-1_計細線
  6
CONTINUOUS
 62
    3
 10
1607.8530689145678
 20
1095.8642826045293
 11
1607.8530689145678
 21
1103.8642826045293
  0
LINE
  8
_0-1_計細線
  6
CONTINUOUS
 62
    3
 10
1607.8530689145678
 20
1103.8642826045293
 11
1170.8530689145678
 21
1103.8642826045293
  0
LINE
  8
_0-1_計細線
  6
CONTINUOUS
 62
    3
 10
1170.8530689145678
 20
1209.8642826045293
 11
1170.8530689145678
 21
1205.8642826045293
  0
LINE
  8
_0-1_計細線
  6
CONTINUOUS
 62
    3
 10
1170.8530689145678
 20
1205.8642826045293
 11
1607.8530689145678
 21
1205.8642826045293
  0
LINE
  8
_0-1_計細線
  6
CONTINUOUS
 62
    3
 10
1607.8530689145678
 20
1205.8642826045293
 11
1607.8530689145678
 21
1209.8642826045293
  0
LINE
  8
_0-1_計細線
  6
CONTINUOUS
 62
    3
 10
1607.8530689145678
 20
1209.8642826045293
 11
1170.8530689145678
 21
1209.8642826045293
  0
LINE
  8
_0-1_計細線
  6
CONTINUOUS
 62
    3
 10
1170.8530689145678
 20
1091.8642826045293
 11
1170.8530689145678
 21
1087.8642826045293
  0
LINE
  8
_0-1_計細線
  6
CONTINUOUS
 62
    3
 10
1170.8530689145678
 20
1087.8642826045293
 11
1607.8530689145678
 21
1087.8642826045293
  0
LINE
  8
_0-1_計細線
  6
CONTINUOUS
 62
    3
 10
1607.8530689145678
 20
1087.8642826045293
 11
1607.8530689145678
 21
1091.8642826045293
  0
LINE
  8
_0-1_計細線
  6
CONTINUOUS
 62
    3
 10
1607.8530689145678
 20
1091.8642826045293
 11
1170.8530689145678
 21
1091.8642826045293
  0
LINE
  8
_0-0_計極細
  6
CONTINUOUS
 62
    2
 10
1441.8530689525016
 20
1193.8642826045293
 11
1441.8530689525016
 21
1187.8642826045293
  0
LINE
  8
_0-0_計極細
  6
CONTINUOUS
 62
    2
 10
1436.8530689525016
 20
1187.8642826045293
 11
1436.8530689525016
 21
1193.8642826045293
  0
LINE
  8
_0-0_計極細
  6
CONTINUOUS
 62
    2
 10
1441.8530689525016
 20
1179.8642826045293
 11
1441.8530689525016
 21
1173.8642826045293
  0
LINE
  8
_0-0_計極細
  6
CONTINUOUS
 62
    2
 10
1436.8530689525016
 20
1173.8642826045293
 11
1436.8530689525016
 21
1179.8642826045293
  0
LINE
  8
_0-0_計極細
  6
CONTINUOUS
 62
    2
 10
1441.8530689525016
 20
1165.8642826045293
 11
1441.8530689525016
 21
1159.8642826045289
  0
LINE
  8
_0-0_計極細
  6
CONTINUOUS
 62
    2
 10
1436.8530689525016
 20
1159.8642826045284
 11
1436.8530689525016
 21
1165.8642826045293
  0
LINE
  8
_0-0_計極細
  6
CONTINUOUS
 62
    2
 10
1441.8530689525016
 20
1151.8642826045293
 11
1441.8530689525016
 21
1145.8642826045289
  0
LINE
  8
_0-0_計極細
  6
CONTINUOUS
 62
    2
 10
1436.8530689525016
 20
1145.8642826045284
 11
1436.8530689525016
 21
1151.8642826045293
  0
LINE
  8
_0-0_計極細
  6
CONTINUOUS
 62
    2
 10
1441.8530689525016
 20
1137.8642826045293
 11
1441.8530689525016
 21
1131.8642826045289
  0
LINE
  8
_0-0_計極細
  6
CONTINUOUS
 62
    2
 10
1436.8530689525016
 20
1131.8642826045284
 11
1436.8530689525016
 21
1137.8642826045293
  0
LINE
  8
_0-0_計極細
  6
CONTINUOUS
 62
    2
 10
1441.8530689525016
 20
1123.8642826045293
 11
1441.8530689525016
 21
1117.8642826045289
  0
LINE
  8
_0-0_計極細
  6
CONTINUOUS
 62
    2
 10
1436.8530689525016
 20
1117.8642826045284
 11
1436.8530689525016
 21
1123.8642826045293
  0
LINE
  8
_0-0_計極細
  6
CONTINUOUS
 62
    2
 10
1441.8530689525016
 20
1109.8642826045293
 11
1441.8530689525016
 21
1103.8642826045289
  0
LINE
  8
_0-0_計極細
  6
CONTINUOUS
 62
    2
 10
1436.8530689525016
 20
1103.8642826045284
 11
1436.8530689525016
 21
1109.8642826045293
  0
LINE
  8
_0-0_計極細
  6
CONTINUOUS
 62
    2
 10
1441.8530689525016
 20
1205.8642826045293
 11
1441.8530689525016
 21
1201.8642826045293
  0
LINE
  8
_0-0_計極細
  6
CONTINUOUS
 62
    2
 10
1436.8530689525016
 20
1201.8642826045293
 11
1436.8530689525016
 21
1205.8642826045293
  0
LINE
  8
_0-0_計極細
  6
CONTINUOUS
 62
    2
 10
1441.8530689525016
 20
1095.8642826045293
 11
1441.8530689525016
 21
1091.8642826045289
  0
LINE
  8
_0-0_計極細
  6
CONTINUOUS
 62
    2
 10
1436.8530689525016
 20
1091.8642826045284
 11
1436.8530689525016
 21
1095.8642826045293
  0
LINE
  8
_0-0_計極細
  6
CENTER2
 62
    2
 10
1439.3530689525016
 20
1207.8642826045293
 11
1439.3530688580779
 21
1089.8642826045293
  0
LINE
  8
_0-0_計極細
  6
CONTINUOUS
 62
    2
 10
1341.8530689520178
 20
1193.8642826045293
 11
1341.8530689520178
 21
1187.8642826045293
  0
LINE
  8
_0-0_計極細
  6
CONTINUOUS
 62
    2
 10
1336.8530689520178
 20
1187.8642826045293
 11
1336.8530689520178
 21
1193.8642826045293
  0
LINE
  8
_0-0_計極細
  6
CONTINUOUS
 62
    2
 10
1341.8530689520178
 20
1179.8642826045293
 11
1341.8530689520178
 21
1173.8642826045293
  0
LINE
  8
_0-0_計極細
  6
CONTINUOUS
 62
    2
 10
1336.8530689520178
 20
1173.8642826045293
 11
1336.8530689520178
 21
1179.8642826045293
  0
LINE
  8
_0-0_計極細
  6
CONTINUOUS
 62
    2
 10
1341.8530689520178
 20
1165.8642826045293
 11
1341.8530689520178
 21
1159.8642826045289
  0
LINE
  8
_0-0_計極細
  6
CONTINUOUS
 62
    2
 10
1336.8530689520178
 20
1159.8642826045284
 11
1336.8530689520178
 21
1165.8642826045293
  0
LINE
  8
_0-0_計極細
  6
CONTINUOUS
 62
    2
 10
1341.8530689520178
 20
1151.8642826045293
 11
1341.8530689520178
 21
1145.8642826045289
  0
LINE
  8
_0-0_計極細
  6
CONTINUOUS
 62
    2
 10
1336.8530689520178
 20
1145.8642826045284
 11
1336.8530689520178
 21
1151.8642826045293
  0
LINE
  8
_0-0_計極細
  6
CONTINUOUS
 62
    2
 10
1341.8530689520178
 20
1137.8642826045293
 11
1341.8530689520178
 21
1131.8642826045289
  0
LINE
  8
_0-0_計極細
  6
CONTINUOUS
 62
    2
 10
1336.8530689520178
 20
1131.8642826045284
 11
1336.8530689520178
 21
1137.8642826045293
  0
LINE
  8
_0-0_計極細
  6
CONTINUOUS
 62
    2
 10
1341.8530689520178
 20
1123.8642826045293
 11
1341.8530689520178
 21
1117.8642826045289
  0
LINE
  8
_0-0_計極細
  6
CONTINUOUS
 62
    2
 10
1336.8530689520178
 20
1117.8642826045284
 11
1336.8530689520178
 21
1123.8642826045293
  0
LINE
  8
_0-0_計極細
  6
CONTINUOUS
 62
    2
 10
1341.8530689520178
 20
1109.8642826045293
 11
1341.8530689520178
 21
1103.8642826045289
  0
LINE
  8
_0-0_計極細
  6
CONTINUOUS
 62
    2
 10
1336.8530689520178
 20
1103.8642826045284
 11
1336.8530689520178
 21
1109.8642826045293
  0
LINE
  8
_0-0_計極細
  6
CONTINUOUS
 62
    2
 10
1341.8530689520178
 20
1205.8642826045293
 11
1341.8530689520178
 21
1201.8642826045293
  0
LINE
  8
_0-0_計極細
  6
CONTINUOUS
 62
    2
 10
1336.8530689520178
 20
1201.8642826045293
 11
1336.8530689520178
 21
1205.8642826045293
  0
LINE
  8
_0-0_計極細
  6
CONTINUOUS
 62
    2
 10
1341.8530689520178
 20
1095.8642826045293
 11
1341.8530689520178
 21
1091.8642826045289
  0
LINE
  8
_0-0_計極細
  6
CONTINUOUS
 62
    2
 10
1336.8530689520178
 20
1091.8642826045284
 11
1336.8530689520178
 21
1095.8642826045293
  0
LINE
  8
_0-0_計極細
  6
CENTER2
 62
    2
 10
1339.3530689520178
 20
1207.8642826045293
 11
1339.3530688575941
 21
1089.8642826045293
  0
LINE
  8
_0-0_計極細
  6
CONTINUOUS
 62
    2
 10
1541.8530686080635
 20
1193.8642826045293
 11
1541.8530686080635
 21
1187.8642826045293
  0
LINE
  8
_0-0_計極細
  6
CONTINUOUS
 62
    2
 10
1536.8530686080635
 20
1187.8642826045293
 11
1536.8530686080635
 21
1193.8642826045293
  0
LINE
  8
_0-0_計極細
  6
CONTINUOUS
 62
    2
 10
1541.8530686080635
 20
1179.8642826045293
 11
1541.8530686080635
 21
1173.8642826045293
  0
LINE
  8
_0-0_計極細
  6
CONTINUOUS
 62
    2
 10
1536.8530686080635
 20
1173.8642826045293
 11
1536.8530686080635
 21
1179.8642826045293
  0
LINE
  8
_0-0_計極細
  6
CONTINUOUS
 62
    2
 10
1541.8530686080635
 20
1165.8642826045293
 11
1541.8530686080635
 21
1159.8642826045289
  0
LINE
  8
_0-0_計極細
  6
CONTINUOUS
 62
    2
 10
1536.8530686080635
 20
1159.8642826045284
 11
1536.8530686080635
 21
1165.8642826045293
  0
LINE
  8
_0-0_計極細
  6
CONTINUOUS
 62
    2
 10
1541.8530686080635
 20
1151.8642826045293
 11
1541.8530686080635
 21
1145.8642826045289
  0
LINE
  8
_0-0_計極細
  6
CONTINUOUS
 62
    2
 10
1536.8530686080635
 20
1145.8642826045284
 11
1536.8530686080635
 21
1151.8642826045293
  0
LINE
  8
_0-0_計極細
  6
CONTINUOUS
 62
    2
 10
1541.8530686080635
 20
1137.8642826045293
 11
1541.8530686080635
 21
1131.8642826045289
  0
LINE
  8
_0-0_計極細
  6
CONTINUOUS
 62
    2
 10
1536.8530686080635
 20
1131.8642826045284
 11
1536.8530686080635
 21
1137.8642826045293
  0
LINE
  8
_0-0_計極細
  6
CONTINUOUS
 62
    2
 10
1541.8530686080635
 20
1123.8642826045293
 11
1541.8530686080635
 21
1117.8642826045289
  0
LINE
  8
_0-0_計極細
  6
CONTINUOUS
 62
    2
 10
1536.8530686080635
 20
1117.8642826045284
 11
1536.8530686080635
 21
1123.8642826045293
  0
LINE
  8
_0-0_計極細
  6
CONTINUOUS
 62
    2
 10
1541.8530686080635
 20
1109.8642826045293
 11
1541.8530686080635
 21
1103.8642826045289
  0
LINE
  8
_0-0_計極細
  6
CONTINUOUS
 62
    2
 10
1536.8530686080635
 20
1103.8642826045284
 11
1536.8530686080635
 21
1109.8642826045293
  0
LINE
  8
_0-0_計極細
  6
CONTINUOUS
 62
    2
 10
1541.8530686080635
 20
1205.8642826045293
 11
1541.8530686080635
 21
1201.8642826045293
  0
LINE
  8
_0-0_計極細
  6
CONTINUOUS
 62
    2
 10
1536.8530686080635
 20
1201.8642826045293
 11
1536.8530686080635
 21
1205.8642826045293
  0
LINE
  8
_0-0_計極細
  6
CONTINUOUS
 62
    2
 10
1541.8530686080635
 20
1095.8642826045293
 11
1541.8530686080635
 21
1091.8642826045289
  0
LINE
  8
_0-0_計極細
  6
CONTINUOUS
 62
    2
 10
1536.8530686080635
 20
1091.8642826045284
 11
1536.8530686080635
 21
1095.8642826045293
  0
LINE
  8
_0-0_計極細
  6
CENTER2
 62
    2
 10
1539.3530686080635
 20
1207.8642826045293
 11
1539.3530689904769
 21
1089.8642826045293
  0
LINE
  8
_0-0_計極細
  6
CONTINUOUS
 62
    2
 10
1241.8530689520178
 20
1193.8642826045293
 11
1241.8530689520178
 21
1187.8642826045293
  0
LINE
  8
_0-0_計極細
  6
CONTINUOUS
 62
    2
 10
1236.8530689520178
 20
1187.8642826045293
 11
1236.8530689520178
 21
1193.8642826045293
  0
LINE
  8
_0-0_計極細
  6
CONTINUOUS
 62
    2
 10
1241.8530689520178
 20
1179.8642826045293
 11
1241.8530689520178
 21
1173.8642826045293
  0
LINE
  8
_0-0_計極細
  6
CONTINUOUS
 62
    2
 10
1236.8530689520178
 20
1173.8642826045293
 11
1236.8530689520178
 21
1179.8642826045293
  0
LINE
  8
_0-0_計極細
  6
CONTINUOUS
 62
    2
 10
1241.8530689520178
 20
1165.8642826045293
 11
1241.8530689520178
 21
1159.8642826045289
  0
LINE
  8
_0-0_計極細
  6
CONTINUOUS
 62
    2
 10
1236.8530689520178
 20
1159.8642826045284
 11
1236.8530689520178
 21
1165.8642826045293
  0
LINE
  8
_0-0_計極細
  6
CONTINUOUS
 62
    2
 10
1241.8530689520178
 20
1151.8642826045293
 11
1241.8530689520178
 21
1145.8642826045289
  0
LINE
  8
_0-0_計極細
  6
CONTINUOUS
 62
    2
 10
1236.8530689520178
 20
1145.8642826045284
 11
1236.8530689520178
 21
1151.8642826045293
  0
LINE
  8
_0-0_計極細
  6
CONTINUOUS
 62
    2
 10
1241.8530689520178
 20
1137.8642826045293
 11
1241.8530689520178
 21
1131.8642826045289
  0
LINE
  8
_0-0_計極細
  6
CONTINUOUS
 62
    2
 10
1236.8530689520178
 20
1131.8642826045284
 11
1236.8530689520178
 21
1137.8642826045293
  0
LINE
  8
_0-0_計極細
  6
CONTINUOUS
 62
    2
 10
1241.8530689520178
 20
1123.8642826045293
 11
1241.8530689520178
 21
1117.8642826045289
  0
LINE
  8
_0-0_計極細
  6
CONTINUOUS
 62
    2
 10
1236.8530689520178
 20
1117.8642826045284
 11
1236.8530689520178
 21
1123.8642826045293
  0
LINE
  8
_0-0_計極細
  6
CONTINUOUS
 62
    2
 10
1241.8530689520178
 20
1109.8642826045293
 11
1241.8530689520178
 21
1103.8642826045289
  0
LINE
  8
_0-0_計極細
  6
CONTINUOUS
 62
    2
 10
1236.8530689520178
 20
1103.8642826045284
 11
1236.8530689520178
 21
1109.8642826045293
  0
LINE
  8
_0-0_計極細
  6
CONTINUOUS
 62
    2
 10
1241.8530689520178
 20
1205.8642826045293
 11
1241.8530689520178
 21
1201.8642826045293
  0
LINE
  8
_0-0_計極細
  6
CONTINUOUS
 62
    2
 10
1236.8530689520178
 20
1201.8642826045293
 11
1236.8530689520178
 21
1205.8642826045293
  0
LINE
  8
_0-0_計極細
  6
CONTINUOUS
 62
    2
 10
1241.8530689520178
 20
1095.8642826045293
 11
1241.8530689520178
 21
1091.8642826045289
  0
LINE
  8
_0-0_計極細
  6
CONTINUOUS
 62
    2
 10
1236.8530689520178
 20
1091.8642826045284
 11
1236.8530689520178
 21
1095.8642826045293
  0
LINE
  8
_0-0_計極細
  6
CENTER2
 62
    2
 10
1239.3530689520178
 20
1207.8642826045293
 11
1239.3530688575941
 21
1089.8642826045293
  0
LINE
  8
_0-1_計細線
  6
CONTINUOUS
 62
    3
 10
1614.853068914568
 20
1209.8642826045293
 11
1614.853068914568
 21
1205.8642826045293
  0
LINE
  8
_0-1_計細線
  6
CONTINUOUS
 62
    3
 10
1614.853068914568
 20
1205.8642826045293
 11
1899.3079349225311
 21
1205.8642826045293
  0
LINE
  8
_0-1_計細線
  6
CONTINUOUS
 62
    3
 10
1896.6537378222049
 20
1209.8642826045293
 11
1614.853068914568
 21
1209.8642826045293
  0
LINE
  8
_0-1_計細線
  6
CONTINUOUS
 62
    3
 10
1614.853068914568
 20
1201.8642826045293
 11
1614.853068914568
 21
1193.8642826045293
  0
LINE
  8
_0-1_計細線
  6
CONTINUOUS
 62
    3
 10
1614.853068914568
 20
1193.8642826045293
 11
1904.6715722922729
 21
1193.8642826045293
  0
LINE
  8
_0-1_計細線
  6
CONTINUOUS
 62
    3
 10
1901.4914210676709
 20
1201.8642826045293
 11
1614.853068914568
 21
1201.8642826045293
  0
LINE
  8
_0-1_計細線
  6
CONTINUOUS
 62
    3
 10
1614.853068914568
 20
1187.8642826045293
 11
1614.853068914568
 21
1179.8642826045302
  0
LINE
  8
_0-1_計細線
  6
CONTINUOUS
 62
    3
 10
1614.853068914568
 20
1179.8642826045302
 11
1907.0449525250726
 21
1179.8642826045302
  0
LINE
  8
_0-1_計細線
  6
CONTINUOUS
 62
    3
 10
1906.153251110183
 20
1187.8642826045293
 11
1614.853068914568
 21
1187.8642826045293
  0
LINE
  8
_0-1_計細線
  6
CONTINUOUS
 62
    3
 10
1614.853068914568
 20
1173.8642826045293
 11
1614.853068914568
 21
1165.8642826045298
  0
LINE
  8
_0-1_計細線
  6
CONTINUOUS
 62
    3
 10
1614.853068914568
 20
1165.8642826045298
 11
1905.7395381876443
 21
1165.8642826045298
  0
LINE
  8
_0-1_計細線
  6
CONTINUOUS
 62
    3
 10
1906.9342926577258
 20
1173.8642826045293
 11
1614.853068914568
 21
1173.8642826045293
  0
LINE
  8
_0-1_計細線
  6
CONTINUOUS
 62
    3
 10
1614.853068914568
 20
1159.8642826045293
 11
1614.853068914568
 21
1151.8642826045298
  0
LINE
  8
_0-1_計細線
  6
CONTINUOUS
 62
    3
 10
1614.853068914568
 20
1151.8642826045298
 11
1900.4541490025374
 21
1151.8642826045298
  0
LINE
  8
_0-1_計細線
  6
CONTINUOUS
 62
    3
 10
1904.0123064086581
 20
1159.8642826045293
 11
1614.853068914568
 21
1159.8642826045293
  0
LINE
  8
_0-1_計細線
  6
CONTINUOUS
 62
    3
 10
1614.853068914568
 20
1145.8642826045293
 11
1614.853068914568
 21
1137.8642826045293
  0
LINE
  8
_0-1_計細線
  6
CONTINUOUS
 62
    3
 10
1614.853068914568
 20
1137.8642826045293
 11
1893.370605070106
 21
1137.8642826045293
  0
LINE
  8
_0-1_計細線
  6
CONTINUOUS
 62
    3
 10
1896.9287624762258
 20
1145.8642826045293
 11
1614.853068914568
 21
1145.8642826045293
  0
LINE
  8
_0-1_計細線
  6
CONTINUOUS
 62
    3
 10
1614.853068914568
 20
1131.8642826045293
 11
1614.853068914568
 21
1123.8642826045293
  0
LINE
  8
_0-1_計細線
  6
CONTINUOUS
 62
    3
 10
1614.853068914568
 20
1123.8642826045293
 11
1890.4486188210401
 21
1123.8642826045293
  0
LINE
  8
_0-1_計細線
  6
CONTINUOUS
 62
    3
 10
1891.6433732911203
 20
1131.8642826045293
 11
1614.853068914568
 21
1131.8642826045293
  0
LINE
  8
_0-1_計細線
  6
CONTINUOUS
 62
    3
 10
1614.853068914568
 20
1117.8642826045293
 11
1614.853068914568
 21
1109.8642826045293
  0
LINE
  8
_0-1_計細線
  6
CONTINUOUS
 62
    3
 10
1614.853068914568
 20
1109.8642826045293
 11
1891.2296603685847
 21
1109.8642826045293
  0
LINE
  8
_0-1_計細線
  6
CONTINUOUS
 62
    3
 10
1890.3379589536937
 20
1117.8642826045293
 11
1614.853068914568
 21
1117.8642826045293
  0
LINE
  8
_0-1_計細線
  6
CONTINUOUS
 62
    3
 10
1614.853068914568
 20
1103.8642826045293
 11
1614.853068914568
 21
1095.8642826045293
  0
LINE
  8
_0-1_計細線
  6
CONTINUOUS
 62
    3
 10
1614.853068914568
 20
1095.8642826045293
 11
1895.8914904110986
 21
1095.8642826045293
  0
LINE
  8
_0-1_計細線
  6
CONTINUOUS
 62
    3
 10
1892.7113391864957
 20
1103.8642826045293
 11
1614.853068914568
 21
1103.8642826045293
  0
LINE
  8
_0-1_計細線
  6
CONTINUOUS
 62
    3
 10
1614.853068914568
 20
1091.8642826045293
 11
1614.853068914568
 21
1087.8642826045293
  0
LINE
  8
_0-1_計細線
  6
CONTINUOUS
 62
    3
 10
1614.853068914568
 20
1087.8642826045293
 11
1900.7291736565664
 21
1087.8642826045293
  0
LINE
  8
_0-1_計細線
  6
CONTINUOUS
 62
    3
 10
1898.0749765562393
 20
1091.8642826045293
 11
1614.853068914568
 21
1091.8642826045293
  0
LINE
  8
_0-1_計細線
  6
CONTINUOUS
 62
    3
 10
278.85306891456821
 20
1211.3642826045293
 11
278.85306891456821
 21
1086.3642826045293
  0
LINE
  8
_0-1_計細線
  6
CONTINUOUS
 62
    3
 10
2055.8530689145682
 20
1086.3642826045293
 11
2055.8530689145682
 21
1211.3642826045293
  0
LINE
  8
_0-1_計細線
  6
CONTINUOUS
 62
    3
 10
2055.8530689145682
 20
1211.3642826045293
 11
278.85306891456821
 21
1211.3642826045293
  0
LINE
  8
_0-1_計細線
  6
CONTINUOUS
 62
    3
 10
278.85306891456821
 20
1086.3642826045293
 11
2055.8530689145682
 21
1086.3642826045293
  0
LINE
  8
_0-1_計細線
  6
CONTINUOUS
 62
    3
 10
269.35306891456821
 20
1076.8642826045293
 11
269.35306891456821
 21
1220.8642826045293
  0
LINE
  8
_0-1_計細線
  6
CONTINUOUS
 62
    3
 10
269.35306891456821
 20
1220.8642826045293
 11
2065.3530689145682
 21
1220.8642826045293
  0
LINE
  8
_0-1_計細線
  6
CONTINUOUS
 62
    3
 10
2065.3530689145682
 20
1220.8642826045293
 11
2065.3530689145682
 21
1076.8642826045293
  0
LINE
  8
_0-1_計細線
  6
CONTINUOUS
 62
    3
 10
2065.3530689145682
 20
1076.8642826045293
 11
269.35306891456821
 21
1076.8642826045293
  0
LINE
  8
_0-0_計極細
  6
CENTER1
 62
    2
 10
1167.3530689145678
 20
787.58140087879065
 11
1167.3530689145678
 21
832.63510095632819
  0
LINE
  8
_0-1_計細線
  6
CONTINUOUS
 62
    3
 10
1161.3530690676484
 20
827.36428260452931
 11
1159.3530690676484
 21
825.36428260452931
  0
LINE
  8
_0-1_計細線
  6
CONTINUOUS
 62
    3
 10
1159.3530690676484
 20
815.36428260452931
 11
1159.3530690676484
 21
825.36428260452931
  0
LINE
  8
_0-1_計細線
  6
CONTINUOUS
 62
    3
 10
1175.3530687614871
 20
815.36428260452931
 11
1175.3530687614871
 21
825.36428260452931
  0
LINE
  8
_0-1_計細線
  6
CONTINUOUS
 62
    3
 10
1161.3530690676484
 20
811.36428260452931
 11
1159.3530690676484
 21
809.36428260452931
  0
LINE
  8
_0-1_計細線
  6
CONTINUOUS
 62
    3
 10
1161.3530690676484
 20
813.36428260452931
 11
1161.3530690676484
 21
811.36428260452931
  0
LINE
  8
_0-1_計細線
  6
CONTINUOUS
 62
    3
 10
1159.3530690676484
 20
815.36428260452931
 11
1161.3530690676484
 21
813.36428260452931
  0
LINE
  8
_0-1_計細線
  6
CONTINUOUS
 62
    3
 10
1173.3530687614871
 20
811.36428260452931
 11
1175.3530687614871
 21
809.36428260452931
  0
LINE
  8
_0-1_計細線
  6
CONTINUOUS
 62
    3
 10
1173.3530687614871
 20
813.36428260452931
 11
1173.3530687614871
 21
811.36428260452931
  0
LINE
  8
_0-1_計細線
  6
CONTINUOUS
 62
    3
 10
1175.3530687614871
 20
815.36428260452931
 11
1173.3530687614871
 21
813.36428260452931
  0
LINE
  8
_0-1_計細線
  6
CONTINUOUS
 62
    3
 10
1159.3530690676484
 20
809.36428260452931
 11
1159.3530690676484
 21
795.36428260452931
  0
ARC
  8
_0-1_計細線
  6
CONTINUOUS
 62
    3
 10
1162.3530690676484
 20
795.36428260452931
 40
3
 50
179.99999999999983
 51
269.99999999999977
  0
LINE
  8
_0-1_計細線
  6
CONTINUOUS
 62
    3
 10
1162.3530690676484
 20
792.36428260452931
 11
1172.3530687614871
 21
792.36428260452931
  0
LINE
  8
_0-1_計細線
  6
CONTINUOUS
 62
    3
 10
1175.3530687614871
 20
809.36428260452931
 11
1175.3530687614871
 21
795.36428260452931
  0
ARC
  8
_0-1_計細線
  6
CONTINUOUS
 62
    3
 10
1172.3530687614871
 20
795.36428260452931
 40
3
 50
269.99999999999977
 51
359.99999999999966
  0
LINE
  8
_0-1_計細線
  6
CONTINUOUS
 62
    3
 10
1161.3530690676484
 20
827.36428260452931
 11
1173.3530687614871
 21
827.36428260452931
  0
LINE
  8
_0-1_計細線
  6
CONTINUOUS
 62
    3
 10
1175.3530687614871
 20
825.36428260452931
 11
1173.3530687614871
 21
827.36428260452931
  0
LINE
  8
_0-0_計極細
  6
CENTER1
 62
    2
 10
1598.3530689145675
 20
787.58140087879065
 11
1598.3530689145675
 21
832.63510095632819
  0
LINE
  8
_0-1_計細線
  6
CONTINUOUS
 62
    3
 10
1592.3530690676482
 20
827.36428260452931
 11
1590.3530690676482
 21
825.36428260452931
  0
LINE
  8
_0-1_計細線
  6
CONTINUOUS
 62
    3
 10
1590.3530690676482
 20
815.36428260452931
 11
1590.3530690676482
 21
825.36428260452931
  0
LINE
  8
_0-1_計細線
  6
CONTINUOUS
 62
    3
 10
1606.3530687614868
 20
815.36428260452931
 11
1606.3530687614868
 21
825.36428260452931
  0
LINE
  8
_0-1_計細線
  6
CONTINUOUS
 62
    3
 10
1592.3530690676482
 20
811.36428260452931
 11
1590.3530690676482
 21
809.36428260452931
  0
LINE
  8
_0-1_計細線
  6
CONTINUOUS
 62
    3
 10
1592.3530690676482
 20
813.36428260452931
 11
1592.3530690676482
 21
811.36428260452931
  0
LINE
  8
_0-1_計細線
  6
CONTINUOUS
 62
    3
 10
1590.3530690676482
 20
815.36428260452931
 11
1592.3530690676482
 21
813.36428260452931
  0
LINE
  8
_0-1_計細線
  6
CONTINUOUS
 62
    3
 10
1604.3530687614868
 20
811.36428260452931
 11
1606.3530687614868
 21
809.36428260452931
  0
LINE
  8
_0-1_計細線
  6
CONTINUOUS
 62
    3
 10
1604.3530687614868
 20
813.36428260452931
 11
1604.3530687614868
 21
811.36428260452931
  0
LINE
  8
_0-1_計細線
  6
CONTINUOUS
 62
    3
 10
1606.3530687614868
 20
815.36428260452931
 11
1604.3530687614868
 21
813.36428260452931
  0
LINE
  8
_0-1_計細線
  6
CONTINUOUS
 62
    3
 10
1590.3530690676482
 20
809.36428260452931
 11
1590.3530690676482
 21
795.36428260452931
  0
ARC
  8
_0-1_計細線
  6
CONTINUOUS
 62
    3
 10
1593.3530690676482
 20
795.36428260452931
 40
3
 50
179.99999999999983
 51
269.99999999999977
  0
LINE
  8
_0-1_計細線
  6
CONTINUOUS
 62
    3
 10
1593.3530690676482
 20
792.36428260452931
 11
1603.3530687614868
 21
792.36428260452931
  0
LINE
  8
_0-1_計細線
  6
CONTINUOUS
 62
    3
 10
1606.3530687614868
 20
809.36428260452931
 11
1606.3530687614868
 21
795.36428260452931
  0
ARC
  8
_0-1_計細線
  6
CONTINUOUS
 62
    3
 10
1603.3530687614868
 20
795.36428260452931
 40
3
 50
269.99999999999977
 51
359.99999999999966
  0
LINE
  8
_0-1_計細線
  6
CONTINUOUS
 62
    3
 10
1592.3530690676482
 20
827.36428260452931
 11
1604.3530687614868
 21
827.36428260452931
  0
LINE
  8
_0-1_計細線
  6
CONTINUOUS
 62
    3
 10
1606.3530687614868
 20
825.36428260452931
 11
1604.3530687614868
 21
827.36428260452931
  0
LINE
  8
_0-1_計細線
  6
CONTINUOUS
 62
    3
 10
1606.3530687614868
 20
815.36428260452931
 11
1985.353068914568
 21
815.36428260452931
  0
LINE
  8
_0-1_計細線
  6
CONTINUOUS
 62
    3
 10
744.35306876148741
 20
815.36428260452931
 11
1159.3530690676484
 21
815.36428260452931
  0
LINE
  8
_0-1_計細線
  6
CONTINUOUS
 62
    3
 10
1175.3530687614871
 20
815.36428260452931
 11
1590.3530690676482
 21
815.36428260452931
  0
LINE
  8
_0-5_寸法線
  6
CONTINUOUS
 62
    7
 10
269.3530689145681
 20
1060.8642826045293
 11
269.35306891456776
 21
988.86428260452931
  0
LINE
  8
_0-5_寸法線
  6
CONTINUOUS
 62
    7
 10
269.35306891456776
 20
996.86428260452931
 11
284.80788213519281
 21
1001.0053873261696
  0
LINE
  8
_0-5_寸法線
  6
CONTINUOUS
 62
    7
 10
269.35306891456776
 20
996.86428260452931
 11
284.80788213519281
 21
992.72317788288899
  0
LINE
  8
_0-5_寸法線
  6
CONTINUOUS
 62
    7
 10
1985.3530689145678
 20
1060.8642826045293
 11
1985.3530689145673
 21
988.86428260452931
  0
LINE
  8
_0-5_寸法線
  6
CONTINUOUS
 62
    7
 10
1985.3530689145673
 20
996.86428260452931
 11
1969.8982556939422
 21
992.72317788288899
  0
LINE
  8
_0-5_寸法線
  6
CONTINUOUS
 62
    7
 10
1985.3530689145673
 20
996.86428260452931
 11
1969.8982556939422
 21
1001.0053873261697
  0
LINE
  8
_0-5_寸法線
  6
CONTINUOUS
 62
    7
 10
269.35306891456776
 20
996.86428260452931
 11
1985.3530689145673
 21
996.86428260452931
  0
TEXT
  8
_0-5_寸法線
 62
    7
 10
1103.3530689145675
 20
996.86428260452931
 40
24
 41
1
 50
0
  1
1716
  0
LINE
  8
_0-5_寸法線
  6
CONTINUOUS
 62
    7
 10
1985.3530689145673
 20
996.86428260452931
 11
2000.8078821351924
 21
1001.0053873261695
  0
LINE
  8
_0-5_寸法線
  6
CONTINUOUS
 62
    7
 10
1985.3530689145673
 20
996.86428260452931
 11
2000.8078821351924
 21
992.72317788288888
  0
LINE
  8
_0-5_寸法線
  6
CONTINUOUS
 62
    7
 10
2065.3530689145682
 20
1060.8642826045293
 11
2065.3530689145682
 21
988.86428260452931
  0
LINE
  8
_0-5_寸法線
  6
CONTINUOUS
 62
    7
 10
2065.3530689145682
 20
996.86428260452931
 11
2049.8982556939432
 21
992.72317788288899
  0
LINE
  8
_0-5_寸法線
  6
CONTINUOUS
 62
    7
 10
2065.3530689145682
 20
996.86428260452931
 11
2049.8982556939432
 21
1001.0053873261697
  0
LINE
  8
_0-5_寸法線
  6
CONTINUOUS
 62
    7
 10
1985.3530689145673
 20
996.86428260452931
 11
2065.3530689145682
 21
996.86428260452931
  0
TEXT
  8
_0-5_寸法線
 62
    7
 10
2013.3530689145675
 20
996.86428260452931
 40
24
 41
1
 50
0
  1
80
  0
LINE
  8
_0-1_計細線
  6
CONTINUOUS
 62
    3
 10
1985.353068914568
 20
790.38469060452962
 11
1933.4347009145674
 21
790.38469060452962
  0
LINE
  8
_0-1_計細線
  6
CONTINUOUS
 62
    3
 10
1985.353068914568
 20
786.14293060453065
 11
1935.8836769145671
 21
786.14293060453065
  0
ARC
  8
_0-1_計細線
  6
CONTINUOUS
 62
    3
 10
1930.9857169145669
 20
786.14293060453065
 40
4.8979599999999994
 50
0
 51
59.999999999998458
  0
LINE
  8
_0-1_計細線
  6
CONTINUOUS
 62
    3
 10
1933.4347009145674
 20
790.38469060452962
 11
1933.4347009145674
 21
808.01733860453032
  0
LINE
  8
_0-1_計細線
  6
CONTINUOUS
 62
    3
 10
1985.353068914568
 20
808.01733860453032
 11
1929.6142929145669
 21
808.01733860453032
  0
LINE
  8
_0-1_計細線
  6
CONTINUOUS
 62
    3
 10
2037.2714369145676
 20
798.22142660453073
 11
2041.0918449145681
 21
798.22142660453073
  0
ARC
  8
_0-1_計細線
  6
CONTINUOUS
 62
    3
 10
2039.7204129145673
 20
786.14293060453065
 40
4.8979599999999994
 50
120.00000000000155
 51
179.99999999999983
  0
LINE
  8
_0-1_計細線
  6
CONTINUOUS
 62
    3
 10
2037.2714369145676
 20
790.38469060452962
 11
2037.2714369145676
 21
798.22142660453073
  0
LINE
  8
_0-0_計極細
  6
CONTINUOUS
 62
    2
 10
2032.8632689145677
 20
793.32346660453049
 11
2032.8632689145677
 21
796.17120260453021
  0
LINE
  8
_0-0_計極細
  6
CONTINUOUS
 62
    2
 10
2034.3120849145678
 20
792.53979460452911
 11
2032.8632689145677
 21
793.32346660453049
  0
LINE
  8
_0-0_計極細
  6
CONTINUOUS
 62
    2
 10
1985.353068914568
 20
792.53979460452911
 11
2009.8428529145674
 21
792.53979460452911
  0
LINE
  8
_0-0_計極細
  6
CONTINUOUS
 62
    2
 10
2041.0918449145681
 20
811.93570660452906
 11
2034.3120849145678
 21
811.15203460452949
  0
ARC
  8
_0-0_計極細
  6
CONTINUOUS
 62
    2
 10
2022.822452914568
 20
786.46632260452907
 40
0.979592
 50
0
 51
89.999999999999915
  0
ARC
  8
_0-0_計極細
  6
CONTINUOUS
 62
    2
 10
2022.822452914568
 20
786.46632260452907
 40
0.979592
 50
89.999999999999915
 51
179.99999999999983
  0
LINE
  8
_0-0_計極細
  6
CONTINUOUS
 62
    2
 10
2022.822452914568
 20
787.44591460453057
 11
2011.8020449145667
 21
787.44591460453057
  0
LINE
  8
_0-0_計極細
  6
CONTINUOUS
 62
    2
 10
2012.3478369145676
 20
796.17120260453021
 11
2022.0861009145681
 21
796.17120260453021
  0
LINE
  8
_0-0_計極細
  6
CONTINUOUS
 62
    2
 10
1985.353068914568
 20
813.3140586045306
 11
2034.3120849145678
 21
813.3140586045306
  0
LINE
  8
_0-0_計極細
  6
CONTINUOUS
 62
    2
 10
2024.7816369145673
 20
800.08957060453076
 11
2028.7489809145679
 21
800.08957060453076
  0
LINE
  8
_0-0_計極細
  6
CONTINUOUS
 62
    2
 10
2031.6301809145677
 20
810.86507460453004
 11
2030.4632689145681
 21
810.86507460453004
  0
LINE
  8
_0-0_計極細
  6
CONTINUOUS
 62
    2
 10
2028.7489809145679
 20
798.81609860453
 11
2028.7489809145679
 21
809.15079460452989
  0
ARC
  8
_0-0_計極細
  6
CONTINUOUS
 62
    2
 10
2030.4632689145681
 20
809.15079460452989
 40
1.714288
 50
89.999999999999915
 51
179.99999999999983
  0
ARC
  8
_0-0_計極細
  6
CONTINUOUS
 62
    2
 10
2034.3120849145678
 20
811.59977060452957
 40
1.714288
 50
89.999999999999915
 51
175.84901000000184
  0
ARC
  8
_0-0_計極細
  6
CONTINUOUS
 62
    2
 10
2031.6301809145677
 20
811.84466660452972
 40
0.979592
 50
269.99999999999977
 51
356.64911199998573
  0
LINE
  8
_0-0_計極細
  6
CONTINUOUS
 62
    2
 10
2034.4087729145683
 20
812.63519460452926
 11
2041.0918449145681
 21
813.58706660453072
  0
ARC
  8
_0-0_計極細
  6
CONTINUOUS
 62
    2
 10
2034.3120849145678
 20
811.59977060452957
 40
1.0285679999999999
 50
89.999999999999915
 51
175.84900999999604
  0
ARC
  8
_0-0_計極細
  6
CONTINUOUS
 62
    2
 10
2031.6301809145677
 20
811.84466660452972
 40
1.6653040000000001
 50
269.99999999999977
 51
356.64911199999722
  0
LINE
  8
_0-0_計極細
  6
CONTINUOUS
 62
    2
 10
2031.6301809145677
 20
810.17936260452962
 11
2030.4632689145681
 21
810.17936260452962
  0
ARC
  8
_0-0_計極細
  6
CONTINUOUS
 62
    2
 10
2030.4632689145681
 20
809.15079460452989
 40
1.0285679999999999
 50
89.999999999999915
 51
179.99999999999983
  0
LINE
  8
_0-0_計極細
  6
CONTINUOUS
 62
    2
 10
2029.4347009145674
 20
798.13038660452958
 11
2029.4347009145674
 21
809.15079460452989
  0
LINE
  8
_0-0_計極細
  6
CONTINUOUS
 62
    2
 10
2034.3120849145678
 20
797.62001860453029
 11
2034.3120849145678
 21
812.62142660453037
  0
LINE
  8
_0-0_計極細
  6
CONTINUOUS
 62
    2
 10
2034.3120849145678
 20
797.62001860453029
 11
2032.8632689145677
 21
796.17120260453021
  0
LINE
  8
_0-0_計極細
  6
CONTINUOUS
 62
    2
 10
2027.4755169145681
 20
794.21201860453084
 11
2027.4755169145681
 21
800.08957060453076
  0
LINE
  8
_0-0_計極細
  6
CONTINUOUS
 62
    2
 10
2025.2714369145676
 20
796.26992260453017
 11
2025.2714369145676
 21
800.08957060453076
  0
LINE
  8
_0-0_計極細
  6
CONTINUOUS
 62
    2
 10
2027.4755169145681
 20
798.13038660452958
 11
2029.4347009145674
 21
798.13038660452958
  0
LINE
  8
_0-0_計極細
  6
CONTINUOUS
 62
    2
 10
2027.4755169145681
 20
798.81609860453
 11
2028.7489809145679
 21
798.81609860453
  0
LINE
  8
_0-0_計極細
  6
CONTINUOUS
 62
    2
 10
2026.6622769145677
 20
794.21201860453084
 11
2027.4755169145681
 21
794.21201860453084
  0
LINE
  8
_0-0_計極細
  6
CONTINUOUS
 62
    2
 10
2027.4755169145681
 20
796.17120260453021
 11
2032.8632689145677
 21
796.17120260453021
  0
LINE
  8
_0-0_計極細
  6
CONTINUOUS
 62
    2
 10
2014.5314929145677
 20
794.5058986045301
 11
2019.4294529145679
 21
794.5058986045301
  0
LINE
  8
_0-0_計極細
  6
CONTINUOUS
 62
    2
 10
2014.5314929145677
 20
794.5058986045301
 11
2014.5314929145677
 21
796.17120260453021
  0
LINE
  8
_0-0_計極細
  6
CONTINUOUS
 62
    2
 10
2019.4294529145679
 20
794.5058986045301
 11
2019.4294529145679
 21
796.17120260453021
  0
LINE
  8
_0-0_計極細
  6
CONTINUOUS
 62
    2
 10
2016.0008849145677
 20
794.5058986045301
 11
2016.0008849145677
 21
796.17120260453021
  0
LINE
  8
_0-0_計極細
  6
CONTINUOUS
 62
    2
 10
2028.7489809145679
 20
810.86507460453004
 11
2030.6591889145682
 21
810.86507460453004
  0
LINE
  8
_0-0_計極細
  6
CONTINUOUS
 62
    2
 10
2028.7489809145679
 20
807.92630660453005
 11
2028.7489809145679
 21
810.86507460453004
  0
LINE
  8
_0-0_計極細
  6
CONTINUOUS
 62
    2
 10
2027.6714369145682
 20
807.43650660453068
 11
2027.6714369145682
 21
808.41609860453036
  0
ARC
  8
_0-0_計極細
  6
CONTINUOUS
 62
    2
 10
2028.2591889145676
 20
807.92630660453005
 40
0.489792
 50
269.99999999999977
 51
359.99999999999966
  0
LINE
  8
_0-0_計極細
  6
CONTINUOUS
 62
    2
 10
1985.5489809145681
 20
808.41609860453036
 11
2027.6714369145682
 21
808.41609860453036
  0
LINE
  8
_0-0_計極細
  6
CONTINUOUS
 62
    2
 10
1985.5489809145681
 20
807.43650660453068
 11
2028.2591889145676
 21
807.43650660453068
  0
LINE
  8
_0-0_計極細
  6
CONTINUOUS
 62
    2
 10
1985.353068914568
 20
806.36493860452947
 11
2028.6020449145678
 21
806.36493860452947
  0
LINE
  8
_0-0_計極細
  6
CONTINUOUS
 62
    2
 10
2024.2918449145679
 20
806.36493860452947
 11
2024.2918449145679
 21
805.87514660452916
  0
LINE
  8
_0-0_計極細
  6
CONTINUOUS
 62
    2
 10
2027.8183729145683
 20
804.89555460452948
 11
2028.6020449145678
 21
806.36493860452947
  0
LINE
  8
_0-0_計極細
  6
CONTINUOUS
 62
    2
 10
2023.8020449145677
 20
803.13229060453023
 11
2024.2918449145679
 21
803.62208260453053
  0
LINE
  8
_0-0_計極細
  6
CONTINUOUS
 62
    2
 10
2024.2918449145679
 20
802.64249060452903
 11
2023.8020449145677
 21
803.13229060453023
  0
LINE
  8
_0-0_計極細
  6
CONTINUOUS
 62
    2
 10
2024.2918449145679
 20
804.89555460452948
 11
2023.8020449145677
 21
805.38534660452979
  0
LINE
  8
_0-0_計極細
  6
CONTINUOUS
 62
    2
 10
2023.8020449145677
 20
805.38534660452979
 11
2024.2918449145679
 21
805.87514660452916
  0
LINE
  8
_0-0_計極細
  6
CONTINUOUS
 62
    2
 10
1985.353068914568
 20
805.38534660452979
 11
2023.8020449145677
 21
805.38534660452979
  0
LINE
  8
_0-0_計極細
  6
CONTINUOUS
 62
    2
 10
1985.353068914568
 20
803.13229060453023
 11
2023.8020449145677
 21
803.13229060453023
  0
LINE
  8
_0-0_計極細
  6
CONTINUOUS
 62
    2
 10
1985.353068914568
 20
802.15269860453054
 11
2027.8183729145683
 21
802.15269860453054
  0
LINE
  8
_0-0_計極細
  6
CONTINUOUS
 62
    2
 10
2027.8183729145683
 20
804.89555460452948
 11
2027.8183729145683
 21
802.15269860453054
  0
LINE
  8
_0-0_計極細
  6
CONTINUOUS
 62
    2
 10
2024.2918449145679
 20
802.64249060452903
 11
2024.2918449145679
 21
802.15269860453054
  0
LINE
  8
_0-0_計極細
  6
CONTINUOUS
 62
    2
 10
2024.2918449145679
 20
804.89555460452948
 11
2024.2918449145679
 21
803.62208260453053
  0
ARC
  8
_0-0_計極細
  6
CONTINUOUS
 62
    2
 10
2017.6795969145676
 20
793.69775460452956
 40
5.8775519999999997
 50
55.166294000004285
 51
179.99999999999983
  0
ARC
  8
_0-0_計極細
  6
CONTINUOUS
 62
    2
 10
2019.1489809145676
 20
796.26992260453017
 40
2.9387759999999998
 50
0
 51
50.029502999999771
  0
LINE
  8
_0-0_計極細
  6
CONTINUOUS
 62
    2
 10
2022.0877569145675
 20
793.33114660452929
 11
2022.0877569145675
 21
796.26992260453017
  0
LINE
  8
_0-0_計極細
  6
CONTINUOUS
 62
    2
 10
2025.0265329145675
 20
793.33114660452929
 11
2022.0877569145675
 21
793.33114660452929
  0
ARC
  8
_0-0_計極細
  6
CONTINUOUS
 62
    2
 10
2025.0265329145675
 20
795.29033060453048
 40
1.959184
 50
269.99999999999977
 51
359.99999999999966
  0
LINE
  8
_0-0_計極細
  6
CONTINUOUS
 62
    2
 10
2026.9857169145678
 20
795.29033060453048
 11
2026.9857169145678
 21
796.26992260453017
  0
LINE
  8
_0-0_計極細
  6
CONTINUOUS
 62
    2
 10
2026.9857169145678
 20
796.26992260453017
 11
2024.7816369145673
 21
796.26992260453017
  0
LINE
  8
_0-0_計極細
  6
CONTINUOUS
 62
    2
 10
2027.9653089145675
 20
800.58013060452913
 11
1985.353068914568
 21
800.58013060452913
  0
LINE
  8
_0-0_計極細
  6
CONTINUOUS
 62
    2
 10
2027.9653089145675
 20
800.58013060452913
 11
2027.9653089145675
 21
802.04951460452912
  0
LINE
  8
_0-0_計極細
  6
CONTINUOUS
 62
    2
 10
2027.9653089145675
 20
802.04951460452912
 11
1985.353068914568
 21
802.04951460452912
  0
LINE
  8
_0-0_計極細
  6
CONTINUOUS
 62
    2
 10
2027.9653089145675
 20
806.55563460452913
 11
1985.353068914568
 21
806.55563460452913
  0
LINE
  8
_0-0_計極細
  6
CONTINUOUS
 62
    2
 10
2027.9653089145675
 20
806.55563460452913
 11
2027.9653089145675
 21
807.43650660453068
  0
LINE
  8
_0-0_計極細
  6
CONTINUOUS
 62
    2
 10
2024.7816369145673
 20
796.26992260453017
 11
2024.7816369145673
 21
800.58013060452913
  0
LINE
  8
_0-0_計極細
  6
CONTINUOUS
 62
    2
 10
2011.8020449145677
 20
793.32346660453049
 11
2032.8632689145677
 21
793.32346660453049
  0
LINE
  8
_0-0_計極細
  6
CONTINUOUS
 62
    2
 10
2011.8020449145667
 20
792.53979460452911
 11
2034.3120849145678
 21
792.53979460452911
  0
LINE
  8
_0-0_計極細
  6
CONTINUOUS
 62
    2
 10
1985.353068914568
 20
814.29365060453028
 11
2041.0918449145681
 21
814.29365060453028
  0
LINE
  8
_0-1_計細線
  6
CONTINUOUS
 62
    3
 10
2041.0918449145681
 20
798.22142660453073
 11
2041.0918449145681
 21
814.29365060453028
  0
LINE
  8
_0-0_計極細
  6
CONTINUOUS
 62
    2
 10
2034.3120849145678
 20
813.3140586045306
 11
2041.0918449145681
 21
814.27969930857853
  0
LINE
  8
_0-1_計細線
  6
CONTINUOUS
 62
    3
 10
1928.5367409145672
 20
813.93570660452906
 11
1928.5367409145672
 21
815.36428260452931
  0
ARC
  8
_0-1_計細線
  6
CONTINUOUS
 62
    3
 10
1930.5367409145672
 20
813.93570660452906
 40
2
 50
179.99999999999983
 51
269.99999999999977
  0
LINE
  8
_0-1_計細線
  6
CONTINUOUS
 62
    3
 10
1929.6142929145669
 20
808.01733860453032
 11
1929.6142929145669
 21
811.93570660452906
  0
LINE
  8
_0-1_計細線
  6
CONTINUOUS
 62
    3
 10
1929.6142929145669
 20
811.93570660452906
 11
1985.353068914568
 21
811.93570660452906
  0
LINE
  8
_0-0_計極細
  6
CONTINUOUS
 62
    2
 10
2023.8020449145677
 20
729.7002186045288
 11
2023.8020449145677
 21
756.14919460452847
  0
LINE
  8
_0-0_計極細
  6
CONTINUOUS
 62
    2
 10
2012.0469409145678
 20
717.94511460452895
 11
2009.8428609145674
 21
717.94511460452895
  0
ARC
  8
_0-0_計極細
  6
CONTINUOUS
 62
    2
 10
2012.0469409145678
 20
729.7002186045288
 40
11.755103999999999
 50
269.99999999999977
 51
359.99999999999966
  0
LINE
  8
_0-0_計極細
  6
CONTINUOUS
 62
    2
 10
2032.3734769145674
 20
763.07263460452896
 11
2032.3734769145674
 21
792.53979460452911
  0
LINE
  8
_0-0_計極細
  6
CONTINUOUS
 62
    2
 10
1985.3530689145671
 20
717.94511460452895
 11
2012.0469409145678
 21
717.94511460452895
  0
LINE
  8
_0-0_計極細
  6
CONTINUOUS
 62
    2
 10
2023.8020449145677
 20
729.7002186045288
 11
2023.8020449145677
 21
786.46632260452907
  0
LINE
  8
_0-0_計極細
  6
CONTINUOUS
 62
    2
 10
2021.8428609145674
 20
729.7002186045288
 11
2021.8428609145674
 21
786.46632260452907
  0
LINE
  8
_0-0_計極細
  6
CONTINUOUS
 62
    2
 10
1985.353068914568
 20
719.90429860452832
 11
2012.0469409145678
 21
719.90429860452832
  0
ARC
  8
_0-0_計極細
  6
CONTINUOUS
 62
    2
 10
2012.0469409145678
 20
729.7002186045288
 40
9.7959199999999989
 50
269.99999999999977
 51
359.99999999999966
  0
LINE
  8
_0-0_計極細
  6
CONTINUOUS
 62
    2
 10
2010.822452914568
 20
736.76096260452914
 11
1985.353068914568
 21
736.76096260452914
  0
ARC
  8
_0-0_計極細
  6
CONTINUOUS
 62
    2
 10
2010.822452914568
 20
737.74055460452882
 40
0.979592
 50
269.99999999999977
 51
359.99999999999966
  0
LINE
  8
_0-0_計極細
  6
CONTINUOUS
 62
    2
 10
2011.8020449145677
 20
737.74055460452882
 11
2011.8020449145667
 21
793.69775460452956
  0
LINE
  8
_0-0_計極細
  6
CONTINUOUS
 62
    2
 10
2009.8428529145674
 20
737.74055460452882
 11
2009.8428529145674
 21
792.53979460452911
  0
ARC
  8
_0-0_計極細
  6
CONTINUOUS
 62
    2
 10
2010.822444914568
 20
737.74055460452882
 40
0.979592
 50
179.99999999999983
 51
269.99999999999977
  0
LINE
  8
_0-0_計極細
  6
CONTINUOUS
 62
    2
 10
2032.4458529145675
 20
763.07263460452896
 11
2026.8131969145677
 21
763.07263460452896
  0
ARC
  8
_0-0_計極細
  6
CONTINUOUS
 62
    2
 10
2026.8131969145677
 20
760.13385860452809
 40
2.9387759999999998
 50
89.999999999999915
 51
179.99999999999983
  0
LINE
  8
_0-0_計極細
  6
CONTINUOUS
 62
    2
 10
2011.7937489145677
 20
737.61342660452874
 11
2011.7937649145676
 21
737.61343460452963
  0
LINE
  8
_0-0_計極細
  6
CENTER1
 62
    2
 10
1961.0122497559039
 20
726.36428260452931
 11
2091.3636571633078
 21
726.36428260452931
  0
LINE
  8
_0-1_計細線
  6
CONTINUOUS
 62
    3
 10
1943.8836769145671
 20
697.29365060453074
 11
2036.8836769145671
 21
697.29365060453074
  0
LINE
  8
_0-1_計細線
  6
CONTINUOUS
 62
    3
 10
1935.8836769145671
 20
705.29365060453074
 11
1935.8836769145671
 21
786.14293060453065
  0
ARC
  8
_0-1_計細線
  6
CONTINUOUS
 62
    3
 10
1943.8836769145671
 20
705.29365060453074
 40
8
 50
179.99999999999983
 51
269.99999999999977
  0
LINE
  8
_0-1_計細線
  6
CONTINUOUS
 62
    3
 10
2036.8836769145671
 20
697.29365060453074
 11
2072.3530689145682
 21
698.86428260452931
  0
LINE
  8
_0-0_計極細
  6
CONTINUOUS
 62
    2
 10
2023.8744209145677
 20
753.09987031764558
 11
2072.3530689145673
 21
751.9045077608348
  0
LINE
  8
_0-1_計細線
  6
CONTINUOUS
 62
    3
 10
2072.3530689145682
 20
698.86428260452931
 11
2072.3530689145682
 21
753.86428260452931
  0
LINE
  8
_0-1_計細線
  6
CONTINUOUS
 62
    3
 10
2034.822452914568
 20
754.78969431764654
 11
2072.3530689145682
 21
753.86428260452931
  0
LINE
  8
_0-1_計細線
  6
CONTINUOUS
 62
    3
 10
2034.822452914568
 20
754.78969431764654
 11
2034.822452914568
 21
786.14293060453065
  0
LINE
  8
_0-0_計極細
  6
CONTINUOUS
 62
    2
 10
1985.353068914568
 20
699.25365060453078
 11
2035.2114551794009
 21
699.25365060453078
  0
LINE
  8
_0-0_計極細
  6
CONTINUOUS
 62
    2
 10
2035.2114551794009
 20
699.25365060453078
 11
2072.3530689145682
 21
700.82620330852933
  0
LINE
  8
_0-5_寸法線
  6
CONTINUOUS
 62
    7
 10
1947.3425785098632
 20
770.31769481777087
 11
1942.4998762232676
 21
755.06816254417629
  0
LINE
  8
_0-5_寸法線
  6
CONTINUOUS
 62
    7
 10
1947.3425785098632
 20
770.31769481777087
 11
1935.5239091699091
 21
759.5325636163052
  0
LINE
  8
_0-5_寸法線
  6
CONTINUOUS
 62
    7
 10
1947.3425785098632
 20
770.31769481777087
 11
1900.4556199450114
 21
697.0532472701359
  0
LINE
  8
_0-5_寸法線
  6
CONTINUOUS
 62
    7
 10
1900.4556199450114
 20
697.0532472701359
 11
1689.2556199450116
 21
697.05324727013658
  0
TEXT
  8
_0-5_寸法線
 62
    7
 10
1689.2556199450116
 20
697.0532472701359
 40
24
 41
0.7999999999999998
 50
0
  1
横引き排水トラップ一式
  0
LINE
  8
_0-5_寸法線
  6
CONTINUOUS
 62
    7
 10
2088.3530689145682
 20
698.86428260452919
 11
2140.3530689145682
 21
698.86428260452908
  0
LINE
  8
_0-5_寸法線
  6
CONTINUOUS
 62
    7
 10
2132.3530689145682
 20
698.86428260452908
 11
2128.211964192928
 21
714.31909582515414
  0
LINE
  8
_0-5_寸法線
  6
CONTINUOUS
 62
    7
 10
2132.3530689145682
 20
698.86428260452908
 11
2136.4941736362084
 21
714.31909582515414
  0
LINE
  8
_0-5_寸法線
  6
CONTINUOUS
 62
    7
 10
2088.3530689145682
 20
726.36428260452919
 11
2140.3530689145682
 21
726.36428260452908
  0
LINE
  8
_0-5_寸法線
  6
CONTINUOUS
 62
    7
 10
2132.3530689145682
 20
726.36428260452908
 11
2136.4941736362084
 21
710.90946938390402
  0
LINE
  8
_0-5_寸法線
  6
CONTINUOUS
 62
    7
 10
2132.3530689145682
 20
726.36428260452908
 11
2128.211964192928
 21
710.90946938390402
  0
LINE
  8
_0-5_寸法線
  6
CONTINUOUS
 62
    7
 10
2132.3530689145682
 20
698.86428260452908
 11
2132.3530689145682
 21
726.36428260452908
  0
TEXT
  8
_0-5_寸法線
 62
    7
 10
2132.3530689145682
 20
700.61428260452885
 40
24
 41
1
 50
90
  1
28
  0
LINE
  8
_0-5_寸法線
  6
CONTINUOUS
 62
    7
 10
2132.3530689145682
 20
726.36428260452908
 11
2128.211964192928
 21
741.81909582515414
  0
LINE
  8
_0-5_寸法線
  6
CONTINUOUS
 62
    7
 10
2132.3530689145682
 20
726.36428260452908
 11
2136.4941736362084
 21
741.81909582515414
  0
LINE
  8
_0-5_寸法線
  6
CONTINUOUS
 62
    7
 10
2071.053068914568
 20
815.36428260452897
 11
2140.3530689145682
 21
815.36428260452874
  0
LINE
  8
_0-5_寸法線
  6
CONTINUOUS
 62
    7
 10
2132.3530689145682
 20
815.36428260452874
 11
2136.4941736362084
 21
799.90946938390357
  0
LINE
  8
_0-5_寸法線
  6
CONTINUOUS
 62
    7
 10
2132.3530689145682
 20
815.36428260452874
 11
2128.211964192928
 21
799.90946938390368
  0
LINE
  8
_0-5_寸法線
  6
CONTINUOUS
 62
    7
 10
2132.3530689145682
 20
726.36428260452908
 11
2132.3530689145682
 21
815.36428260452874
  0
TEXT
  8
_0-5_寸法線
 62
    7
 10
2132.3530689145682
 20
746.86428260452885
 40
24
 41
1
 50
90
  1
88.5
  0
LINE
  8
_0-5_寸法線
  6
CONTINUOUS
 62
    7
 10
2088.3530689145682
 20
698.86428260452931
 11
2182.3530689145682
 21
698.86428260452897
  0
LINE
  8
_0-5_寸法線
  6
CONTINUOUS
 62
    7
 10
2174.3530689145682
 20
698.86428260452897
 11
2170.211964192928
 21
714.31909582515402
  0
LINE
  8
_0-5_寸法線
  6
CONTINUOUS
 62
    7
 10
2174.3530689145682
 20
698.86428260452897
 11
2178.4941736362084
 21
714.31909582515402
  0
LINE
  8
_0-5_寸法線
  6
CONTINUOUS
 62
    7
 10
2088.3530689145682
 20
753.86428260452931
 11
2182.3530689145682
 21
753.86428260452897
  0
LINE
  8
_0-5_寸法線
  6
CONTINUOUS
 62
    7
 10
2174.3530689145682
 20
753.86428260452897
 11
2178.4941736362084
 21
738.40946938390391
  0
LINE
  8
_0-5_寸法線
  6
CONTINUOUS
 62
    7
 10
2174.3530689145682
 20
753.86428260452897
 11
2170.211964192928
 21
738.40946938390391
  0
LINE
  8
_0-5_寸法線
  6
CONTINUOUS
 62
    7
 10
2174.3530689145682
 20
698.86428260452897
 11
2174.3530689145682
 21
753.86428260452897
  0
TEXT
  8
_0-5_寸法線
 62
    7
 10
2174.3530689145682
 20
696.3642826045284
 40
24
 41
1
 50
90
  1
VU-50
  0
LINE
  8
_0-5_寸法線
  6
CONTINUOUS
 62
    7
 10
2088.3530689145682
 20
698.86428260452919
 11
2224.3530689145682
 21
698.86428260452874
  0
LINE
  8
_0-5_寸法線
  6
CONTINUOUS
 62
    7
 10
2216.3530689145682
 20
698.86428260452874
 11
2212.211964192928
 21
714.31909582515379
  0
LINE
  8
_0-5_寸法線
  6
CONTINUOUS
 62
    7
 10
2216.3530689145682
 20
698.86428260452874
 11
2220.4941736362084
 21
714.31909582515379
  0
LINE
  8
_0-5_寸法線
  6
CONTINUOUS
 62
    7
 10
2071.053068914568
 20
815.36428260452897
 11
2224.3530689145682
 21
815.3642826045284
  0
LINE
  8
_0-5_寸法線
  6
CONTINUOUS
 62
    7
 10
2216.3530689145682
 20
815.3642826045284
 11
2220.4941736362084
 21
799.90946938390334
  0
LINE
  8
_0-5_寸法線
  6
CONTINUOUS
 62
    7
 10
2216.3530689145682
 20
815.3642826045284
 11
2212.211964192928
 21
799.90946938390334
  0
LINE
  8
_0-5_寸法線
  6
CONTINUOUS
 62
    7
 10
2216.3530689145682
 20
698.86428260452874
 11
2216.3530689145682
 21
815.3642826045284
  0
TEXT
  8
_0-5_寸法線
 62
    7
 10
2216.3530689145682
 20
727.1142826045284
 40
24
 41
1
 50
90
  1
116.5
  0
LINE
  8
_0-5_寸法線
  6
CONTINUOUS
 62
    7
 10
2081.3530689145682
 20
836.86428260452919
 11
2224.3530689145682
 21
836.86428260452874
  0
LINE
  8
_0-5_寸法線
  6
CONTINUOUS
 62
    7
 10
2216.3530689145682
 20
836.86428260452874
 11
2212.211964192928
 21
852.31909582515379
  0
LINE
  8
_0-5_寸法線
  6
CONTINUOUS
 62
    7
 10
2216.3530689145682
 20
836.86428260452874
 11
2220.4941736362084
 21
852.31909582515379
  0
LINE
  8
_0-5_寸法線
  6
CONTINUOUS
 62
    7
 10
2216.3530689145682
 20
815.3642826045284
 11
2216.3530689145682
 21
913.11465740878111
  0
TEXT
  8
_0-5_寸法線
 62
    7
 10
2216.3530689145682
 20
853.114657408781
 40
24
 41
1
 50
90
  1
21.5
  0
LINE
  8
_0-5_寸法線
  6
CONTINUOUS
 62
    7
 10
2088.3530689145682
 20
698.86428260452931
 11
2266.3530689145682
 21
698.86428260452874
  0
LINE
  8
_0-5_寸法線
  6
CONTINUOUS
 62
    7
 10
2258.3530689145682
 20
698.86428260452874
 11
2254.211964192928
 21
714.31909582515379
  0
LINE
  8
_0-5_寸法線
  6
CONTINUOUS
 62
    7
 10
2258.3530689145682
 20
698.86428260452874
 11
2262.4941736362084
 21
714.31909582515379
  0
LINE
  8
_0-5_寸法線
  6
CONTINUOUS
 62
    7
 10
2081.3530689145682
 20
836.86428259810214
 11
2266.3530689145682
 21
836.86428259810145
  0
LINE
  8
_0-5_寸法線
  6
CONTINUOUS
 62
    7
 10
2258.3530689145682
 20
836.86428259810145
 11
2262.4941736362084
 21
821.4094693774764
  0
LINE
  8
_0-5_寸法線
  6
CONTINUOUS
 62
    7
 10
2258.3530689145682
 20
836.86428259810145
 11
2254.211964192928
 21
821.4094693774764
  0
LINE
  8
_0-5_寸法線
  6
CONTINUOUS
 62
    7
 10
2258.3530689145682
 20
698.86428260452874
 11
2258.3530689145682
 21
836.86428259810145
  0
TEXT
  8
_0-5_寸法線
 62
    7
 10
2258.3530689145682
 20
749.86428260131538
 40
24
 41
1
 50
90
  1
138
  0
LINE
  8
_0-5_寸法線
  6
CONTINUOUS
 62
    7
 10
1985.3530689145678
 20
683.34591460452839
 11
1985.3530689145673
 21
629.29365060453074
  0
LINE
  8
_0-5_寸法線
  6
CONTINUOUS
 62
    7
 10
1985.3530689145673
 20
637.29365060453074
 11
2000.8078821351924
 21
641.43475532617106
  0
LINE
  8
_0-5_寸法線
  6
CONTINUOUS
 62
    7
 10
1985.3530689145673
 20
637.29365060453074
 11
2000.8078821351924
 21
633.15254588289042
  0
LINE
  8
_0-5_寸法線
  6
CONTINUOUS
 62
    7
 10
2034.8224529145677
 20
683.34591460452839
 11
2034.8224529145673
 21
629.29365060453074
  0
LINE
  8
_0-5_寸法線
  6
CONTINUOUS
 62
    7
 10
2034.8224529145673
 20
637.29365060453074
 11
2019.3676396939422
 21
633.15254588289042
  0
LINE
  8
_0-5_寸法線
  6
CONTINUOUS
 62
    7
 10
2034.8224529145673
 20
637.29365060453074
 11
2019.3676396939422
 21
641.43475532617117
  0
LINE
  8
_0-5_寸法線
  6
CONTINUOUS
 62
    7
 10
1985.3530689145673
 20
637.29365060453074
 11
2034.8224529145673
 21
637.29365060453074
  0
TEXT
  8
_0-5_寸法線
 62
    7
 10
1998.0877609145673
 20
637.29365060453051
 40
24
 41
1
 50
0
  1
51
  0
LINE
  8
_0-5_寸法線
  6
CONTINUOUS
 62
    7
 10
2034.8224529145673
 20
637.29365060453074
 11
2050.2772661351923
 21
641.43475532617094
  0
LINE
  8
_0-5_寸法線
  6
CONTINUOUS
 62
    7
 10
2034.8224529145673
 20
637.29365060453074
 11
2050.2772661351923
 21
633.15254588289031
  0
LINE
  8
_0-5_寸法線
  6
CONTINUOUS
 62
    7
 10
2070.5775569145676
 20
684.22754660452892
 11
2070.5775569145671
 21
629.29365060453074
  0
LINE
  8
_0-5_寸法線
  6
CONTINUOUS
 62
    7
 10
2070.5775569145671
 20
637.29365060453074
 11
2055.1227436939421
 21
633.15254588289042
  0
LINE
  8
_0-5_寸法線
  6
CONTINUOUS
 62
    7
 10
2070.5775569145671
 20
637.29365060453074
 11
2055.1227436939421
 21
641.43475532617117
  0
LINE
  8
_0-5_寸法線
  6
CONTINUOUS
 62
    7
 10
2034.8224529145673
 20
637.29365060453074
 11
2070.5775569145671
 21
637.29365060453074
  0
TEXT
  8
_0-5_寸法線
 62
    7
 10
2040.7000049145672
 20
637.29365060453051
 40
24
 41
1
 50
0
  1
36
  0
LINE
  8
_0-5_寸法線
  6
CONTINUOUS
 62
    7
 10
1985.3530689145678
 20
683.34591460452839
 11
1985.3530689145657
 21
587.29365060453074
  0
LINE
  8
_0-5_寸法線
  6
CONTINUOUS
 62
    7
 10
1985.3530689145659
 20
595.29365060453074
 11
2000.807882135191
 21
599.43475532617106
  0
LINE
  8
_0-5_寸法線
  6
CONTINUOUS
 62
    7
 10
1985.3530689145659
 20
595.29365060453074
 11
2000.807882135191
 21
591.15254588289042
  0
LINE
  8
_0-5_寸法線
  6
CONTINUOUS
 62
    7
 10
2070.5775569145676
 20
683.34591460452839
 11
2070.5775569145653
 21
587.29365060453074
  0
LINE
  8
_0-5_寸法線
  6
CONTINUOUS
 62
    7
 10
2070.5775569145653
 20
595.29365060453074
 11
2055.1227436939403
 21
591.15254588289042
  0
LINE
  8
_0-5_寸法線
  6
CONTINUOUS
 62
    7
 10
2070.5775569145653
 20
595.29365060453074
 11
2055.1227436939403
 21
599.43475532617117
  0
LINE
  8
_0-5_寸法線
  6
CONTINUOUS
 62
    7
 10
1985.3530689145659
 20
595.29365060453074
 11
2070.5775569145653
 21
595.29365060453074
  0
TEXT
  8
_0-5_寸法線
 62
    7
 10
2015.9653129145659
 20
595.29365060453074
 40
24
 41
1
 50
0
  1
87
  0
TEXT
  8
_0-7_枠細線
 62
    5
 10
1539.8715071507147
 20
176
 40
32
 41
0.6
 50
0
  1
ＨＳＴＹ－１５Ｌ１８００
  0
ENDSEC
  0
EOF
