  0
SECTION
  2
HEADER
  9
$ACADVER
  1
AC1018
  9
$ACADMAINTVER
 70
     0
  9
$DWGCODEPAGE
  3
ANSI_932
  9
$INSBASE
 10
0.0
 20
0.0
 30
0.0
  9
$EXTMIN
 10
0.0
 20
0.0
 30
0.0
  9
$EXTMAX
 10
297.0
 20
210.0
 30
0.0
  9
$LIMMIN
 10
0.0
 20
0.0
  9
$LIMMAX
 10
297.0
 20
210.0
  9
$ORTHOMODE
 70
     0
  9
$REGENMODE
 70
     1
  9
$FILLMODE
 70
     1
  9
$QTEXTMODE
 70
     0
  9
$MIRRTEXT
 70
     1
  9
$LTSCALE
 40
0.25
  9
$ATTMODE
 70
     1
  9
$TEXTSIZE
 40
3.0
  9
$TRACEWID
 40
0.05
  9
$TEXTSTYLE
  7
Standard
  9
$CLAYER
  8
0
  9
$CELTYPE
  6
ByLayer
  9
$CECOLOR
 62
   256
  9
$CELTSCALE
 40
1.0
  9
$DISPSILH
 70
     0
  9
$DIMSCALE
 40
1.0
  9
$DIMASZ
 40
2.0
  9
$DIMEXO
 40
2.0
  9
$DIMDLI
 40
10.0
  9
$DIMRND
 40
0.0
  9
$DIMDLE
 40
0.0
  9
$DIMEXE
 40
1.0
  9
$DIMTP
 40
0.0
  9
$DIMTM
 40
0.0
  9
$DIMTXT
 40
3.0
  9
$DIMCEN
 40
0.09
  9
$DIMTSZ
 40
0.0
  9
$DIMTOL
 70
     0
  9
$DIMLIM
 70
     0
  9
$DIMTIH
 70
     0
  9
$DIMTOH
 70
     0
  9
$DIMSE1
 70
     0
  9
$DIMSE2
 70
     0
  9
$DIMTAD
 70
     3
  9
$DIMZIN
 70
     8
  9
$DIMBLK
  1

  9
$DIMASO
 70
     1
  9
$DIMSHO
 70
     1
  9
$DIMPOST
  1

  9
$DIMAPOST
  1

  9
$DIMALT
 70
     0
  9
$DIMALTD
 70
     2
  9
$DIMALTF
 40
25.4
  9
$DIMLFAC
 40
1.0
  9
$DIMTOFL
 70
     1
  9
$DIMTVP
 40
0.7
  9
$DIMTIX
 70
     0
  9
$DIMSOXD
 70
     0
  9
$DIMSAH
 70
     0
  9
$DIMBLK1
  1

  9
$DIMBLK2
  1

  9
$DIMSTYLE
  2
Standard
  9
$DIMCLRD
 70
     0
  9
$DIMCLRE
 70
     0
  9
$DIMCLRT
 70
     0
  9
$DIMTFAC
 40
0.5
  9
$DIMGAP
 40
0.09
  9
$DIMJUST
 70
     0
  9
$DIMSD1
 70
     0
  9
$DIMSD2
 70
     0
  9
$DIMTOLJ
 70
     1
  9
$DIMTZIN
 70
     8
  9
$DIMALTZ
 70
     0
  9
$DIMALTTZ
 70
     0
  9
$DIMUPT
 70
     1
  9
$DIMDEC
 70
     2
  9
$DIMTDEC
 70
     4
  9
$DIMALTU
 70
     2
  9
$DIMALTTD
 70
     2
  9
$DIMTXSTY
  7
Standard
  9
$DIMAUNIT
 70
     0
  9
$DIMADEC
 70
     0
  9
$DIMALTRND
 40
0.0
  9
$DIMAZIN
 70
     0
  9
$DIMDSEP
 70
    46
  9
$DIMATFIT
 70
     2
  9
$DIMFRAC
 70
     0
  9
$DIMLDRBLK
  1

  9
$DIMLUNIT
 70
     2
  9
$DIMLWD
 70
    -2
  9
$DIMLWE
 70
    -2
  9
$DIMTMOVE
 70
     2
  9
$LUNITS
 70
     2
  9
$LUPREC
 70
     4
  9
$SKETCHINC
 40
0.1
  9
$FILLETRAD
 40
0.5
  9
$AUNITS
 70
     0
  9
$AUPREC
 70
     0
  9
$MENU
  1
.
  9
$ELEVATION
 40
0.0
  9
$PELEVATION
 40
0.0
  9
$THICKNESS
 40
0.0
  9
$LIMCHECK
 70
     0
  9
$CHAMFERA
 40
0.5
  9
$CHAMFERB
 40
0.5
  9
$CHAMFERC
 40
1.0
  9
$CHAMFERD
 40
0.0
  9
$SKPOLY
 70
     0
  9
$TDCREATE
 40
2456421.909421296
  9
$TDUCREATE
 40
2456421.534421296
  9
$TDUPDATE
 40
2456421.909421296
  9
$TDUUPDATE
 40
2456421.534421296
  9
$TDINDWG
 40
0.0000000116
  9
$TDUSRTIMER
 40
0.0000000116
  9
$USRTIMER
 70
     1
  9
$ANGBASE
 50
0.0
  9
$ANGDIR
 70
     0
  9
$PDMODE
 70
     0
  9
$PDSIZE
 40
0.0
  9
$PLINEWID
 40
0.0
  9
$SPLFRAME
 70
     0
  9
$SPLINETYPE
 70
     6
  9
$SPLINESEGS
 70
     8
  9
$HANDSEED
  5
388
  9
$SURFTAB1
 70
     6
  9
$SURFTAB2
 70
     6
  9
$SURFTYPE
 70
     6
  9
$SURFU
 70
     6
  9
$SURFV
 70
     6
  9
$UCSBASE
  2

  9
$UCSNAME
  2

  9
$UCSORG
 10
0.0
 20
0.0
 30
0.0
  9
$UCSXDIR
 10
1.0
 20
0.0
 30
0.0
  9
$UCSYDIR
 10
0.0
 20
1.0
 30
0.0
  9
$UCSORTHOREF
  2

  9
$UCSORTHOVIEW
 70
     0
  9
$UCSORGTOP
 10
0.0
 20
0.0
 30
0.0
  9
$UCSORGBOTTOM
 10
0.0
 20
0.0
 30
0.0
  9
$UCSORGLEFT
 10
0.0
 20
0.0
 30
0.0
  9
$UCSORGRIGHT
 10
0.0
 20
0.0
 30
0.0
  9
$UCSORGFRONT
 10
0.0
 20
0.0
 30
0.0
  9
$UCSORGBACK
 10
0.0
 20
0.0
 30
0.0
  9
$PUCSBASE
  2

  9
$PUCSNAME
  2

  9
$PUCSORG
 10
0.0
 20
0.0
 30
0.0
  9
$PUCSXDIR
 10
1.0
 20
0.0
 30
0.0
  9
$PUCSYDIR
 10
0.0
 20
1.0
 30
0.0
  9
$PUCSORTHOREF
  2

  9
$PUCSORTHOVIEW
 70
     0
  9
$PUCSORGTOP
 10
0.0
 20
0.0
 30
0.0
  9
$PUCSORGBOTTOM
 10
0.0
 20
0.0
 30
0.0
  9
$PUCSORGLEFT
 10
0.0
 20
0.0
 30
0.0
  9
$PUCSORGRIGHT
 10
0.0
 20
0.0
 30
0.0
  9
$PUCSORGFRONT
 10
0.0
 20
0.0
 30
0.0
  9
$PUCSORGBACK
 10
0.0
 20
0.0
 30
0.0
  9
$USERI1
 70
     0
  9
$USERI2
 70
     0
  9
$USERI3
 70
     0
  9
$USERI4
 70
     0
  9
$USERI5
 70
     0
  9
$USERR1
 40
0.0
  9
$USERR2
 40
0.0
  9
$USERR3
 40
0.0
  9
$USERR4
 40
0.0
  9
$USERR5
 40
0.0
  9
$WORLDVIEW
 70
     1
  9
$SHADEDGE
 70
     3
  9
$SHADEDIF
 70
    70
  9
$TILEMODE
 70
     1
  9
$MAXACTVP
 70
    64
  9
$PINSBASE
 10
0.0
 20
0.0
 30
0.0
  9
$PLIMCHECK
 70
     0
  9
$PEXTMIN
 10
0.0
 20
0.0
 30
0.0
  9
$PEXTMAX
 10
297.0
 20
210.0
 30
0.0
  9
$PLIMMIN
 10
0.0
 20
0.0
  9
$PLIMMAX
 10
297.0
 20
210.0
  9
$UNITMODE
 70
     0
  9
$VISRETAIN
 70
     1
  9
$PLINEGEN
 70
     0
  9
$PSLTSCALE
 70
     1
  9
$TREEDEPTH
 70
  3020
  9
$CMLSTYLE
  2
Standard
  9
$CMLJUST
 70
     0
  9
$CMLSCALE
 40
1.0
  9
$PROXYGRAPHICS
 70
     1
  9
$MEASUREMENT
 70
     1
  9
$CELWEIGHT
370
    -1
  9
$ENDCAPS
280
     0
  9
$JOINSTYLE
280
     0
  9
$LWDISPLAY
290
     0
  9
$INSUNITS
 70
     4
  9
$HYPERLINKBASE
  1

  9
$STYLESHEET
  1

  9
$XEDIT
290
     1
  9
$CEPSNTYPE
380
     0
  9
$PSTYLEMODE
290
     1
  9
$FINGERPRINTGUID
  2
{77E5EA62-9384-4E02-8F35-52FD351BABD9}
  9
$VERSIONGUID
  2
{FAEB1C32-E019-11D5-929B-00C0DF256EC4}
  9
$EXTNAMES
290
     1
  9
$PSVPSCALE
 40
0.0
  9
$OLESTARTUP
290
     0
  9
$SORTENTS
280
   127
  9
$INDEXCTL
280
     0
  9
$HIDETEXT
280
     1
  9
$XCLIPFRAME
290
     0
  9
$HALOGAP
280
     0
  9
$OBSCOLOR
 70
   257
  9
$OBSLTYPE
280
     0
  9
$INTERSECTIONDISPLAY
280
     0
  9
$INTERSECTIONCOLOR
 70
   257
  9
$DIMASSOC
280
     1
  9
$PROJECTNAME
  1

  0
ENDSEC
  0
SECTION
  2
CLASSES
  0
CLASS
  1
ACDBDICTIONARYWDFLT
  2
AcDbDictionaryWithDefault
  3
ObjectDBX Classes
 90
        0
 91
        3
280
     0
281
     0
  0
ENDSEC
  0
SECTION
  2
TABLES
  0
TABLE
  2
VPORT
  5
8
330
0
100
AcDbSymbolTable
 70
     1
  0
VPORT
  5
29
330
8
100
AcDbSymbolTableRecord
100
AcDbViewportTableRecord
  2
*Active
 70
     0
 10
0.0
 20
0.0
 11
1.0
 21
1.0
 12
10.42990654205607
 22
4.5
 13
0.0
 23
0.0
 14
0.5
 24
0.5
 15
0.5
 25
0.5
 16
0.0
 26
0.0
 36
1.0
 17
0.0
 27
0.0
 37
0.0
 40
9.0
 41
1.972972972850329
 42
50.0
 43
0.0
 44
0.0
 50
0.0
 51
0.0
 71
     0
 72
   100
 73
     1
 74
     3
 75
     0
 76
     0
 77
     0
 78
     0
281
     0
 65
     1
110
0.0
120
0.0
130
0.0
111
1.0
121
0.0
131
0.0
112
0.0
122
1.0
132
0.0
 79
     0
146
0.0
  0
ENDTAB
  0
TABLE
  2
LTYPE
  5
5
330
0
100
AcDbSymbolTable
 70
     9
  0
LTYPE
  5
14
330
5
100
AcDbSymbolTableRecord
100
AcDbLinetypeTableRecord
  2
ByBlock
 70
     0
  3

 72
    65
 73
     0
 40
0.0
  0
LTYPE
  5
15
330
5
100
AcDbSymbolTableRecord
100
AcDbLinetypeTableRecord
  2
ByLayer
 70
     0
  3

 72
    65
 73
     0
 40
0.0
  0
LTYPE
  5
16
330
5
100
AcDbSymbolTableRecord
100
AcDbLinetypeTableRecord
  2
Continuous
 70
     0
  3
Solid line
 72
    65
 73
     0
 40
0.0
  0
LTYPE
  5
68
330
5
100
AcDbSymbolTableRecord
100
AcDbLinetypeTableRecord
  2
DOT
 70
     0
  3
DOT
 72
    65
 73
     2
 40
4.0
 49
6.0
 74
     0
 49
-2.0
 74
     0
  0
LTYPE
  5
69
330
5
100
AcDbSymbolTableRecord
100
AcDbLinetypeTableRecord
  2
HIDDEN
 70
     0
  3
HIDDEN
 72
    65
 73
     2
 40
4.2
 49
8.4
 74
     0
 49
-4.2
 74
     0
  0
LTYPE
  5
6A
330
5
100
AcDbSymbolTableRecord
100
AcDbLinetypeTableRecord
  2
DASHDOT
 70
     0
  3
DASHDOT
 72
    65
 73
     4
 40
14.5
 49
30.0
 74
     0
 49
-9.0
 74
     0
 49
2.5
 74
     0
 49
-9.0
 74
     0
  0
LTYPE
  5
6B
330
5
100
AcDbSymbolTableRecord
100
AcDbLinetypeTableRecord
  2
PHANTOM
 70
     0
  3
PHANTOM
 72
    65
 73
     6
 40
12.0
 49
30.0
 74
     0
 49
-9.0
 74
     0
 49
2.5
 74
     0
 49
-5.0
 74
     0
 49
2.5
 74
     0
 49
-9.0
 74
     0
  0
LTYPE
  5
6C
330
5
100
AcDbSymbolTableRecord
100
AcDbLinetypeTableRecord
  2
ACAD_ISO14W100
 70
     0
  3
ACAD_ISO14W100
 72
    65
 73
     8
 40
1.5
 49
12.0
 74
     0
 49
-3.0
 74
     0
 49
0.5
 74
     0
 49
-3.0
 74
     0
 49
0.5
 74
     0
 49
-3.0
 74
     0
 49
0.5
 74
     0
 49
-3.0
 74
     0
  0
LTYPE
  5
6D
330
5
100
AcDbSymbolTableRecord
100
AcDbLinetypeTableRecord
  2
ACAD_ISO06W100
 70
     0
  3
ACAD_ISO06W100
 72
    65
 73
     8
 40
13.5
 49
24.0
 74
     0
 49
-3.0
 74
     0
 49
0.5
 74
     0
 49
-3.0
 74
     0
 49
0.5
 74
     0
 49
-3.0
 74
     0
 49
0.5
 74
     0
 49
-3.0
 74
     0
  0
LTYPE
  5
6E
330
5
100
AcDbSymbolTableRecord
100
AcDbLinetypeTableRecord
  2
ACAD_ISO11W100
 70
     0
  3
ACAD_ISO11W100
 72
    65
 73
     6
 40
15.5
 49
12.0
 74
     0
 49
-3.0
 74
     0
 49
12.0
 74
     0
 49
-3.0
 74
     0
 49
0.5
 74
     0
 49
-3.0
 74
     0
  0
LTYPE
  5
6F
330
5
100
AcDbSymbolTableRecord
100
AcDbLinetypeTableRecord
  2
ACAD_ISO13W100
 70
     0
  3
ACAD_ISO13W100
 72
    65
 73
     8
 40
13.0
 49
12.0
 74
     0
 49
-3.0
 74
     0
 49
12.0
 74
     0
 49
-3.0
 74
     0
 49
0.5
 74
     0
 49
-3.0
 74
     0
 49
0.5
 74
     0
 49
-3.0
 74
     0
  0
ENDTAB
  0
TABLE
  2
LAYER
  5
2
330
0
100
AcDbSymbolTable
 70
    40
  0
LAYER
  5
10
330
2
100
AcDbSymbolTableRecord
100
AcDbLayerTableRecord
  2
0
 70
     0
 62
     7
  6
Continuous
370
    -3
390
F
  0
LAYER
  5
70
330
2
100
AcDbSymbolTableRecord
100
AcDbLayerTableRecord
  2
1
 70
     0
 62
    45
  6
Continuous
370
    -3
390
F
  0
LAYER
  5
71
330
2
100
AcDbSymbolTableRecord
100
AcDbLayerTableRecord
  2
2
 70
     0
 62
    90
  6
Continuous
370
    -3
390
F
  0
LAYER
  5
72
330
2
100
AcDbSymbolTableRecord
100
AcDbLayerTableRecord
  2
3
 70
     0
 62
     6
  6
Continuous
370
    -3
390
F
  0
LAYER
  5
73
330
2
100
AcDbSymbolTableRecord
100
AcDbLayerTableRecord
  2
4
 70
     0
 62
    30
  6
Continuous
370
    -3
390
F
  0
LAYER
  5
74
330
2
100
AcDbSymbolTableRecord
100
AcDbLayerTableRecord
  2
5
 70
     0
 62
     2
  6
Continuous
370
    -3
390
F
  0
LAYER
  5
75
330
2
100
AcDbSymbolTableRecord
100
AcDbLayerTableRecord
  2
6
 70
     0
 62
     7
  6
Continuous
370
    -3
390
F
  0
LAYER
  5
76
330
2
100
AcDbSymbolTableRecord
100
AcDbLayerTableRecord
  2
7
 70
     0
 62
   132
  6
Continuous
370
    -3
390
F
  0
LAYER
  5
77
330
2
100
AcDbSymbolTableRecord
100
AcDbLayerTableRecord
  2
8
 70
     0
 62
   171
  6
Continuous
370
    -3
390
F
  0
LAYER
  5
78
330
2
100
AcDbSymbolTableRecord
100
AcDbLayerTableRecord
  2
9
 70
     0
 62
   170
  6
Continuous
370
    -3
390
F
  0
LAYER
  5
79
330
2
100
AcDbSymbolTableRecord
100
AcDbLayerTableRecord
  2
10
 70
     0
 62
   172
  6
Continuous
370
    -3
390
F
  0
LAYER
  5
7A
330
2
100
AcDbSymbolTableRecord
100
AcDbLayerTableRecord
  2
11
 70
     0
 62
    16
  6
Continuous
370
    -3
390
F
  0
LAYER
  5
7B
330
2
100
AcDbSymbolTableRecord
100
AcDbLayerTableRecord
  2
12
 70
     0
 62
   136
  6
Continuous
370
    -3
390
F
  0
LAYER
  5
7C
330
2
100
AcDbSymbolTableRecord
100
AcDbLayerTableRecord
  2
13
 70
     0
 62
   216
  6
Continuous
370
    -3
390
F
  0
LAYER
  5
7D
330
2
100
AcDbSymbolTableRecord
100
AcDbLayerTableRecord
  2
14
 70
     0
 62
     7
  6
Continuous
370
    -3
390
F
  0
LAYER
  5
7E
330
2
100
AcDbSymbolTableRecord
100
AcDbLayerTableRecord
  2
15
 70
     0
 62
    14
  6
Continuous
370
    -3
390
F
  0
LAYER
  5
7F
330
2
100
AcDbSymbolTableRecord
100
AcDbLayerTableRecord
  2
16
 70
     0
 62
    94
  6
Continuous
370
    -3
390
F
  0
LAYER
  5
80
330
2
100
AcDbSymbolTableRecord
100
AcDbLayerTableRecord
  2
17
 70
     0
 62
   230
  6
Continuous
370
    -3
390
F
  0
LAYER
  5
81
330
2
100
AcDbSymbolTableRecord
100
AcDbLayerTableRecord
  2
18
 70
     0
 62
     7
  6
Continuous
370
    -3
390
F
  0
LAYER
  5
82
330
2
100
AcDbSymbolTableRecord
100
AcDbLayerTableRecord
  2
19
 70
     0
 62
   216
  6
Continuous
370
    -3
390
F
  0
LAYER
  5
83
330
2
100
AcDbSymbolTableRecord
100
AcDbLayerTableRecord
  2
20
 70
     0
 62
   134
  6
Continuous
370
    -3
390
F
  0
LAYER
  5
84
330
2
100
AcDbSymbolTableRecord
100
AcDbLayerTableRecord
  2
21
 70
     0
 62
   214
  6
Continuous
370
    -3
390
F
  0
LAYER
  5
85
330
2
100
AcDbSymbolTableRecord
100
AcDbLayerTableRecord
  2
22
 70
     0
 62
     7
  6
Continuous
370
    -3
390
F
  0
LAYER
  5
86
330
2
100
AcDbSymbolTableRecord
100
AcDbLayerTableRecord
  2
128
 70
     0
 62
     7
  6
Continuous
370
    -3
390
F
  0
LAYER
  5
87
330
2
100
AcDbSymbolTableRecord
100
AcDbLayerTableRecord
  2
129
 70
     0
 62
     7
  6
Continuous
370
    -3
390
F
  0
LAYER
  5
88
330
2
100
AcDbSymbolTableRecord
100
AcDbLayerTableRecord
  2
130
 70
     0
 62
     7
  6
Continuous
370
    -3
390
F
  0
LAYER
  5
89
330
2
100
AcDbSymbolTableRecord
100
AcDbLayerTableRecord
  2
131
 70
     0
 62
     7
  6
Continuous
370
    -3
390
F
  0
LAYER
  5
8A
330
2
100
AcDbSymbolTableRecord
100
AcDbLayerTableRecord
  2
132
 70
     0
 62
     7
  6
Continuous
370
    -3
390
F
  0
LAYER
  5
8B
330
2
100
AcDbSymbolTableRecord
100
AcDbLayerTableRecord
  2
133
 70
     0
 62
     4
  6
Continuous
370
    -3
390
F
  0
LAYER
  5
8C
330
2
100
AcDbSymbolTableRecord
100
AcDbLayerTableRecord
  2
134
 70
     0
 62
     7
  6
Continuous
370
    -3
390
F
  0
LAYER
  5
8D
330
2
100
AcDbSymbolTableRecord
100
AcDbLayerTableRecord
  2
135
 70
     0
 62
     4
  6
Continuous
370
    -3
390
F
  0
LAYER
  5
8E
330
2
100
AcDbSymbolTableRecord
100
AcDbLayerTableRecord
  2
136
 70
     0
 62
     7
  6
Continuous
370
    -3
390
F
  0
LAYER
  5
8F
330
2
100
AcDbSymbolTableRecord
100
AcDbLayerTableRecord
  2
137
 70
     0
 62
     3
  6
Continuous
370
    -3
390
F
  0
LAYER
  5
90
330
2
100
AcDbSymbolTableRecord
100
AcDbLayerTableRecord
  2
138
 70
     0
 62
     7
  6
Continuous
370
    -3
390
F
  0
LAYER
  5
91
330
2
100
AcDbSymbolTableRecord
100
AcDbLayerTableRecord
  2
139
 70
     0
 62
     6
  6
Continuous
370
    -3
390
F
  0
LAYER
  5
92
330
2
100
AcDbSymbolTableRecord
100
AcDbLayerTableRecord
  2
140
 70
     0
 62
     1
  6
Continuous
370
    -3
390
F
  0
LAYER
  5
93
330
2
100
AcDbSymbolTableRecord
100
AcDbLayerTableRecord
  2
141
 70
     0
 62
     7
  6
Continuous
370
    -3
390
F
  0
LAYER
  5
94
330
2
100
AcDbSymbolTableRecord
100
AcDbLayerTableRecord
  2
142
 70
     0
 62
     7
  6
Continuous
370
    -3
390
F
  0
LAYER
  5
95
330
2
100
AcDbSymbolTableRecord
100
AcDbLayerTableRecord
  2
143
 70
     0
 62
   171
  6
Continuous
370
    -3
390
F
  0
LAYER
  5
96
330
2
100
AcDbSymbolTableRecord
100
AcDbLayerTableRecord
  2
144
 70
     0
 62
     5
  6
Continuous
370
    -3
390
F
  0
ENDTAB
  0
TABLE
  2
STYLE
  5
3
330
0
100
AcDbSymbolTable
 70
     2
  0
STYLE
  5
11
330
3
100
AcDbSymbolTableRecord
100
AcDbTextStyleTableRecord
  2
Standard
 70
     0
 40
0.0
 41
1.0
 50
0.0
 71
     0
 42
0.2
  3
txt
  4
bigfont
  0
STYLE
  5
2C
330
3
100
AcDbSymbolTableRecord
100
AcDbTextStyleTableRecord
  2
T_STANDARD
 70
     4
 40
10.0
 41
1.0
 50
0.0
 71
     0
 42
10.0
  3
txt
  4
bigfont
  0
ENDTAB
  0
TABLE
  2
VIEW
  5
6
330
0
100
AcDbSymbolTable
 70
     0
  0
ENDTAB
  0
TABLE
  2
UCS
  5
7
330
0
100
AcDbSymbolTable
 70
     0
  0
ENDTAB
  0
TABLE
  2
APPID
  5
9
330
0
100
AcDbSymbolTable
 70
     2
  0
APPID
  5
12
330
9
100
AcDbSymbolTableRecord
100
AcDbRegAppTableRecord
  2
ACAD
 70
     0
  0
APPID
  5
2B
330
9
100
AcDbSymbolTableRecord
100
AcDbRegAppTableRecord
  2
ODA
 70
     0
  0
ENDTAB
  0
TABLE
  2
DIMSTYLE
  5
A
330
0
100
AcDbSymbolTable
 70
     1
100
AcDbDimStyleTable
  0
DIMSTYLE
105
27
330
A
100
AcDbSymbolTableRecord
100
AcDbDimStyleTableRecord
  2
Standard
 70
     0
340
11
  0
ENDTAB
  0
TABLE
  2
BLOCK_RECORD
  5
1
330
0
100
AcDbSymbolTable
 70
    18
  0
BLOCK_RECORD
  5
1F
330
1
100
AcDbSymbolTableRecord
100
AcDbBlockTableRecord
  2
*Model_Space
340
22
  0
BLOCK_RECORD
  5
1B
330
1
100
AcDbSymbolTableRecord
100
AcDbBlockTableRecord
  2
*Paper_Space
340
1E
  0
BLOCK_RECORD
  5
23
330
1
100
AcDbSymbolTableRecord
100
AcDbBlockTableRecord
  2
*Paper_Space0
340
26
  0
BLOCK_RECORD
  5
2D
330
1
100
AcDbSymbolTableRecord
100
AcDbBlockTableRecord
  2
_ORIGIN
340
0
  0
BLOCK_RECORD
  5
32
330
1
100
AcDbSymbolTableRecord
100
AcDbBlockTableRecord
  2
_DOTBLANK
340
0
  0
BLOCK_RECORD
  5
37
330
1
100
AcDbSymbolTableRecord
100
AcDbBlockTableRecord
  2
_DOT
340
0
  0
BLOCK_RECORD
  5
3C
330
1
100
AcDbSymbolTableRecord
100
AcDbBlockTableRecord
  2
_OPEN
340
0
  0
BLOCK_RECORD
  5
42
330
1
100
AcDbSymbolTableRecord
100
AcDbBlockTableRecord
  2
_CLOSED
340
0
  0
BLOCK_RECORD
  5
49
330
1
100
AcDbSymbolTableRecord
100
AcDbBlockTableRecord
  2
_CLOSEDBLANK
340
0
  0
BLOCK_RECORD
  5
4F
330
1
100
AcDbSymbolTableRecord
100
AcDbBlockTableRecord
  2
_BOXBLANK
340
0
  0
BLOCK_RECORD
  5
57
330
1
100
AcDbSymbolTableRecord
100
AcDbBlockTableRecord
  2
_BOXFILLED
340
0
  0
BLOCK_RECORD
  5
5C
330
1
100
AcDbSymbolTableRecord
100
AcDbBlockTableRecord
  2
_INTEGRAL
340
0
  0
BLOCK_RECORD
  5
61
330
1
100
AcDbSymbolTableRecord
100
AcDbBlockTableRecord
  2
_OBLIQUE
340
0
  0
BLOCK_RECORD
  5
65
330
1
100
AcDbSymbolTableRecord
100
AcDbBlockTableRecord
  2
_NONE
340
0
  0
BLOCK_RECORD
  5
221
330
1
100
AcDbSymbolTableRecord
100
AcDbBlockTableRecord
  2
*G12
340
0
102
{BLKREFS
331
227
102
}
  0
BLOCK_RECORD
  5
228
330
1
100
AcDbSymbolTableRecord
100
AcDbBlockTableRecord
  2
*G13
340
0
102
{BLKREFS
331
22E
102
}
  0
BLOCK_RECORD
  5
247
330
1
100
AcDbSymbolTableRecord
100
AcDbBlockTableRecord
  2
*G14
340
0
102
{BLKREFS
331
24D
102
}
  0
BLOCK_RECORD
  5
24F
330
1
100
AcDbSymbolTableRecord
100
AcDbBlockTableRecord
  2
*G15
340
0
102
{BLKREFS
331
255
102
}
  0
BLOCK_RECORD
  5
273
330
1
100
AcDbSymbolTableRecord
100
AcDbBlockTableRecord
  2
*G16
340
0
102
{BLKREFS
331
279
102
}
  0
BLOCK_RECORD
  5
27E
330
1
100
AcDbSymbolTableRecord
100
AcDbBlockTableRecord
  2
*G17
340
0
102
{BLKREFS
331
284
102
}
  0
ENDTAB
  0
ENDSEC
  0
SECTION
  2
BLOCKS
  0
BLOCK
  5
20
330
1F
100
AcDbEntity
  8
0
100
AcDbBlockBegin
  2
*Model_Space
 70
     0
 71
     0
 10
0.0
 20
0.0
 30
0.0
  3
*Model_Space
  1

  0
ENDBLK
  5
21
330
1F
100
AcDbEntity
  8
0
100
AcDbBlockEnd
  0
BLOCK
  5
1C
330
1B
100
AcDbEntity
 67
     1
  8
0
100
AcDbBlockBegin
  2
*Paper_Space
 70
     0
 71
     0
 10
0.0
 20
0.0
 30
0.0
  3
*Paper_Space
  1

  0
ENDBLK
  5
1D
330
1B
100
AcDbEntity
 67
     1
  8
0
100
AcDbBlockEnd
  0
BLOCK
  5
24
330
23
100
AcDbEntity
  8
0
100
AcDbBlockBegin
  2
*Paper_Space0
 70
     0
 71
     0
 10
0.0
 20
0.0
 30
0.0
  3
*Paper_Space0
  1

  0
ENDBLK
  5
25
330
23
100
AcDbEntity
  8
0
100
AcDbBlockEnd
  0
BLOCK
  5
30
330
2D
100
AcDbEntity
  8
0
100
AcDbBlockBegin
  2
_ORIGIN
 70
     0
 71
     0
 10
0.0
 20
0.0
 30
0.0
  3
_ORIGIN
  1

  0
CIRCLE
  5
2E
330
2D
100
AcDbEntity
  8
0
100
AcDbCircle
 10
0.0
 20
0.0
 30
0.0
 40
0.5
  0
LINE
  5
2F
330
2D
100
AcDbEntity
  8
0
100
AcDbLine
 10
0.0
 20
0.0
 30
0.0
 11
-1.0
 21
0.0
 31
0.0
  0
ENDBLK
  5
31
330
2D
100
AcDbEntity
  8
0
100
AcDbBlockEnd
  0
BLOCK
  5
35
330
32
100
AcDbEntity
  8
0
100
AcDbBlockBegin
  2
_DOTBLANK
 70
     0
 71
     0
 10
0.0
 20
0.0
 30
0.0
  3
_DOTBLANK
  1

  0
CIRCLE
  5
33
330
32
100
AcDbEntity
  8
0
100
AcDbCircle
 10
0.0
 20
0.0
 30
0.0
 40
0.5
  0
LINE
  5
34
330
32
100
AcDbEntity
  8
0
100
AcDbLine
 10
-0.5
 20
0.0
 30
0.0
 11
-1.0
 21
0.0
 31
0.0
  0
ENDBLK
  5
36
330
32
100
AcDbEntity
  8
0
100
AcDbBlockEnd
  0
BLOCK
  5
3A
330
37
100
AcDbEntity
  8
0
100
AcDbBlockBegin
  2
_DOT
 70
     0
 71
     0
 10
0.0
 20
0.0
 30
0.0
  3
_DOT
  1

  0
LWPOLYLINE
  5
38
330
37
100
AcDbEntity
  8
0
100
AcDbPolyline
 90
        2
 70
     1
 43
0.5
 10
-0.25
 20
0.0
 42
1.0
 10
0.25
 20
0.0
 42
1.0
  0
LINE
  5
39
330
37
100
AcDbEntity
  8
0
100
AcDbLine
 10
-0.5
 20
0.0
 30
0.0
 11
-1.0
 21
0.0
 31
0.0
  0
ENDBLK
  5
3B
330
37
100
AcDbEntity
  8
0
100
AcDbBlockEnd
  0
BLOCK
  5
40
330
3C
100
AcDbEntity
  8
0
100
AcDbBlockBegin
  2
_OPEN
 70
     0
 71
     0
 10
0.0
 20
0.0
 30
0.0
  3
_OPEN
  1

  0
LINE
  5
3D
330
3C
100
AcDbEntity
  8
0
100
AcDbLine
 10
-1.0
 20
0.1666666666666667
 30
0.0
 11
0.0
 21
0.0
 31
0.0
  0
LINE
  5
3E
330
3C
100
AcDbEntity
  8
0
100
AcDbLine
 10
-1.0
 20
-0.1666666666666667
 30
0.0
 11
0.0
 21
0.0
 31
0.0
  0
LINE
  5
3F
330
3C
100
AcDbEntity
  8
0
100
AcDbLine
 10
0.0
 20
0.0
 30
0.0
 11
-1.0
 21
0.0
 31
0.0
  0
ENDBLK
  5
41
330
3C
100
AcDbEntity
  8
0
100
AcDbBlockEnd
  0
BLOCK
  5
47
330
42
100
AcDbEntity
  8
0
100
AcDbBlockBegin
  2
_CLOSED
 70
     0
 71
     0
 10
0.0
 20
0.0
 30
0.0
  3
_CLOSED
  1

  0
LINE
  5
43
330
42
100
AcDbEntity
  8
0
100
AcDbLine
 10
-1.0
 20
0.1666666666666667
 30
0.0
 11
0.0
 21
0.0
 31
0.0
  0
LINE
  5
44
330
42
100
AcDbEntity
  8
0
100
AcDbLine
 10
0.0
 20
0.0
 30
0.0
 11
-1.0
 21
-0.1666666666666667
 31
0.0
  0
LINE
  5
45
330
42
100
AcDbEntity
  8
0
100
AcDbLine
 10
-1.0
 20
0.1666666666666667
 30
0.0
 11
-1.0
 21
-0.1666666666666667
 31
0.0
  0
LINE
  5
46
330
42
100
AcDbEntity
  8
0
100
AcDbLine
 10
0.0
 20
0.0
 30
0.0
 11
-1.0
 21
0.0
 31
0.0
  0
ENDBLK
  5
48
330
42
100
AcDbEntity
  8
0
100
AcDbBlockEnd
  0
BLOCK
  5
4D
330
49
100
AcDbEntity
  8
0
100
AcDbBlockBegin
  2
_CLOSEDBLANK
 70
     0
 71
     0
 10
0.0
 20
0.0
 30
0.0
  3
_CLOSEDBLANK
  1

  0
LINE
  5
4A
330
49
100
AcDbEntity
  8
0
100
AcDbLine
 10
-1.0
 20
0.1666666666666667
 30
0.0
 11
0.0
 21
0.0
 31
0.0
  0
LINE
  5
4B
330
49
100
AcDbEntity
  8
0
100
AcDbLine
 10
0.0
 20
0.0
 30
0.0
 11
-1.0
 21
-0.1666666666666667
 31
0.0
  0
LINE
  5
4C
330
49
100
AcDbEntity
  8
0
100
AcDbLine
 10
-1.0
 20
0.1666666666666667
 30
0.0
 11
-1.0
 21
-0.1666666666666667
 31
0.0
  0
ENDBLK
  5
4E
330
49
100
AcDbEntity
  8
0
100
AcDbBlockEnd
  0
BLOCK
  5
55
330
4F
100
AcDbEntity
  8
0
100
AcDbBlockBegin
  2
_BOXBLANK
 70
     0
 71
     0
 10
0.0
 20
0.0
 30
0.0
  3
_BOXBLANK
  1

  0
LINE
  5
50
330
4F
100
AcDbEntity
  8
0
100
AcDbLine
 10
-0.5
 20
-0.5
 30
0.0
 11
0.5
 21
-0.5
 31
0.0
  0
LINE
  5
51
330
4F
100
AcDbEntity
  8
0
100
AcDbLine
 10
0.5
 20
-0.5
 30
0.0
 11
0.5
 21
0.5
 31
0.0
  0
LINE
  5
52
330
4F
100
AcDbEntity
  8
0
100
AcDbLine
 10
0.5
 20
0.5
 30
0.0
 11
-0.5
 21
0.5
 31
0.0
  0
LINE
  5
53
330
4F
100
AcDbEntity
  8
0
100
AcDbLine
 10
-0.5
 20
0.5
 30
0.0
 11
-0.5
 21
-0.5
 31
0.0
  0
LINE
  5
54
330
4F
100
AcDbEntity
  8
0
100
AcDbLine
 10
-0.5
 20
0.0
 30
0.0
 11
-1.0
 21
0.0
 31
0.0
  0
ENDBLK
  5
56
330
4F
100
AcDbEntity
  8
0
100
AcDbBlockEnd
  0
BLOCK
  5
5A
330
57
100
AcDbEntity
  8
0
100
AcDbBlockBegin
  2
_BOXFILLED
 70
     0
 71
     0
 10
0.0
 20
0.0
 30
0.0
  3
_BOXFILLED
  1

  0
SOLID
  5
58
330
57
100
AcDbEntity
  8
0
100
AcDbTrace
 10
-0.5
 20
0.5
 30
0.0
 11
0.5
 21
0.5
 31
0.0
 12
-0.5
 22
-0.5
 32
0.0
 13
0.5
 23
-0.5
 33
0.0
  0
LINE
  5
59
330
57
100
AcDbEntity
  8
0
100
AcDbLine
 10
-0.5
 20
0.0
 30
0.0
 11
-1.0
 21
0.0
 31
0.0
  0
ENDBLK
  5
5B
330
57
100
AcDbEntity
  8
0
100
AcDbBlockEnd
  0
BLOCK
  5
5F
330
5C
100
AcDbEntity
  8
0
100
AcDbBlockBegin
  2
_INTEGRAL
 70
     0
 71
     0
 10
0.0
 20
0.0
 30
0.0
  3
_INTEGRAL
  1

  0
ARC
  5
5D
330
5C
100
AcDbEntity
  8
0
100
AcDbCircle
 10
0.444888
 20
-0.0913346
 30
0.0
 40
0.4541666
100
AcDbArc
 50
5844.169510334396
 51
9625.69095819783
  0
ARC
  5
5E
330
5C
100
AcDbEntity
  8
0
100
AcDbCircle
 10
-0.444888
 20
0.0913346
 30
0.0
 40
0.4541666
100
AcDbArc
 50
16157.40982268921
 51
19938.93127055265
  0
ENDBLK
  5
60
330
5C
100
AcDbEntity
  8
0
100
AcDbBlockEnd
  0
BLOCK
  5
63
330
61
100
AcDbEntity
  8
0
100
AcDbBlockBegin
  2
_OBLIQUE
 70
     0
 71
     0
 10
0.0
 20
0.0
 30
0.0
  3
_OBLIQUE
  1

  0
LINE
  5
62
330
61
100
AcDbEntity
  8
0
100
AcDbLine
 10
-0.5
 20
-0.5
 30
0.0
 11
0.5
 21
0.5
 31
0.0
  0
ENDBLK
  5
64
330
61
100
AcDbEntity
  8
0
100
AcDbBlockEnd
  0
BLOCK
  5
66
330
65
100
AcDbEntity
  8
0
100
AcDbBlockBegin
  2
_NONE
 70
     0
 71
     0
 10
0.0
 20
0.0
 30
0.0
  3
_NONE
  1

  0
ENDBLK
  5
67
330
65
100
AcDbEntity
  8
0
100
AcDbBlockEnd
  0
BLOCK
  5
222
330
221
100
AcDbEntity
  8
0
100
AcDbBlockBegin
  2
*G12
 70
     1
 71
     0
 10
0.0
 20
0.0
 30
0.0
  3
*G12
  1

  0
LINE
  5
224
330
221
100
AcDbEntity
  8
129
  6
Continuous
 62
     7
370
    15
100
AcDbLine
 10
219.5927359829961
 20
172.329052215
 30
0.0
 11
218.0927359829961
 21
172.730976
 31
0.0
  0
LINE
  5
225
330
221
100
AcDbEntity
  8
129
  6
Continuous
 62
     7
370
    15
100
AcDbLine
 10
218.0927359829961
 20
172.730976
 30
0.0
 11
219.5927359829961
 21
173.132899785
 31
0.0
  0
LINE
  5
226
330
221
100
AcDbEntity
  8
129
  6
Continuous
 62
     7
370
    15
100
AcDbLine
 10
218.0927359829961
 20
172.730976
 30
0.0
 11
219.5927359829961
 21
172.730976
 31
0.0
  0
ENDBLK
  5
223
330
221
100
AcDbEntity
  8
0
100
AcDbBlockEnd
  0
BLOCK
  5
229
330
228
100
AcDbEntity
  8
0
100
AcDbBlockBegin
  2
*G13
 70
     1
 71
     0
 10
0.0
 20
0.0
 30
0.0
  3
*G13
  1

  0
LINE
  5
22B
330
228
100
AcDbEntity
  8
129
  6
Continuous
 62
     7
370
    15
100
AcDbLine
 10
225.926068982996
 20
173.132899785
 30
0.0
 11
227.426068982996
 21
172.730976
 31
0.0
  0
LINE
  5
22C
330
228
100
AcDbEntity
  8
129
  6
Continuous
 62
     7
370
    15
100
AcDbLine
 10
227.426068982996
 20
172.730976
 30
0.0
 11
225.926068982996
 21
172.329052215
 31
0.0
  0
LINE
  5
22D
330
228
100
AcDbEntity
  8
129
  6
Continuous
 62
     7
370
    15
100
AcDbLine
 10
227.426068982996
 20
172.730976
 30
0.0
 11
225.926068982996
 21
172.730976
 31
0.0
  0
ENDBLK
  5
22A
330
228
100
AcDbEntity
  8
0
100
AcDbBlockEnd
  0
BLOCK
  5
248
330
247
100
AcDbEntity
  8
0
100
AcDbBlockBegin
  2
*G14
 70
     1
 71
     0
 10
0.0
 20
0.0
 30
0.0
  3
*G14
  1

  0
LINE
  5
24A
330
247
100
AcDbEntity
  8
129
  6
Continuous
 62
     7
370
    15
100
AcDbLine
 10
106.1381122850001
 20
43.30705095585188
 30
0.0
 11
105.7361885000001
 21
41.80705095585188
 31
0.0
  0
LINE
  5
24B
330
247
100
AcDbEntity
  8
129
  6
Continuous
 62
     7
370
    15
100
AcDbLine
 10
105.7361885000001
 20
41.80705095585188
 30
0.0
 11
105.3342647150001
 21
43.30705095585188
 31
0.0
  0
LINE
  5
24C
330
247
100
AcDbEntity
  8
129
  6
Continuous
 62
     7
370
    15
100
AcDbLine
 10
105.7361885000001
 20
41.80705095585188
 30
0.0
 11
105.7361885000001
 21
43.30705095585188
 31
0.0
  0
ENDBLK
  5
249
330
247
100
AcDbEntity
  8
0
100
AcDbBlockEnd
  0
BLOCK
  5
250
330
24F
100
AcDbEntity
  8
0
100
AcDbBlockBegin
  2
*G15
 70
     1
 71
     0
 10
0.0
 20
0.0
 30
0.0
  3
*G15
  1

  0
LINE
  5
252
330
24F
100
AcDbEntity
  8
129
  6
Continuous
 62
     7
370
    15
100
AcDbLine
 10
105.3342647150001
 20
83.64038495585191
 30
0.0
 11
105.7361885000001
 21
85.14038495585191
 31
0.0
  0
LINE
  5
253
330
24F
100
AcDbEntity
  8
129
  6
Continuous
 62
     7
370
    15
100
AcDbLine
 10
105.7361885000001
 20
85.14038495585191
 30
0.0
 11
106.1381122850001
 21
83.64038495585191
 31
0.0
  0
LINE
  5
254
330
24F
100
AcDbEntity
  8
129
  6
Continuous
 62
     7
370
    15
100
AcDbLine
 10
105.7361885000001
 20
85.14038495585191
 30
0.0
 11
105.7361885000001
 21
83.64038495585191
 31
0.0
  0
ENDBLK
  5
251
330
24F
100
AcDbEntity
  8
0
100
AcDbBlockEnd
  0
BLOCK
  5
274
330
273
100
AcDbEntity
  8
0
100
AcDbBlockBegin
  2
*G16
 70
     1
 71
     0
 10
0.0
 20
0.0
 30
0.0
  3
*G16
  1

  0
LINE
  5
276
330
273
100
AcDbEntity
  8
129
  6
Continuous
 62
     7
370
    15
100
AcDbLine
 10
87.29489150000009
 20
180.1111297850001
 30
0.0
 11
88.79489150000009
 21
179.7092060000001
 31
0.0
  0
LINE
  5
277
330
273
100
AcDbEntity
  8
129
  6
Continuous
 62
     7
370
    15
100
AcDbLine
 10
88.79489150000009
 20
179.7092060000001
 30
0.0
 11
87.29489150000009
 21
179.307282215
 31
0.0
  0
LINE
  5
278
330
273
100
AcDbEntity
  8
129
  6
Continuous
 62
     7
370
    15
100
AcDbLine
 10
88.79489150000009
 20
179.7092060000001
 30
0.0
 11
87.29489150000009
 21
179.7092060000001
 31
0.0
  0
ENDBLK
  5
275
330
273
100
AcDbEntity
  8
0
100
AcDbBlockEnd
  0
BLOCK
  5
27F
330
27E
100
AcDbEntity
  8
0
100
AcDbBlockBegin
  2
*G17
 70
     1
 71
     0
 10
0.0
 20
0.0
 30
0.0
  3
*G17
  1

  0
LINE
  5
281
330
27E
100
AcDbEntity
  8
129
  6
Continuous
 62
     7
370
    15
100
AcDbLine
 10
47.22822550000009
 20
179.307282215
 30
0.0
 11
45.72822550000009
 21
179.7092060000001
 31
0.0
  0
LINE
  5
282
330
27E
100
AcDbEntity
  8
129
  6
Continuous
 62
     7
370
    15
100
AcDbLine
 10
45.72822550000009
 20
179.7092060000001
 30
0.0
 11
47.22822550000009
 21
180.1111297850001
 31
0.0
  0
LINE
  5
283
330
27E
100
AcDbEntity
  8
129
  6
Continuous
 62
     7
370
    15
100
AcDbLine
 10
45.72822550000009
 20
179.7092060000001
 30
0.0
 11
47.22822550000009
 21
179.7092060000001
 31
0.0
  0
ENDBLK
  5
280
330
27E
100
AcDbEntity
  8
0
100
AcDbBlockEnd
  0
ENDSEC
  0
SECTION
  2
ENTITIES
  0
LINE
  5
97
330
1F
100
AcDbEntity
  8
138
  6
Continuous
 62
     7
370
    15
100
AcDbLine
 10
158.5361880000001
 20
41.80705095585188
 30
0.0
 11
158.5361880000001
 21
85.14038495585191
 31
0.0
  0
LINE
  5
98
330
1F
100
AcDbEntity
  8
138
  6
Continuous
 62
     7
370
    15
100
AcDbLine
 10
157.8695220000001
 20
41.80705095585188
 30
0.0
 11
158.5361880000001
 21
41.80705095585188
 31
0.0
  0
LINE
  5
99
330
1F
100
AcDbEntity
  8
138
  6
Continuous
 62
     7
370
    15
100
AcDbLine
 10
218.092735982996
 20
140.727148
 30
0.0
 11
218.092735982996
 21
162.2092060000001
 31
0.0
  0
LINE
  5
9A
330
1F
100
AcDbEntity
  8
138
  6
Continuous
 62
     7
370
    15
100
AcDbLine
 10
225.759401982996
 20
135.0662290000001
 30
0.0
 11
225.759401982996
 21
159.375873
 31
0.0
  0
LINE
  5
9B
330
1F
100
AcDbEntity
  8
138
  6
Continuous
 62
     7
370
    15
100
AcDbLine
 10
219.759401982996
 20
140.727148
 30
0.0
 11
219.759401982996
 21
159.375873
 31
0.0
  0
LINE
  5
9C
330
1F
100
AcDbEntity
  8
138
  6
Continuous
 62
     7
370
    15
100
AcDbLine
 10
221.426068982996
 20
161.0425400000001
 30
0.0
 11
224.092735982996
 21
161.0425400000001
 31
0.0
  0
ARC
  5
9D
330
1F
100
AcDbEntity
  8
138
  6
Continuous
 62
     7
370
    15
100
AcDbCircle
 10
224.092735982996
 20
159.375873
 30
0.0
 40
1.66666699999999
100
AcDbArc
 50
0.0
 51
89.99999999999991
  0
ARC
  5
9E
330
1F
100
AcDbEntity
  8
138
  6
Continuous
 62
     7
370
    15
100
AcDbCircle
 10
221.426068982996
 20
159.375873
 30
0.0
 40
1.66666699999999
100
AcDbArc
 50
89.99999999999991
 51
179.9999999999998
  0
CIRCLE
  5
9F
330
1F
100
AcDbEntity
  8
138
  6
HIDDEN
 62
     7
370
    15
100
AcDbCircle
 10
220.592735982996
 20
162.2092060000001
 30
0.0
 40
0.8333330000000103
  0
ARC
  5
A0
330
1F
100
AcDbEntity
  8
138
  6
Continuous
 62
     7
370
    15
100
AcDbCircle
 10
220.592735982996
 20
162.2092060000001
 30
0.0
 40
2.5
100
AcDbArc
 50
89.99999999999991
 51
179.9999999999998
  0
LINE
  5
A1
330
1F
100
AcDbEntity
  8
138
  6
Continuous
 62
     7
370
    15
100
AcDbLine
 10
184.693986982996
 20
124.3955474446922
 30
0.0
 11
203.512977982996
 21
116.2128174446922
 31
0.0
  0
ARC
  5
A2
330
1F
100
AcDbEntity
  8
138
  6
Continuous
 62
     7
370
    15
100
AcDbCircle
 10
205.905472982996
 20
121.7151774446922
 30
0.0
 40
6.0
100
AcDbArc
 50
246.4999999999997
 51
314.9999999999997
  0
LINE
  5
A3
330
1F
100
AcDbEntity
  8
138
  6
Continuous
 62
     7
370
    15
100
AcDbLine
 10
208.969601982996
 20
118.6510484446922
 30
0.0
 11
225.759401982996
 21
135.0662290000001
 31
0.0
  0
LINE
  5
A4
330
1F
100
AcDbEntity
  8
138
  6
Continuous
 62
     7
370
    15
100
AcDbLine
 10
207.282011982996
 20
127.8057624446922
 30
0.0
 11
216.335375982996
 21
136.4845070000001
 31
0.0
  0
LINE
  5
A5
330
1F
100
AcDbEntity
  8
138
  6
Continuous
 62
     7
370
    15
100
AcDbLine
 10
208.460523982996
 20
126.6272514446922
 30
0.0
 11
217.513887982996
 21
135.3059960000001
 31
0.0
  0
ARC
  5
A6
330
1F
100
AcDbEntity
  8
138
  6
Continuous
 62
     7
370
    15
100
AcDbCircle
 10
212.092735982996
 20
140.727148
 30
0.0
 40
6.0
100
AcDbArc
 50
314.9999999999997
 51
0.0
  0
ARC
  5
A7
330
1F
100
AcDbEntity
  8
138
  6
Continuous
 62
     7
370
    15
100
AcDbCircle
 10
212.092735982996
 20
140.727148
 30
0.0
 40
7.66666699999999
100
AcDbArc
 50
314.9999999999997
 51
0.0
  0
LINE
  5
A8
330
1F
100
AcDbEntity
  8
138
  6
Continuous
 62
     7
370
    15
100
AcDbLine
 10
186.121253982996
 20
125.5923564446922
 30
0.0
 11
204.177559982996
 21
117.7412504446922
 31
0.0
  0
ARC
  5
A9
330
1F
100
AcDbEntity
  8
138
  6
Continuous
 62
     7
370
    15
100
AcDbCircle
 10
205.905472982996
 20
121.7151774446922
 30
0.0
 40
4.33333300000001
100
AcDbArc
 50
246.4999999999997
 51
314.9999999999997
  0
LINE
  5
AA
330
1F
100
AcDbEntity
  8
138
  6
Continuous
 62
     7
370
    15
100
AcDbLine
 10
197.382873982996
 20
127.9652714446922
 30
0.0
 11
200.646876982996
 21
126.5460424446922
 31
0.0
  0
LINE
  5
AB
330
1F
100
AcDbEntity
  8
138
  6
Continuous
 62
     7
370
    15
100
AcDbLine
 10
196.718292982996
 20
126.4368384446922
 30
0.0
 11
199.982295982996
 21
125.0176094446922
 31
0.0
  0
ARC
  5
AC
330
1F
100
AcDbEntity
  8
138
  6
Continuous
 62
     7
370
    15
100
AcDbCircle
 10
203.039371982996
 20
132.0484034446922
 30
0.0
 40
6.0
100
AcDbArc
 50
246.4999999999997
 51
314.9999999999997
  0
ARC
  5
AD
330
1F
100
AcDbEntity
  8
138
  6
Continuous
 62
     7
370
    15
100
AcDbCircle
 10
203.039371982996
 20
132.0484034446922
 30
0.0
 40
7.66666699999999
100
AcDbArc
 50
246.4999999999996
 51
314.9999999999997
  0
LINE
  5
AE
330
1F
100
AcDbEntity
  8
138
  6
Continuous
 62
     7
370
    15
100
AcDbLine
 10
184.953562982996
 20
127.1112934446922
 30
0.0
 11
194.155340982996
 21
128.4045194446922
 31
0.0
  0
ARC
  5
AF
330
1F
100
AcDbEntity
  8
138
  6
Continuous
 62
     7
370
    15
100
AcDbCircle
 10
194.990379982996
 20
122.4629114446922
 30
0.0
 40
6.0
100
AcDbArc
 50
66.50000000000003
 51
97.99999999999996
  0
ARC
  5
B0
330
1F
100
AcDbEntity
  8
138
  6
Continuous
 62
     7
370
    15
100
AcDbCircle
 10
185.092735982996
 20
126.1210254446922
 30
0.0
 40
1.0
100
AcDbArc
 50
98.00000000000077
 51
179.9999999999998
  0
ARC
  5
B1
330
1F
100
AcDbEntity
  8
138
  6
Continuous
 62
     7
370
    15
100
AcDbCircle
 10
185.092735982996
 20
125.3126074446922
 30
0.0
 40
1.0
100
AcDbArc
 50
179.9999999999998
 51
246.4999999999998
  0
LINE
  5
B2
330
1F
100
AcDbEntity
  8
138
  6
Continuous
 62
     7
370
    15
100
AcDbLine
 10
184.092735982996
 20
125.3126074446922
 30
0.0
 11
184.092735982996
 21
126.1210254446922
 31
0.0
  0
LINE
  5
B3
330
1F
100
AcDbEntity
  8
138
  6
Continuous
 62
     7
370
    15
100
AcDbLine
 10
220.592735982996
 20
164.7092060000001
 30
0.0
 11
227.426068982996
 21
164.7092060000001
 31
0.0
  0
LINE
  5
B4
330
1F
100
AcDbEntity
  8
138
  6
Continuous
 62
     7
370
    15
100
AcDbLine
 10
186.121253982996
 20
125.5923564446922
 30
0.0
 11
194.387296982996
 21
126.7540724446922
 31
0.0
  0
ARC
  5
B5
330
1F
100
AcDbEntity
  8
138
  6
Continuous
 62
     7
370
    15
100
AcDbCircle
 10
194.990379982996
 20
122.4629114446922
 30
0.0
 40
4.33333300000001
100
AcDbArc
 50
66.50000000000007
 51
98.00000000000003
  0
LINE
  5
B6
330
1F
100
AcDbEntity
  8
138
  6
Continuous
 62
     7
370
    15
100
AcDbLine
 10
116.0028550000001
 20
41.80705095585188
 30
0.0
 11
116.0028550000001
 21
85.14038495585191
 31
0.0
  0
LINE
  5
B7
330
1F
100
AcDbEntity
  8
138
  6
Continuous
 62
     7
370
    15
100
AcDbLine
 10
157.8695220000001
 20
41.80705095585188
 30
0.0
 11
157.8695220000001
 21
85.14038495585191
 31
0.0
  0
LINE
  5
B8
330
1F
100
AcDbEntity
  8
138
  6
Continuous
 62
     7
370
    15
100
AcDbLine
 10
137.2695220000001
 20
82.80705095585193
 30
0.0
 11
158.5361880000001
 21
82.80705095585193
 31
0.0
  0
LINE
  5
B9
330
1F
100
AcDbEntity
  8
138
  6
Continuous
 62
     7
370
    15
100
AcDbLine
 10
137.2695220000001
 20
82.80705095585193
 30
0.0
 11
116.6695220000001
 21
82.80705095585193
 31
0.0
  0
LINE
  5
BA
330
1F
100
AcDbEntity
  8
138
  6
Continuous
 62
     7
370
    15
100
AcDbLine
 10
116.6695220000001
 20
47.58705095585191
 30
0.0
 11
117.2695220000001
 21
47.58705095585191
 31
0.0
  0
LINE
  5
BB
330
1F
100
AcDbEntity
  8
138
  6
Continuous
 62
     7
370
    15
100
AcDbLine
 10
116.6695220000001
 20
42.14038495585191
 30
0.0
 11
117.6028560000001
 21
42.14038495585191
 31
0.0
  0
LINE
  5
BC
330
1F
100
AcDbEntity
  8
138
  6
Continuous
 62
     7
370
    15
100
AcDbLine
 10
117.6028560000001
 20
42.14038495585191
 30
0.0
 11
117.7783100000001
 21
42.6082619558519
 31
0.0
  0
LINE
  5
BD
330
1F
100
AcDbEntity
  8
138
  6
Continuous
 62
     7
370
    15
100
AcDbLine
 10
116.6695220000001
 20
45.25371795585193
 30
0.0
 11
117.2695220000001
 21
45.25371795585193
 31
0.0
  0
LINE
  5
BE
330
1F
100
AcDbEntity
  8
138
  6
Continuous
 62
     7
370
    15
100
AcDbLine
 10
116.6695220000001
 20
41.80705095585188
 30
0.0
 11
116.6695220000001
 21
82.80705095585193
 31
0.0
  0
LINE
  5
BF
330
1F
100
AcDbEntity
  8
138
  6
Continuous
 62
     7
370
    15
100
AcDbLine
 10
115.7361880000001
 20
44.26511295585192
 30
0.0
 11
115.7361880000001
 21
83.4737179558519
 31
0.0
  0
LINE
  5
C0
330
1F
100
AcDbEntity
  8
138
  6
Continuous
 62
     7
370
    15
100
AcDbLine
 10
115.7361880000001
 20
44.26511295585192
 30
0.0
 11
116.0028550000001
 21
44.26511295585192
 31
0.0
  0
LINE
  5
C1
330
1F
100
AcDbEntity
  8
138
  6
Continuous
 62
     7
370
    15
100
AcDbLine
 10
115.7361880000001
 20
83.4737179558519
 30
0.0
 11
116.0028550000001
 21
83.4737179558519
 31
0.0
  0
LINE
  5
C2
330
1F
100
AcDbEntity
  8
138
  6
Continuous
 62
     7
370
    15
100
AcDbLine
 10
158.8028550000001
 20
83.4737179558519
 30
0.0
 11
158.5361880000001
 21
83.4737179558519
 31
0.0
  0
LINE
  5
C3
330
1F
100
AcDbEntity
  8
138
  6
Continuous
 62
     7
370
    15
100
AcDbLine
 10
158.8028550000001
 20
44.26511295585192
 30
0.0
 11
158.8028550000001
 21
83.4737179558519
 31
0.0
  0
LINE
  5
C4
330
1F
100
AcDbEntity
  8
138
  6
Continuous
 62
     7
370
    15
100
AcDbLine
 10
158.8028550000001
 20
44.26511295585192
 30
0.0
 11
158.5361880000001
 21
44.26511295585192
 31
0.0
  0
LINE
  5
C5
330
1F
100
AcDbEntity
  8
138
  6
Continuous
 62
     7
370
    15
100
AcDbLine
 10
116.0028550000001
 20
85.14038495585191
 30
0.0
 11
137.2695220000001
 21
85.14038495585191
 31
0.0
  0
LINE
  5
C6
330
1F
100
AcDbEntity
  8
138
  6
Continuous
 62
     7
370
    15
100
AcDbLine
 10
116.0028550000001
 20
41.80705095585188
 30
0.0
 11
116.6695220000001
 21
41.80705095585188
 31
0.0
  0
LINE
  5
C7
330
1F
100
AcDbEntity
  8
138
  6
Continuous
 62
     7
370
    15
100
AcDbLine
 10
117.1028550000001
 20
161.226379
 30
0.0
 11
117.1028550000001
 21
162.393046
 31
0.0
  0
LINE
  5
C8
330
1F
100
AcDbEntity
  8
138
  6
Continuous
 62
     7
370
    15
100
AcDbLine
 10
116.6695220000001
 20
161.959713
 30
0.0
 11
117.1028550000001
 21
161.959713
 31
0.0
  0
LINE
  5
C9
330
1F
100
AcDbEntity
  8
138
  6
Continuous
 62
     7
370
    15
100
AcDbLine
 10
116.6695220000001
 20
160.493046
 30
0.0
 11
117.1028550000001
 21
160.493046
 31
0.0
  0
ARC
  5
CA
330
1F
100
AcDbEntity
  8
138
  6
Continuous
 62
     7
370
    15
100
AcDbCircle
 10
117.2695220000001
 20
162.393046
 30
0.0
 40
0.1666670000000039
100
AcDbArc
 50
89.99999999999991
 51
179.9999999999998
  0
ARC
  5
CB
330
1F
100
AcDbEntity
  8
138
  6
Continuous
 62
     7
370
    15
100
AcDbCircle
 10
117.2695220000001
 20
160.059713
 30
0.0
 40
0.1666670000000039
100
AcDbArc
 50
179.9999999999998
 51
269.9999999999998
  0
LINE
  5
CC
330
1F
100
AcDbEntity
  8
138
  6
Continuous
 62
     7
370
    15
100
AcDbLine
 10
117.1028550000001
 20
161.226379
 30
0.0
 11
117.1028550000001
 21
160.059713
 31
0.0
  0
LINE
  5
CD
330
1F
100
AcDbEntity
  8
138
  6
Continuous
 62
     7
370
    15
100
AcDbLine
 10
117.2695220000001
 20
43.80705095585188
 30
0.0
 11
117.2695220000001
 21
81.9737179558519
 31
0.0
  0
LINE
  5
CE
330
1F
100
AcDbEntity
  8
138
  6
Continuous
 62
     7
370
    15
100
AcDbLine
 10
157.2695220000001
 20
43.80705095585188
 30
0.0
 11
157.2695220000001
 21
81.9737179558519
 31
0.0
  0
LINE
  5
CF
330
1F
100
AcDbEntity
  8
138
  6
Continuous
 62
     7
370
    15
100
AcDbLine
 10
117.7695220000001
 20
82.4737179558519
 30
0.0
 11
156.7695220000001
 21
82.4737179558519
 31
0.0
  0
LINE
  5
D0
330
1F
100
AcDbEntity
  8
138
  6
Continuous
 62
     7
370
    15
100
AcDbLine
 10
118.9361880000001
 20
42.14038495585191
 30
0.0
 11
155.6028550000001
 21
42.14038495585191
 31
0.0
  0
ARC
  5
D1
330
1F
100
AcDbEntity
  8
138
  6
Continuous
 62
     7
370
    15
100
AcDbCircle
 10
118.9361880000001
 20
43.80705095585188
 30
0.0
 40
1.666667000000004
100
AcDbArc
 50
179.9999999999998
 51
269.9999999999998
  0
ARC
  5
D2
330
1F
100
AcDbEntity
  8
138
  6
Continuous
 62
     7
370
    15
100
AcDbCircle
 10
155.6028550000001
 20
43.80705095585188
 30
0.0
 40
1.66666699999999
100
AcDbArc
 50
269.9999999999998
 51
0.0
  0
ARC
  5
D3
330
1F
100
AcDbEntity
  8
138
  6
Continuous
 62
     7
370
    15
100
AcDbCircle
 10
117.7695220000001
 20
81.9737179558519
 30
0.0
 40
0.5
100
AcDbArc
 50
89.99999999999991
 51
138.1896849999993
  0
ARC
  5
D4
330
1F
100
AcDbEntity
  8
138
  6
Continuous
 62
     7
370
    15
100
AcDbCircle
 10
156.7695220000001
 20
81.9737179558519
 30
0.0
 40
0.5
100
AcDbArc
 50
0.0
 51
41.81031499999958
  0
LINE
  5
D5
330
1F
100
AcDbEntity
  8
138
  6
Continuous
 62
     7
370
    15
100
AcDbLine
 10
157.4361880000001
 20
80.14038495585191
 30
0.0
 11
157.4361880000001
 21
81.30705095585193
 31
0.0
  0
LINE
  5
D6
330
1F
100
AcDbEntity
  8
138
  6
Continuous
 62
     7
370
    15
100
AcDbLine
 10
157.8695220000001
 20
80.87371795585187
 30
0.0
 11
157.4361880000001
 21
80.87371795585187
 31
0.0
  0
LINE
  5
D7
330
1F
100
AcDbEntity
  8
138
  6
Continuous
 62
     7
370
    15
100
AcDbLine
 10
157.8695220000001
 20
79.4070509558519
 30
0.0
 11
157.4361880000001
 21
79.4070509558519
 31
0.0
  0
ARC
  5
D8
330
1F
100
AcDbEntity
  8
138
  6
Continuous
 62
     7
370
    15
100
AcDbCircle
 10
157.2695220000001
 20
81.30705095585193
 30
0.0
 40
0.1666669999999897
100
AcDbArc
 50
0.0
 51
89.99999999999991
  0
ARC
  5
D9
330
1F
100
AcDbEntity
  8
138
  6
Continuous
 62
     7
370
    15
100
AcDbCircle
 10
157.2695220000001
 20
78.9737179558519
 30
0.0
 40
0.1666669999999897
100
AcDbArc
 50
269.9999999999998
 51
0.0
  0
LINE
  5
DA
330
1F
100
AcDbEntity
  8
138
  6
Continuous
 62
     7
370
    15
100
AcDbLine
 10
157.4361880000001
 20
80.14038495585191
 30
0.0
 11
157.4361880000001
 21
78.9737179558519
 31
0.0
  0
LINE
  5
DB
330
1F
100
AcDbEntity
  8
138
  6
Continuous
 62
     7
370
    15
100
AcDbLine
 10
117.1028550000001
 20
80.14038495585191
 30
0.0
 11
117.1028550000001
 21
81.30705095585193
 31
0.0
  0
LINE
  5
DC
330
1F
100
AcDbEntity
  8
138
  6
Continuous
 62
     7
370
    15
100
AcDbLine
 10
116.6695220000001
 20
80.87371795585187
 30
0.0
 11
117.1028550000001
 21
80.87371795585187
 31
0.0
  0
LINE
  5
DD
330
1F
100
AcDbEntity
  8
138
  6
Continuous
 62
     7
370
    15
100
AcDbLine
 10
116.6695220000001
 20
79.4070509558519
 30
0.0
 11
117.1028550000001
 21
79.4070509558519
 31
0.0
  0
ARC
  5
DE
330
1F
100
AcDbEntity
  8
138
  6
Continuous
 62
     7
370
    15
100
AcDbCircle
 10
117.2695220000001
 20
81.30705095585193
 30
0.0
 40
0.1666670000000039
100
AcDbArc
 50
89.99999999999991
 51
179.9999999999998
  0
ARC
  5
DF
330
1F
100
AcDbEntity
  8
138
  6
Continuous
 62
     7
370
    15
100
AcDbCircle
 10
117.2695220000001
 20
78.9737179558519
 30
0.0
 40
0.1666670000000039
100
AcDbArc
 50
179.9999999999998
 51
269.9999999999998
  0
LINE
  5
E0
330
1F
100
AcDbEntity
  8
138
  6
Continuous
 62
     7
370
    15
100
AcDbLine
 10
117.1028550000001
 20
80.14038495585191
 30
0.0
 11
117.1028550000001
 21
78.9737179558519
 31
0.0
  0
CIRCLE
  5
E1
330
1F
100
AcDbEntity
  8
138
  6
HIDDEN
 62
     7
370
    15
100
AcDbCircle
 10
220.592735982996
 20
162.2092060000001
 30
0.0
 40
1.33333300000001
  0
LINE
  5
E2
330
1F
100
AcDbEntity
  8
138
  6
Continuous
 62
     7
370
    15
100
AcDbLine
 10
222.926068982996
 20
161.0425400000001
 30
0.0
 11
223.085143982996
 21
161.0425400000001
 31
0.0
  0
LINE
  5
E3
330
1F
100
AcDbEntity
  8
138
  6
Continuous
 62
     7
370
    15
100
AcDbLine
 10
183.810219982996
 20
139.876855
 30
0.0
 11
183.832669982996
 21
138.5907240000001
 31
0.0
  0
LINE
  5
E4
330
1F
100
AcDbEntity
  8
138
  6
Continuous
 62
     7
370
    15
100
AcDbLine
 10
209.402513982996
 20
160.513652
 30
0.0
 11
203.439259982996
 21
160.409563
 31
0.0
  0
LINE
  5
E5
330
1F
100
AcDbEntity
  8
138
  6
Continuous
 62
     7
370
    15
100
AcDbLine
 10
183.832669982996
 20
138.5907240000001
 30
0.0
 11
184.136481982996
 21
138.596027
 31
0.0
  0
LINE
  5
E6
330
1F
100
AcDbEntity
  8
138
  6
Continuous
 62
     7
370
    15
100
AcDbLine
 10
183.810219982996
 20
139.876855
 30
0.0
 11
185.609609982996
 21
146.152073
 31
0.0
  0
ARC
  5
E7
330
1F
100
AcDbEntity
  8
138
  6
Continuous
 62
     7
370
    15
100
AcDbCircle
 10
211.243254982996
 20
138.801744
 30
0.0
 40
26.66666699999999
100
AcDbArc
 50
115.753332
 51
164.0
  0
ARC
  5
E8
330
1F
100
AcDbEntity
  8
138
  6
Continuous
 62
     7
370
    15
100
AcDbCircle
 10
203.711962982996
 20
154.4134090000001
 30
0.0
 40
9.33333300000001
100
AcDbArc
 50
91.00000000000004
 51
115.753332
  0
LINE
  5
E9
330
1F
100
AcDbEntity
  8
138
  6
Continuous
 62
     7
370
    15
100
AcDbLine
 10
203.560708982996
 20
163.0787560000001
 30
0.0
 11
218.361627982996
 21
163.3371070000001
 31
0.0
  0
ARC
  5
EA
330
1F
100
AcDbEntity
  8
138
  6
Continuous
 62
     7
370
    15
100
AcDbCircle
 10
211.243254982996
 20
138.801744
 30
0.0
 40
26.0
100
AcDbArc
 50
115.753332
 51
164.0
  0
ARC
  5
EB
330
1F
100
AcDbEntity
  8
138
  6
Continuous
 62
     7
370
    15
100
AcDbCircle
 10
203.711962982996
 20
154.4134090000001
 30
0.0
 40
8.66666699999999
100
AcDbArc
 50
91.0000000000001
 51
115.753332
  0
LINE
  5
EC
330
1F
100
AcDbEntity
  8
138
  6
Continuous
 62
     7
370
    15
100
AcDbLine
 10
184.136481982996
 20
138.596027
 30
0.0
 11
186.250450982996
 21
145.968315
 31
0.0
  0
LINE
  5
ED
330
1F
100
AcDbEntity
  8
138
  6
Continuous
 62
     7
370
    15
100
AcDbLine
 10
203.549073982996
 20
163.745321
 30
0.0
 11
218.861324982996
 21
164.012597
 31
0.0
  0
CIRCLE
  5
EE
330
1F
100
AcDbEntity
  8
138
  6
Continuous
 62
     7
370
    15
100
AcDbCircle
 10
220.592735982996
 20
162.2092060000001
 30
0.0
 40
0.8000000000000114
  0
CIRCLE
  5
EF
330
1F
100
AcDbEntity
  8
138
  6
HIDDEN
 62
     7
370
    15
100
AcDbCircle
 10
220.592735982996
 20
162.2092060000001
 30
0.0
 40
1.33333300000001
  0
ARC
  5
F0
330
1F
100
AcDbEntity
  8
138
  6
HIDDEN
 62
     7
370
    15
100
AcDbCircle
 10
221.592582982996
 20
162.226659
 30
0.0
 40
1.83333300000001
100
AcDbArc
 50
0.9999999999999879
 51
91.0
  0
ARC
  5
F1
330
1F
100
AcDbEntity
  8
138
  6
HIDDEN
 62
     7
370
    15
100
AcDbCircle
 10
221.592582982996
 20
162.226659
 30
0.0
 40
1.16666699999999
100
AcDbArc
 50
1.000000000000387
 51
91.0000000000004
  0
ARC
  5
F2
330
1F
100
AcDbEntity
  8
138
  6
HIDDEN
 62
     7
370
    15
100
AcDbCircle
 10
221.259300982996
 20
162.2208410000001
 30
0.0
 40
2.16666699999999
100
AcDbArc
 50
270.9999999999999
 51
1.000000000000283
  0
LINE
  5
F3
330
1F
100
AcDbEntity
  8
138
  6
HIDDEN
 62
     7
370
    15
100
AcDbLine
 10
222.759071982996
 20
162.2470200000001
 30
0.0
 11
222.776524982996
 21
161.247172
 31
0.0
  0
ARC
  5
F4
330
1F
100
AcDbEntity
  8
138
  6
HIDDEN
 62
     7
370
    15
100
AcDbCircle
 10
220.581100982996
 20
162.875771
 30
0.0
 40
2.83333300000001
100
AcDbArc
 50
247.1906239999996
 51
270.9999999999997
  0
ARC
  5
F5
330
1F
100
AcDbEntity
  8
138
  6
HIDDEN
 62
     7
370
    15
100
AcDbCircle
 10
217.544379982996
 20
155.655007
 30
0.0
 40
5.0
100
AcDbArc
 50
67.19062399999991
 51
83.703645
  0
ARC
  5
F6
330
1F
100
AcDbEntity
  8
138
  6
Continuous
 62
     7
370
    15
100
AcDbCircle
 10
211.708951982996
 20
134.312371
 30
0.0
 40
27.693333
100
AcDbArc
 50
112.109748
 51
155.306709
  0
ARC
  5
F7
330
1F
100
AcDbEntity
  8
138
  6
Continuous
 62
     7
370
    15
100
AcDbCircle
 10
203.543973982996
 20
154.4104770000001
 30
0.0
 40
6.0
100
AcDbArc
 50
90.99999999999987
 51
112.1097479999999
  0
LINE
  5
F8
330
1F
100
AcDbEntity
  8
138
  6
HIDDEN
 62
     7
370
    15
100
AcDbLine
 10
222.946074982996
 20
161.0834400000001
 30
0.0
 11
223.105125982996
 21
161.0862160000001
 31
0.0
  0
ARC
  5
F9
330
1F
100
AcDbEntity
  8
138
  6
HIDDEN
 62
     7
370
    15
100
AcDbCircle
 10
222.943165982996
 20
161.2500810000001
 30
0.0
 40
0.1666669999999897
100
AcDbArc
 50
181.0000000000016
 51
271.0000000000015
  0
LINE
  5
FA
330
1F
100
AcDbEntity
  8
138
  6
Continuous
 62
     7
370
    15
100
AcDbLine
 10
209.402513982996
 20
160.513652
 30
0.0
 11
217.457117982996
 21
160.654245
 31
0.0
  0
ARC
  5
FB
330
1F
100
AcDbEntity
  8
138
  6
Continuous
 62
     7
370
    15
100
AcDbCircle
 10
211.708951982996
 20
134.312371
 30
0.0
 40
27.693333
100
AcDbArc
 50
155.306709
 51
163.998278
  0
LINE
  5
FC
330
1F
100
AcDbEntity
  8
138
  6
HIDDEN
 62
     7
370
    15
100
AcDbLine
 10
218.361627982996
 20
163.3371070000001
 30
0.0
 11
219.926975982996
 21
163.36443
 31
0.0
  0
LINE
  5
FD
330
1F
100
AcDbEntity
  8
138
  6
HIDDEN
 62
     7
370
    15
100
AcDbLine
 10
218.861324982996
 20
164.012597
 30
0.0
 11
221.560586982996
 21
164.059713
 31
0.0
  0
ARC
  5
FE
330
1F
100
AcDbEntity
  8
138
  6
Continuous
 62
     7
370
    15
100
AcDbCircle
 10
217.544379982996
 20
155.655007
 30
0.0
 40
5.0
100
AcDbArc
 50
83.703645
 51
91.00000000000016
  0
ARC
  5
FF
330
1F
100
AcDbEntity
  8
137
  6
HIDDEN
 62
     3
370
    15
100
AcDbCircle
 10
205.274326982996
 20
141.796836
 30
0.0
 40
19.16666699999999
100
AcDbArc
 50
48.02652000000001
 51
77.56196300000005
  0
LINE
  5
100
330
1F
100
AcDbEntity
  8
138
  6
Continuous
 62
     7
370
    15
100
AcDbLine
 10
157.8695220000001
 20
42.14038495585191
 30
0.0
 11
156.9361880000001
 21
42.14038495585191
 31
0.0
  0
LINE
  5
101
330
1F
100
AcDbEntity
  8
138
  6
Continuous
 62
     7
370
    15
100
AcDbLine
 10
156.9361880000001
 20
42.14038495585191
 30
0.0
 11
156.7607330000001
 21
42.6082619558519
 31
0.0
  0
LINE
  5
102
330
1F
100
AcDbEntity
  8
138
  6
Continuous
 62
     7
370
    15
100
AcDbLine
 10
157.8695220000001
 20
45.25371795585193
 30
0.0
 11
157.2695220000001
 21
45.25371795585193
 31
0.0
  0
LINE
  5
103
330
1F
100
AcDbEntity
  8
138
  6
Continuous
 62
     7
370
    15
100
AcDbLine
 10
157.8695220000001
 20
47.58705095585191
 30
0.0
 11
157.2695220000001
 21
47.58705095585191
 31
0.0
  0
ARC
  5
104
330
1F
100
AcDbEntity
  8
138
  6
Continuous
 62
     7
370
    15
100
AcDbCircle
 10
156.7695220000001
 20
81.9737179558519
 30
0.0
 40
0.5
100
AcDbArc
 50
41.81031499999958
 51
89.99999999999991
  0
ARC
  5
105
330
1F
100
AcDbEntity
  8
138
  6
Continuous
 62
     7
370
    15
100
AcDbCircle
 10
117.7695220000001
 20
81.9737179558519
 30
0.0
 40
0.5
100
AcDbArc
 50
138.1896849999993
 51
179.9999999999998
  0
LINE
  5
106
330
1F
100
AcDbEntity
  8
138
  6
Continuous
 62
     7
370
    15
100
AcDbLine
 10
116.0028550000001
 20
115.7092060000001
 30
0.0
 11
116.0028550000001
 21
164.7092060000001
 31
0.0
  0
LINE
  5
107
330
1F
100
AcDbEntity
  8
138
  6
Continuous
 62
     7
370
    15
100
AcDbLine
 10
116.6695220000001
 20
115.7092060000001
 30
0.0
 11
116.6695220000001
 21
164.7092060000001
 31
0.0
  0
LINE
  5
108
330
1F
100
AcDbEntity
  8
138
  6
Continuous
 62
     7
370
    15
100
AcDbLine
 10
115.7361880000001
 20
117.0358650000001
 30
0.0
 11
115.7361880000001
 21
160.2998030000001
 31
0.0
  0
LINE
  5
109
330
1F
100
AcDbEntity
  8
138
  6
Continuous
 62
     7
370
    15
100
AcDbLine
 10
115.7361880000001
 20
160.2998030000001
 30
0.0
 11
116.0028550000001
 21
160.2998030000001
 31
0.0
  0
LINE
  5
10A
330
1F
100
AcDbEntity
  8
138
  6
Continuous
 62
     7
370
    15
100
AcDbLine
 10
117.2695220000001
 20
138.596027
 30
0.0
 11
117.2695220000001
 21
164.059713
 31
0.0
  0
LINE
  5
10B
330
1F
100
AcDbEntity
  8
138
  6
Continuous
 62
     7
370
    15
100
AcDbLine
 10
116.0028550000001
 20
128.086672
 30
0.0
 11
116.6695220000001
 21
128.086672
 31
0.0
  0
LINE
  5
10C
330
1F
100
AcDbEntity
  8
138
  6
Continuous
 62
     7
370
    15
100
AcDbLine
 10
116.0028550000001
 20
164.7092060000001
 30
0.0
 11
137.2695220000001
 21
164.7092060000001
 31
0.0
  0
LINE
  5
10D
330
1F
100
AcDbEntity
  8
138
  6
Continuous
 62
     7
370
    15
100
AcDbLine
 10
117.2695220000001
 20
164.059713
 30
0.0
 11
137.2695220000001
 21
164.059713
 31
0.0
  0
LINE
  5
10E
330
1F
100
AcDbEntity
  8
138
  6
Continuous
 62
     7
370
    15
100
AcDbLine
 10
116.0028550000001
 20
126.7366740000001
 30
0.0
 11
116.6695220000001
 21
126.7366740000001
 31
0.0
  0
LINE
  5
10F
330
1F
100
AcDbEntity
  8
138
  6
Continuous
 62
     7
370
    15
100
AcDbLine
 10
116.0028550000001
 20
124.020928
 30
0.0
 11
116.6695220000001
 21
124.020928
 31
0.0
  0
LINE
  5
110
330
1F
100
AcDbEntity
  8
138
  6
Continuous
 62
     7
370
    15
100
AcDbLine
 10
117.2695220000001
 20
138.596027
 30
0.0
 11
137.2695220000001
 21
138.596027
 31
0.0
  0
LINE
  5
111
330
1F
100
AcDbEntity
  8
138
  6
Continuous
 62
     7
370
    15
100
AcDbLine
 10
116.6695220000001
 20
118.70728
 30
0.0
 11
120.6695220000001
 21
118.70728
 31
0.0
  0
LINE
  5
112
330
1F
100
AcDbEntity
  8
138
  6
Continuous
 62
     7
370
    15
100
AcDbLine
 10
120.6695220000001
 20
118.70728
 30
0.0
 11
120.9861040000001
 21
118.390698
 31
0.0
  0
LINE
  5
113
330
1F
100
AcDbEntity
  8
138
  6
Continuous
 62
     7
370
    15
100
AcDbLine
 10
122.6360200000001
 20
117.70728
 30
0.0
 11
123.0028550000001
 21
117.70728
 31
0.0
  0
LINE
  5
114
330
1F
100
AcDbEntity
  8
138
  6
Continuous
 62
     7
370
    15
100
AcDbLine
 10
125.3361880000001
 20
118.70728
 30
0.0
 11
130.0028550000001
 21
118.70728
 31
0.0
  0
ARC
  5
115
330
1F
100
AcDbEntity
  8
138
  6
Continuous
 62
     7
370
    15
100
AcDbCircle
 10
122.6360200000001
 20
120.0406140000001
 30
0.0
 40
2.333332999999996
100
AcDbArc
 50
224.9999999999996
 51
269.9999999999998
  0
LINE
  5
116
330
1F
100
AcDbEntity
  8
138
  6
Continuous
 62
     7
370
    15
100
AcDbLine
 10
125.3361880000001
 20
118.70728
 30
0.0
 11
125.0196060000001
 21
118.390698
 31
0.0
  0
LINE
  5
117
330
1F
100
AcDbEntity
  8
138
  6
Continuous
 62
     7
370
    15
100
AcDbLine
 10
123.3696900000001
 20
117.70728
 30
0.0
 11
123.0028550000001
 21
117.70728
 31
0.0
  0
ARC
  5
118
330
1F
100
AcDbEntity
  8
138
  6
Continuous
 62
     7
370
    15
100
AcDbCircle
 10
123.3696900000001
 20
120.0406140000001
 30
0.0
 40
2.333332999999996
100
AcDbArc
 50
269.9999999999998
 51
314.9999999999997
  0
LINE
  5
119
330
1F
100
AcDbEntity
  8
138
  6
Continuous
 62
     7
370
    15
100
AcDbLine
 10
130.0028550000001
 20
118.70728
 30
0.0
 11
130.3194370000002
 21
118.390698
 31
0.0
  0
LINE
  5
11A
330
1F
100
AcDbEntity
  8
138
  6
Continuous
 62
     7
370
    15
100
AcDbLine
 10
131.9693530000001
 20
117.70728
 30
0.0
 11
132.3361880000001
 21
117.70728
 31
0.0
  0
LINE
  5
11B
330
1F
100
AcDbEntity
  8
138
  6
Continuous
 62
     7
370
    15
100
AcDbLine
 10
134.6695220000001
 20
118.70728
 30
0.0
 11
137.2695220000001
 21
118.70728
 31
0.0
  0
ARC
  5
11C
330
1F
100
AcDbEntity
  8
138
  6
Continuous
 62
     7
370
    15
100
AcDbCircle
 10
131.9693530000001
 20
120.0406140000001
 30
0.0
 40
2.33333300000001
100
AcDbArc
 50
224.9999999999996
 51
269.9999999999998
  0
LINE
  5
11D
330
1F
100
AcDbEntity
  8
138
  6
Continuous
 62
     7
370
    15
100
AcDbLine
 10
134.6695220000001
 20
118.70728
 30
0.0
 11
134.3529390000001
 21
118.390698
 31
0.0
  0
LINE
  5
11E
330
1F
100
AcDbEntity
  8
138
  6
Continuous
 62
     7
370
    15
100
AcDbLine
 10
132.7030230000001
 20
117.70728
 30
0.0
 11
132.3361880000001
 21
117.70728
 31
0.0
  0
ARC
  5
11F
330
1F
100
AcDbEntity
  8
138
  6
Continuous
 62
     7
370
    15
100
AcDbCircle
 10
132.7030230000001
 20
120.0406140000001
 30
0.0
 40
2.33333300000001
100
AcDbArc
 50
269.9999999999998
 51
314.9999999999997
  0
LINE
  5
120
330
1F
100
AcDbEntity
  8
138
  6
Continuous
 62
     7
370
    15
100
AcDbLine
 10
158.5361880000001
 20
117.0358650000001
 30
0.0
 11
158.8028550000001
 21
117.0358650000001
 31
0.0
  0
ARC
  5
121
330
1F
100
AcDbEntity
  8
138
  6
Continuous
 62
     7
370
    15
100
AcDbCircle
 10
119.1695220000001
 20
124.405539
 30
0.0
 40
0.5666669999999954
100
AcDbArc
 50
179.9999999999998
 51
0.0
  0
LINE
  5
122
330
1F
100
AcDbEntity
  8
138
  6
Continuous
 62
     7
370
    15
100
AcDbLine
 10
116.6695220000001
 20
125.9893220000001
 30
0.0
 11
137.2695220000001
 21
125.9893220000001
 31
0.0
  0
LINE
  5
123
330
1F
100
AcDbEntity
  8
138
  6
Continuous
 62
     7
370
    15
100
AcDbLine
 10
116.6695220000001
 20
125.709976
 30
0.0
 11
137.2695220000001
 21
125.709976
 31
0.0
  0
LINE
  5
124
330
1F
100
AcDbEntity
  8
138
  6
Continuous
 62
     7
370
    15
100
AcDbLine
 10
116.6695220000001
 20
124.405539
 30
0.0
 11
137.2695220000001
 21
124.405539
 31
0.0
  0
LINE
  5
125
330
1F
100
AcDbEntity
  8
138
  6
Continuous
 62
     7
370
    15
100
AcDbLine
 10
116.6695220000001
 20
126.7388730000001
 30
0.0
 11
137.2695220000001
 21
126.7388730000001
 31
0.0
  0
LINE
  5
126
330
1F
100
AcDbEntity
  8
138
  6
Continuous
 62
     7
370
    15
100
AcDbLine
 10
116.6695220000001
 20
126.901304
 30
0.0
 11
137.2695220000001
 21
126.901304
 31
0.0
  0
ARC
  5
127
330
1F
100
AcDbEntity
  8
138
  6
Continuous
 62
     7
370
    15
100
AcDbCircle
 10
137.2695220000001
 20
124.405539
 30
0.0
 40
0.5666669999999954
100
AcDbArc
 50
179.9999999999998
 51
269.9999999999998
  0
ARC
  5
128
330
1F
100
AcDbEntity
  8
138
  6
Continuous
 62
     7
370
    15
100
AcDbCircle
 10
128.0028550000001
 20
124.405539
 30
0.0
 40
0.5666669999999954
100
AcDbArc
 50
179.9999999999998
 51
0.0
  0
LINE
  5
129
330
1F
100
AcDbEntity
  8
138
  6
Continuous
 62
     7
370
    15
100
AcDbLine
 10
120.6695220000001
 20
118.70728
 30
0.0
 11
120.6695220000001
 21
124.405539
 31
0.0
  0
LINE
  5
12A
330
1F
100
AcDbEntity
  8
138
  6
Continuous
 62
     7
370
    15
100
AcDbLine
 10
125.3361880000001
 20
118.70728
 30
0.0
 11
125.3361880000001
 21
124.405539
 31
0.0
  0
LINE
  5
12B
330
1F
100
AcDbEntity
  8
138
  6
Continuous
 62
     7
370
    15
100
AcDbLine
 10
130.0028550000001
 20
118.70728
 30
0.0
 11
130.0028550000001
 21
124.405539
 31
0.0
  0
LINE
  5
12C
330
1F
100
AcDbEntity
  8
138
  6
Continuous
 62
     7
370
    15
100
AcDbLine
 10
134.6695220000001
 20
118.70728
 30
0.0
 11
134.6695220000001
 21
124.405539
 31
0.0
  0
LINE
  5
12D
330
1F
100
AcDbEntity
  8
138
  6
Continuous
 62
     7
370
    15
100
AcDbLine
 10
118.1028550000001
 20
138.596027
 30
0.0
 11
118.1028550000001
 21
126.901304
 31
0.0
  0
LINE
  5
12E
330
1F
100
AcDbEntity
  8
138
  6
Continuous
 62
     7
370
    15
100
AcDbLine
 10
117.2695220000001
 20
163.745321
 30
0.0
 11
137.2695220000001
 21
163.745321
 31
0.0
  0
LINE
  5
12F
330
1F
100
AcDbEntity
  8
138
  6
Continuous
 62
     7
370
    15
100
AcDbLine
 10
116.0028550000001
 20
140.7271480000001
 30
0.0
 11
116.6695220000001
 21
140.7271480000001
 31
0.0
  0
LINE
  5
130
330
1F
100
AcDbEntity
  8
138
  6
Continuous
 62
     7
370
    15
100
AcDbLine
 10
116.0028550000001
 20
136.4845070000001
 30
0.0
 11
116.6695220000001
 21
136.4845070000001
 31
0.0
  0
LINE
  5
131
330
1F
100
AcDbEntity
  8
138
  6
Continuous
 62
     7
370
    15
100
AcDbLine
 10
157.4361880000001
 20
161.226379
 30
0.0
 11
157.4361880000001
 21
162.393046
 31
0.0
  0
LINE
  5
132
330
1F
100
AcDbEntity
  8
138
  6
Continuous
 62
     7
370
    15
100
AcDbLine
 10
157.8695220000001
 20
161.959713
 30
0.0
 11
157.4361880000001
 21
161.959713
 31
0.0
  0
LINE
  5
133
330
1F
100
AcDbEntity
  8
138
  6
Continuous
 62
     7
370
    15
100
AcDbLine
 10
157.8695220000001
 20
160.493046
 30
0.0
 11
157.4361880000001
 21
160.493046
 31
0.0
  0
ARC
  5
134
330
1F
100
AcDbEntity
  8
138
  6
Continuous
 62
     7
370
    15
100
AcDbCircle
 10
157.2695220000001
 20
162.393046
 30
0.0
 40
0.1666669999999897
100
AcDbArc
 50
0.0
 51
89.99999999999991
  0
ARC
  5
135
330
1F
100
AcDbEntity
  8
138
  6
Continuous
 62
     7
370
    15
100
AcDbCircle
 10
157.2695220000001
 20
160.059713
 30
0.0
 40
0.1666669999999897
100
AcDbArc
 50
269.9999999999998
 51
0.0
  0
LINE
  5
136
330
1F
100
AcDbEntity
  8
138
  6
Continuous
 62
     7
370
    15
100
AcDbLine
 10
157.4361880000001
 20
161.226379
 30
0.0
 11
157.4361880000001
 21
160.059713
 31
0.0
  0
LINE
  5
137
330
1F
100
AcDbEntity
  8
138
  6
Continuous
 62
     7
370
    15
100
AcDbLine
 10
158.5361880000001
 20
115.7092060000001
 30
0.0
 11
158.5361880000001
 21
164.7092060000001
 31
0.0
  0
LINE
  5
138
330
1F
100
AcDbEntity
  8
138
  6
Continuous
 62
     7
370
    15
100
AcDbLine
 10
157.8695220000001
 20
115.7092060000001
 30
0.0
 11
157.8695220000001
 21
164.7092060000001
 31
0.0
  0
LINE
  5
139
330
1F
100
AcDbEntity
  8
138
  6
Continuous
 62
     7
370
    15
100
AcDbLine
 10
158.8028550000001
 20
117.0358650000001
 30
0.0
 11
158.8028550000001
 21
160.2998030000001
 31
0.0
  0
LINE
  5
13A
330
1F
100
AcDbEntity
  8
138
  6
Continuous
 62
     7
370
    15
100
AcDbLine
 10
158.8028550000001
 20
160.2998030000001
 30
0.0
 11
158.5361880000001
 21
160.2998030000001
 31
0.0
  0
LINE
  5
13B
330
1F
100
AcDbEntity
  8
138
  6
Continuous
 62
     7
370
    15
100
AcDbLine
 10
157.2695220000001
 20
138.596027
 30
0.0
 11
157.2695220000001
 21
164.059713
 31
0.0
  0
LINE
  5
13C
330
1F
100
AcDbEntity
  8
138
  6
Continuous
 62
     7
370
    15
100
AcDbLine
 10
158.5361880000001
 20
128.086672
 30
0.0
 11
157.8695220000001
 21
128.086672
 31
0.0
  0
LINE
  5
13D
330
1F
100
AcDbEntity
  8
138
  6
Continuous
 62
     7
370
    15
100
AcDbLine
 10
158.5361880000001
 20
164.7092060000001
 30
0.0
 11
137.2695220000001
 21
164.7092060000001
 31
0.0
  0
LINE
  5
13E
330
1F
100
AcDbEntity
  8
138
  6
Continuous
 62
     7
370
    15
100
AcDbLine
 10
157.2695220000001
 20
164.059713
 30
0.0
 11
137.2695220000001
 21
164.059713
 31
0.0
  0
LINE
  5
13F
330
1F
100
AcDbEntity
  8
138
  6
Continuous
 62
     7
370
    15
100
AcDbLine
 10
158.5361880000001
 20
126.7366740000001
 30
0.0
 11
157.8695220000001
 21
126.7366740000001
 31
0.0
  0
LINE
  5
140
330
1F
100
AcDbEntity
  8
138
  6
Continuous
 62
     7
370
    15
100
AcDbLine
 10
158.5361880000001
 20
124.020928
 30
0.0
 11
157.8695220000001
 21
124.020928
 31
0.0
  0
LINE
  5
141
330
1F
100
AcDbEntity
  8
138
  6
Continuous
 62
     7
370
    15
100
AcDbLine
 10
157.2695220000001
 20
138.596027
 30
0.0
 11
137.2695220000001
 21
138.596027
 31
0.0
  0
LINE
  5
142
330
1F
100
AcDbEntity
  8
138
  6
Continuous
 62
     7
370
    15
100
AcDbLine
 10
157.8695220000001
 20
118.70728
 30
0.0
 11
153.8695220000001
 21
118.70728
 31
0.0
  0
LINE
  5
143
330
1F
100
AcDbEntity
  8
138
  6
Continuous
 62
     7
370
    15
100
AcDbLine
 10
153.8695220000001
 20
118.70728
 30
0.0
 11
153.5529390000001
 21
118.390698
 31
0.0
  0
LINE
  5
144
330
1F
100
AcDbEntity
  8
138
  6
Continuous
 62
     7
370
    15
100
AcDbLine
 10
151.9030230000001
 20
117.70728
 30
0.0
 11
151.5361880000001
 21
117.70728
 31
0.0
  0
LINE
  5
145
330
1F
100
AcDbEntity
  8
138
  6
Continuous
 62
     7
370
    15
100
AcDbLine
 10
149.2028550000001
 20
118.70728
 30
0.0
 11
144.5361880000001
 21
118.70728
 31
0.0
  0
ARC
  5
146
330
1F
100
AcDbEntity
  8
138
  6
Continuous
 62
     7
370
    15
100
AcDbCircle
 10
151.9030230000001
 20
120.0406140000001
 30
0.0
 40
2.33333300000001
100
AcDbArc
 50
269.9999999999998
 51
314.9999999999997
  0
LINE
  5
147
330
1F
100
AcDbEntity
  8
138
  6
Continuous
 62
     7
370
    15
100
AcDbLine
 10
149.2028550000001
 20
118.70728
 30
0.0
 11
149.5194370000002
 21
118.390698
 31
0.0
  0
LINE
  5
148
330
1F
100
AcDbEntity
  8
138
  6
Continuous
 62
     7
370
    15
100
AcDbLine
 10
151.1693530000001
 20
117.70728
 30
0.0
 11
151.5361880000001
 21
117.70728
 31
0.0
  0
ARC
  5
149
330
1F
100
AcDbEntity
  8
138
  6
Continuous
 62
     7
370
    15
100
AcDbCircle
 10
151.1693530000001
 20
120.0406140000001
 30
0.0
 40
2.33333300000001
100
AcDbArc
 50
224.9999999999996
 51
269.9999999999998
  0
LINE
  5
14A
330
1F
100
AcDbEntity
  8
138
  6
Continuous
 62
     7
370
    15
100
AcDbLine
 10
144.5361880000001
 20
118.70728
 30
0.0
 11
144.2196060000001
 21
118.390698
 31
0.0
  0
LINE
  5
14B
330
1F
100
AcDbEntity
  8
138
  6
Continuous
 62
     7
370
    15
100
AcDbLine
 10
142.5696900000001
 20
117.70728
 30
0.0
 11
142.2028550000001
 21
117.70728
 31
0.0
  0
LINE
  5
14C
330
1F
100
AcDbEntity
  8
138
  6
Continuous
 62
     7
370
    15
100
AcDbLine
 10
139.8695220000001
 20
118.70728
 30
0.0
 11
137.2695220000001
 21
118.70728
 31
0.0
  0
ARC
  5
14D
330
1F
100
AcDbEntity
  8
138
  6
Continuous
 62
     7
370
    15
100
AcDbCircle
 10
142.5696900000001
 20
120.0406140000001
 30
0.0
 40
2.33333300000001
100
AcDbArc
 50
269.9999999999998
 51
314.9999999999997
  0
LINE
  5
14E
330
1F
100
AcDbEntity
  8
138
  6
Continuous
 62
     7
370
    15
100
AcDbLine
 10
139.8695220000001
 20
118.70728
 30
0.0
 11
140.1861040000001
 21
118.390698
 31
0.0
  0
LINE
  5
14F
330
1F
100
AcDbEntity
  8
138
  6
Continuous
 62
     7
370
    15
100
AcDbLine
 10
141.8360200000001
 20
117.70728
 30
0.0
 11
142.2028550000001
 21
117.70728
 31
0.0
  0
ARC
  5
150
330
1F
100
AcDbEntity
  8
138
  6
Continuous
 62
     7
370
    15
100
AcDbCircle
 10
141.8360200000001
 20
120.0406140000001
 30
0.0
 40
2.33333300000001
100
AcDbArc
 50
224.9999999999996
 51
269.9999999999998
  0
ARC
  5
151
330
1F
100
AcDbEntity
  8
138
  6
Continuous
 62
     7
370
    15
100
AcDbCircle
 10
155.3695220000001
 20
124.405539
 30
0.0
 40
0.5666669999999954
100
AcDbArc
 50
179.9999999999998
 51
0.0
  0
LINE
  5
152
330
1F
100
AcDbEntity
  8
138
  6
Continuous
 62
     7
370
    15
100
AcDbLine
 10
157.8695220000001
 20
125.9893220000001
 30
0.0
 11
137.2695220000001
 21
125.9893220000001
 31
0.0
  0
LINE
  5
153
330
1F
100
AcDbEntity
  8
138
  6
Continuous
 62
     7
370
    15
100
AcDbLine
 10
157.8695220000001
 20
125.709976
 30
0.0
 11
137.2695220000001
 21
125.709976
 31
0.0
  0
LINE
  5
154
330
1F
100
AcDbEntity
  8
138
  6
Continuous
 62
     7
370
    15
100
AcDbLine
 10
157.8695220000001
 20
124.405539
 30
0.0
 11
137.2695220000001
 21
124.405539
 31
0.0
  0
LINE
  5
155
330
1F
100
AcDbEntity
  8
138
  6
Continuous
 62
     7
370
    15
100
AcDbLine
 10
157.8695220000001
 20
126.7388730000001
 30
0.0
 11
137.2695220000001
 21
126.7388730000001
 31
0.0
  0
LINE
  5
156
330
1F
100
AcDbEntity
  8
138
  6
Continuous
 62
     7
370
    15
100
AcDbLine
 10
157.8695220000001
 20
126.901304
 30
0.0
 11
137.2695220000001
 21
126.901304
 31
0.0
  0
ARC
  5
157
330
1F
100
AcDbEntity
  8
138
  6
Continuous
 62
     7
370
    15
100
AcDbCircle
 10
137.2695220000001
 20
124.405539
 30
0.0
 40
0.5666669999999954
100
AcDbArc
 50
269.9999999999998
 51
0.0
  0
ARC
  5
158
330
1F
100
AcDbEntity
  8
138
  6
Continuous
 62
     7
370
    15
100
AcDbCircle
 10
146.5361880000001
 20
124.405539
 30
0.0
 40
0.5666669999999954
100
AcDbArc
 50
179.9999999999998
 51
0.0
  0
LINE
  5
159
330
1F
100
AcDbEntity
  8
138
  6
Continuous
 62
     7
370
    15
100
AcDbLine
 10
153.8695220000001
 20
118.70728
 30
0.0
 11
153.8695220000001
 21
124.405539
 31
0.0
  0
LINE
  5
15A
330
1F
100
AcDbEntity
  8
138
  6
Continuous
 62
     7
370
    15
100
AcDbLine
 10
149.2028550000001
 20
118.70728
 30
0.0
 11
149.2028550000001
 21
124.405539
 31
0.0
  0
LINE
  5
15B
330
1F
100
AcDbEntity
  8
138
  6
Continuous
 62
     7
370
    15
100
AcDbLine
 10
144.5361880000001
 20
118.70728
 30
0.0
 11
144.5361880000001
 21
124.405539
 31
0.0
  0
LINE
  5
15C
330
1F
100
AcDbEntity
  8
138
  6
Continuous
 62
     7
370
    15
100
AcDbLine
 10
139.8695220000001
 20
118.70728
 30
0.0
 11
139.8695220000001
 21
124.405539
 31
0.0
  0
LINE
  5
15D
330
1F
100
AcDbEntity
  8
138
  6
Continuous
 62
     7
370
    15
100
AcDbLine
 10
156.4361880000001
 20
138.596027
 30
0.0
 11
156.4361880000001
 21
126.901304
 31
0.0
  0
LINE
  5
15E
330
1F
100
AcDbEntity
  8
138
  6
Continuous
 62
     7
370
    15
100
AcDbLine
 10
157.2695220000001
 20
163.745321
 30
0.0
 11
137.2695220000001
 21
163.745321
 31
0.0
  0
LINE
  5
15F
330
1F
100
AcDbEntity
  8
138
  6
Continuous
 62
     7
370
    15
100
AcDbLine
 10
158.5361880000001
 20
140.7271480000001
 30
0.0
 11
157.8695220000001
 21
140.7271480000001
 31
0.0
  0
LINE
  5
160
330
1F
100
AcDbEntity
  8
138
  6
Continuous
 62
     7
370
    15
100
AcDbLine
 10
158.5361880000001
 20
136.4845070000001
 30
0.0
 11
157.8695220000001
 21
136.4845070000001
 31
0.0
  0
LINE
  5
161
330
1F
100
AcDbEntity
  8
138
  6
Continuous
 62
     7
370
    15
100
AcDbLine
 10
158.5361880000001
 20
115.7092060000001
 30
0.0
 11
157.8695220000001
 21
115.7092060000001
 31
0.0
  0
LINE
  5
162
330
1F
100
AcDbEntity
  8
138
  6
Continuous
 62
     7
370
    15
100
AcDbLine
 10
116.0028550000001
 20
115.7092060000001
 30
0.0
 11
116.6695220000001
 21
115.7092060000001
 31
0.0
  0
LINE
  5
163
330
1F
100
AcDbEntity
  8
138
  6
Continuous
 62
     7
370
    15
100
AcDbLine
 10
116.0028550000001
 20
117.0358650000001
 30
0.0
 11
115.7361880000001
 21
117.0358650000001
 31
0.0
  0
LINE
  5
164
330
1F
100
AcDbEntity
  8
138
  6
Continuous
 62
     7
370
    15
100
AcDbLine
 10
210.148113982996
 20
117.4725374446922
 30
0.0
 11
227.426068982996
 21
134.375873
 31
0.0
  0
LINE
  5
165
330
1F
100
AcDbEntity
  8
138
  6
Continuous
 62
     7
370
    15
100
AcDbLine
 10
227.426068982996
 20
134.375873
 30
0.0
 11
227.426068982996
 21
164.7092060000001
 31
0.0
  0
LINE
  5
166
330
1F
100
AcDbEntity
  8
138
  6
Continuous
 62
     7
370
    15
100
AcDbLine
 10
158.5361880000001
 20
85.14038495585191
 30
0.0
 11
137.2695220000001
 21
85.14038495585191
 31
0.0
  0
LINE
  5
167
330
1F
100
AcDbEntity
  8
138
  6
Continuous
 62
     7
370
    15
100
AcDbLine
 10
122.6695220000001
 20
122.8136440000001
 30
0.0
 11
123.3361880000001
 21
122.8136440000001
 31
0.0
  0
LINE
  5
168
330
1F
100
AcDbEntity
  8
138
  6
Continuous
 62
     7
370
    15
100
AcDbLine
 10
122.6695220000001
 20
122.8136440000001
 30
0.0
 11
122.6695220000001
 21
124.405539
 31
0.0
  0
LINE
  5
169
330
1F
100
AcDbEntity
  8
138
  6
Continuous
 62
     7
370
    15
100
AcDbLine
 10
123.3361880000001
 20
122.8136440000001
 30
0.0
 11
123.3361880000001
 21
124.405539
 31
0.0
  0
LINE
  5
16A
330
1F
100
AcDbEntity
  8
138
  6
Continuous
 62
     7
370
    15
100
AcDbLine
 10
132.0028550000001
 20
122.8136440000001
 30
0.0
 11
132.6695220000001
 21
122.8136440000001
 31
0.0
  0
LINE
  5
16B
330
1F
100
AcDbEntity
  8
138
  6
Continuous
 62
     7
370
    15
100
AcDbLine
 10
132.0028550000001
 20
122.8136440000001
 30
0.0
 11
132.0028550000001
 21
124.405539
 31
0.0
  0
LINE
  5
16C
330
1F
100
AcDbEntity
  8
138
  6
Continuous
 62
     7
370
    15
100
AcDbLine
 10
132.6695220000001
 20
122.8136440000001
 30
0.0
 11
132.6695220000001
 21
124.405539
 31
0.0
  0
LINE
  5
16D
330
1F
100
AcDbEntity
  8
138
  6
Continuous
 62
     7
370
    15
100
AcDbLine
 10
141.8695220000001
 20
122.8136440000001
 30
0.0
 11
142.5361880000001
 21
122.8136440000001
 31
0.0
  0
LINE
  5
16E
330
1F
100
AcDbEntity
  8
138
  6
Continuous
 62
     7
370
    15
100
AcDbLine
 10
141.8695220000001
 20
122.8136440000001
 30
0.0
 11
141.8695220000001
 21
124.405539
 31
0.0
  0
LINE
  5
16F
330
1F
100
AcDbEntity
  8
138
  6
Continuous
 62
     7
370
    15
100
AcDbLine
 10
142.5361880000001
 20
122.8136440000001
 30
0.0
 11
142.5361880000001
 21
124.405539
 31
0.0
  0
LINE
  5
170
330
1F
100
AcDbEntity
  8
138
  6
Continuous
 62
     7
370
    15
100
AcDbLine
 10
151.2028550000001
 20
122.8136440000001
 30
0.0
 11
151.8695220000001
 21
122.8136440000001
 31
0.0
  0
LINE
  5
171
330
1F
100
AcDbEntity
  8
138
  6
Continuous
 62
     7
370
    15
100
AcDbLine
 10
151.2028550000001
 20
122.8136440000001
 30
0.0
 11
151.2028550000001
 21
124.405539
 31
0.0
  0
LINE
  5
172
330
1F
100
AcDbEntity
  8
138
  6
Continuous
 62
     7
370
    15
100
AcDbLine
 10
151.8695220000001
 20
122.8136440000001
 30
0.0
 11
151.8695220000001
 21
124.405539
 31
0.0
  0
ARC
  5
173
330
1F
100
AcDbEntity
  8
137
  6
HIDDEN
 62
     3
370
    15
100
AcDbCircle
 10
205.274326982996
 20
141.796836
 30
0.0
 40
19.16666699999999
100
AcDbArc
 50
77.56196300000005
 51
167.694987
  0
ARC
  5
174
330
1F
100
AcDbEntity
  8
137
  6
HIDDEN
 62
     3
370
    15
100
AcDbCircle
 10
204.6086222695214
 20
141.8762634534781
 30
0.0
 40
18.49943995595282
100
AcDbArc
 50
167.4959335543825
 51
227.9782194182662
  0
ARC
  5
175
330
1F
100
AcDbEntity
  8
137
  6
HIDDEN
 62
     3
370
    15
100
AcDbCircle
 10
205.3735180633623
 20
141.8908048201641
 30
0.0
 40
19.03047092088966
100
AcDbArc
 50
226.2964815671937
 51
48.05933394595166
  0
LINE
  5
176
330
1F
100
AcDbEntity
  8
139
  6
Continuous
 62
     6
370
    15
100
AcDbLine
 10
227.426068982996
 20
162.14318
 30
0.0
 11
227.426881982996
 21
162.144577
 31
0.0
  0
LINE
  5
177
330
1F
100
AcDbEntity
  8
139
  6
Continuous
 62
     6
370
    15
100
AcDbLine
 10
227.4278679829959
 20
136.717708
 30
0.0
 11
227.428679982996
 21
136.719105
 31
0.0
  0
LINE
  5
178
330
1F
100
AcDbEntity
  8
141
  6
Continuous
 62
     7
370
    15
100
AcDbLine
 10
224.631891982996
 20
163.8515280000001
 30
0.0
 11
212.908940982996
 21
171.0547870000001
 31
0.0
  0
LINE
  5
179
330
1F
100
AcDbEntity
  8
141
  6
Continuous
 62
     7
370
    15
100
AcDbLine
 10
224.631891982996
 20
163.8515280000001
 30
0.0
 11
223.194175982996
 21
164.279282
 31
0.0
  0
LINE
  5
17A
330
1F
100
AcDbEntity
  8
141
  6
Continuous
 62
     7
370
    15
100
AcDbLine
 10
224.631891982996
 20
163.8515280000001
 30
0.0
 11
223.600670982996
 21
164.9408320000001
 31
0.0
  0
LINE
  5
17B
330
1F
100
AcDbEntity
  8
141
  6
Continuous
 62
     7
370
    15
100
AcDbLine
 10
199.914826982996
 20
161.450442
 30
0.0
 11
195.253893982996
 21
165.5464130000001
 31
0.0
  0
LINE
  5
17C
330
1F
100
AcDbEntity
  8
141
  6
Continuous
 62
     7
370
    15
100
AcDbLine
 10
199.914826982996
 20
161.450442
 30
0.0
 11
198.570196982996
 21
162.1152510000001
 31
0.0
  0
LINE
  5
17D
330
1F
100
AcDbEntity
  8
141
  6
Continuous
 62
     7
370
    15
100
AcDbLine
 10
199.914826982996
 20
161.450442
 30
0.0
 11
199.082747982996
 21
162.698498
 31
0.0
  0
LINE
  5
17E
330
1F
100
AcDbEntity
  8
138
  6
Continuous
 62
     7
370
    15
100
AcDbLine
 10
88.5289255000001
 20
115.7092060000001
 30
0.0
 11
88.5289255000001
 21
164.7092060000001
 31
0.0
  0
LINE
  5
17F
330
1F
100
AcDbEntity
  8
138
  6
Continuous
 62
     7
370
    15
100
AcDbLine
 10
88.5289255000001
 20
164.7092060000001
 30
0.0
 11
67.26225850000012
 21
164.7092060000001
 31
0.0
  0
LINE
  5
180
330
1F
100
AcDbEntity
  8
138
  6
Continuous
 62
     7
370
    15
100
AcDbLine
 10
88.5289255000001
 20
115.7092060000001
 30
0.0
 11
87.86225850000011
 21
115.7092060000001
 31
0.0
  0
LINE
  5
181
330
1F
100
AcDbEntity
  8
138
  6
Continuous
 62
     7
370
    15
100
AcDbLine
 10
45.9955915000001
 20
115.7092060000001
 30
0.0
 11
45.9955915000001
 21
164.7092060000001
 31
0.0
  0
LINE
  5
182
330
1F
100
AcDbEntity
  8
138
  6
Continuous
 62
     7
370
    15
100
AcDbLine
 10
87.86225850000011
 20
115.7092060000001
 30
0.0
 11
87.86225850000011
 21
164.04254
 31
0.0
  0
LINE
  5
183
330
1F
100
AcDbEntity
  8
138
  6
Continuous
 62
     7
370
    15
100
AcDbLine
 10
55.32892550000011
 20
118.815993
 30
0.0
 11
55.32892550000011
 21
131.7092060000001
 31
0.0
  0
LINE
  5
184
330
1F
100
AcDbEntity
  8
138
  6
Continuous
 62
     7
370
    15
100
AcDbLine
 10
50.66225850000012
 20
118.815993
 30
0.0
 11
50.66225850000012
 21
131.7092060000001
 31
0.0
  0
LINE
  5
185
330
1F
100
AcDbEntity
  8
138
  6
Continuous
 62
     7
370
    15
100
AcDbLine
 10
54.81708050000012
 20
118.364028
 30
0.0
 11
54.81708050000012
 21
124.120355
 31
0.0
  0
LINE
  5
186
330
1F
100
AcDbEntity
  8
138
  6
Continuous
 62
     7
370
    15
100
AcDbLine
 10
51.17410350000011
 20
118.364028
 30
0.0
 11
51.17410350000011
 21
124.120355
 31
0.0
  0
LINE
  5
187
330
1F
100
AcDbEntity
  8
138
  6
Continuous
 62
     7
370
    15
100
AcDbLine
 10
46.66225850000012
 20
115.7092060000001
 30
0.0
 11
46.66225850000012
 21
164.04254
 31
0.0
  0
LINE
  5
188
330
1F
100
AcDbEntity
  8
138
  6
Continuous
 62
     7
370
    15
100
AcDbLine
 10
45.72892550000012
 20
117.0358650000001
 30
0.0
 11
45.72892550000012
 21
163.04254
 31
0.0
  0
LINE
  5
189
330
1F
100
AcDbEntity
  8
138
  6
Continuous
 62
     7
370
    15
100
AcDbLine
 10
45.72892550000012
 20
163.04254
 30
0.0
 11
45.9955915000001
 21
163.04254
 31
0.0
  0
LINE
  5
18A
330
1F
100
AcDbEntity
  8
138
  6
Continuous
 62
     7
370
    15
100
AcDbLine
 10
88.79559150000011
 20
163.04254
 30
0.0
 11
88.5289255000001
 21
163.04254
 31
0.0
  0
LINE
  5
18B
330
1F
100
AcDbEntity
  8
138
  6
Continuous
 62
     7
370
    15
100
AcDbLine
 10
88.79559150000011
 20
117.0358650000001
 30
0.0
 11
88.79559150000011
 21
163.04254
 31
0.0
  0
LINE
  5
18C
330
1F
100
AcDbEntity
  8
138
  6
Continuous
 62
     7
370
    15
100
AcDbLine
 10
88.79559150000011
 20
117.0358650000001
 30
0.0
 11
88.5289255000001
 21
117.0358650000001
 31
0.0
  0
LINE
  5
18D
330
1F
100
AcDbEntity
  8
138
  6
Continuous
 62
     7
370
    15
100
AcDbLine
 10
45.9955915000001
 20
164.7092060000001
 30
0.0
 11
67.26225850000012
 21
164.7092060000001
 31
0.0
  0
LINE
  5
18E
330
1F
100
AcDbEntity
  8
138
  6
Continuous
 62
     7
370
    15
100
AcDbLine
 10
46.66225850000012
 20
115.7092060000001
 30
0.0
 11
45.9955915000001
 21
115.7092060000001
 31
0.0
  0
LINE
  5
18F
330
1F
100
AcDbEntity
  8
138
  6
Continuous
 62
     7
370
    15
100
AcDbLine
 10
45.9955915000001
 20
117.2092060000001
 30
0.0
 11
46.66225850000012
 21
117.2092060000001
 31
0.0
  0
LINE
  5
190
330
1F
100
AcDbEntity
  8
138
  6
Continuous
 62
     7
370
    15
100
AcDbLine
 10
46.66225850000012
 20
118.8758730000001
 30
0.0
 11
49.08460850000012
 21
118.8758730000001
 31
0.0
  0
LINE
  5
191
330
1F
100
AcDbEntity
  8
138
  6
Continuous
 62
     7
370
    15
100
AcDbLine
 10
52.3526145000001
 20
117.8758730000001
 30
0.0
 11
52.9955915000001
 21
117.8758730000001
 31
0.0
  0
LINE
  5
192
330
1F
100
AcDbEntity
  8
138
  6
Continuous
 62
     7
370
    15
100
AcDbLine
 10
46.66225850000012
 20
118.2092060000001
 30
0.0
 11
50.66225850000012
 21
118.2092060000001
 31
0.0
  0
LINE
  5
193
330
1F
100
AcDbEntity
  8
138
  6
Continuous
 62
     7
370
    15
100
AcDbLine
 10
51.17410350000011
 20
118.364028
 30
0.0
 11
50.85752050000011
 21
118.6806110000001
 31
0.0
  0
LINE
  5
194
330
1F
100
AcDbEntity
  8
138
  6
Continuous
 62
     7
370
    15
100
AcDbLine
 10
50.66225850000012
 20
118.2092060000001
 30
0.0
 11
50.9788405000001
 21
117.8926240000001
 31
0.0
  0
LINE
  5
195
330
1F
100
AcDbEntity
  8
138
  6
Continuous
 62
     7
370
    15
100
AcDbLine
 10
52.62875650000012
 20
117.2092060000001
 30
0.0
 11
52.9955915000001
 21
117.2092060000001
 31
0.0
  0
LINE
  5
196
330
1F
100
AcDbEntity
  8
138
  6
Continuous
 62
     7
370
    15
100
AcDbLine
 10
55.6050675000001
 20
118.8758730000001
 30
0.0
 11
58.1428705000001
 21
118.8758730000001
 31
0.0
  0
LINE
  5
197
330
1F
100
AcDbEntity
  8
138
  6
Continuous
 62
     7
370
    15
100
AcDbLine
 10
55.32892550000011
 20
118.2092060000001
 30
0.0
 11
59.9955915000001
 21
118.2092060000001
 31
0.0
  0
ARC
  5
198
330
1F
100
AcDbEntity
  8
138
  6
Continuous
 62
     7
370
    15
100
AcDbCircle
 10
52.3526145000001
 20
119.54254
 30
0.0
 40
1.666666999999997
100
AcDbArc
 50
224.9999999999996
 51
269.9999999999998
  0
ARC
  5
199
330
1F
100
AcDbEntity
  8
138
  6
Continuous
 62
     7
370
    15
100
AcDbCircle
 10
52.62875650000012
 20
119.54254
 30
0.0
 40
2.333333000000003
100
AcDbArc
 50
224.9999999999995
 51
269.9999999999998
  0
ARC
  5
19A
330
1F
100
AcDbEntity
  8
138
  6
Continuous
 62
     7
370
    15
100
AcDbCircle
 10
50.3861165000001
 20
118.2092060000001
 30
0.0
 40
0.6666669999999968
100
AcDbArc
 50
44.99999999999957
 51
89.99999999999991
  0
LINE
  5
19B
330
1F
100
AcDbEntity
  8
138
  6
Continuous
 62
     7
370
    15
100
AcDbLine
 10
53.6385695000001
 20
117.8758730000001
 30
0.0
 11
52.9955915000001
 21
117.8758730000001
 31
0.0
  0
LINE
  5
19C
330
1F
100
AcDbEntity
  8
138
  6
Continuous
 62
     7
370
    15
100
AcDbLine
 10
54.81708050000012
 20
118.364028
 30
0.0
 11
55.1336625000001
 21
118.6806110000001
 31
0.0
  0
LINE
  5
19D
330
1F
100
AcDbEntity
  8
138
  6
Continuous
 62
     7
370
    15
100
AcDbLine
 10
55.32892550000011
 20
118.2092060000001
 30
0.0
 11
55.0123425000001
 21
117.8926240000001
 31
0.0
  0
LINE
  5
19E
330
1F
100
AcDbEntity
  8
138
  6
Continuous
 62
     7
370
    15
100
AcDbLine
 10
53.36242650000011
 20
117.2092060000001
 30
0.0
 11
52.9955915000001
 21
117.2092060000001
 31
0.0
  0
ARC
  5
19F
330
1F
100
AcDbEntity
  8
138
  6
Continuous
 62
     7
370
    15
100
AcDbCircle
 10
53.6385695000001
 20
119.54254
 30
0.0
 40
1.666666999999997
100
AcDbArc
 50
269.9999999999998
 51
314.9999999999997
  0
ARC
  5
1A0
330
1F
100
AcDbEntity
  8
138
  6
Continuous
 62
     7
370
    15
100
AcDbCircle
 10
53.36242650000011
 20
119.54254
 30
0.0
 40
2.333333000000003
100
AcDbArc
 50
269.9999999999998
 51
314.9999999999998
  0
ARC
  5
1A1
330
1F
100
AcDbEntity
  8
138
  6
Continuous
 62
     7
370
    15
100
AcDbCircle
 10
55.6050675000001
 20
118.2092060000001
 30
0.0
 40
0.6666669999999968
100
AcDbArc
 50
89.99999999999991
 51
135.0000000000004
  0
LINE
  5
1A2
330
1F
100
AcDbEntity
  8
138
  6
Continuous
 62
     7
370
    15
100
AcDbLine
 10
61.68594750000011
 20
117.8758730000001
 30
0.0
 11
62.32892550000011
 21
117.8758730000001
 31
0.0
  0
LINE
  5
1A3
330
1F
100
AcDbEntity
  8
138
  6
Continuous
 62
     7
370
    15
100
AcDbLine
 10
60.19085350000012
 20
118.6806110000001
 30
0.0
 11
60.5074365000001
 21
118.364028
 31
0.0
  0
LINE
  5
1A4
330
1F
100
AcDbEntity
  8
138
  6
Continuous
 62
     7
370
    15
100
AcDbLine
 10
59.9955915000001
 20
118.2092060000001
 30
0.0
 11
60.31217450000011
 21
117.8926240000001
 31
0.0
  0
LINE
  5
1A5
330
1F
100
AcDbEntity
  8
138
  6
Continuous
 62
     7
370
    15
100
AcDbLine
 10
61.9620905000001
 20
117.2092060000001
 30
0.0
 11
62.32892550000011
 21
117.2092060000001
 31
0.0
  0
LINE
  5
1A6
330
1F
100
AcDbEntity
  8
138
  6
Continuous
 62
     7
370
    15
100
AcDbLine
 10
64.93840050000011
 20
118.8758730000001
 30
0.0
 11
66.06885050000011
 21
118.8758730000001
 31
0.0
  0
LINE
  5
1A7
330
1F
100
AcDbEntity
  8
138
  6
Continuous
 62
     7
370
    15
100
AcDbLine
 10
64.66225850000012
 20
118.2092060000001
 30
0.0
 11
67.26225850000012
 21
118.2092060000001
 31
0.0
  0
ARC
  5
1A8
330
1F
100
AcDbEntity
  8
138
  6
Continuous
 62
     7
370
    15
100
AcDbCircle
 10
61.68594750000011
 20
119.54254
 30
0.0
 40
1.666666999999997
100
AcDbArc
 50
224.9999999999996
 51
269.9999999999998
  0
ARC
  5
1A9
330
1F
100
AcDbEntity
  8
138
  6
Continuous
 62
     7
370
    15
100
AcDbCircle
 10
61.9620905000001
 20
119.54254
 30
0.0
 40
2.333333000000003
100
AcDbArc
 50
224.9999999999995
 51
269.9999999999998
  0
ARC
  5
1AA
330
1F
100
AcDbEntity
  8
138
  6
Continuous
 62
     7
370
    15
100
AcDbCircle
 10
59.71944950000011
 20
118.2092060000001
 30
0.0
 40
0.6666669999999968
100
AcDbArc
 50
44.99999999999957
 51
89.99999999999991
  0
LINE
  5
1AB
330
1F
100
AcDbEntity
  8
138
  6
Continuous
 62
     7
370
    15
100
AcDbLine
 10
62.97190250000011
 20
117.8758730000001
 30
0.0
 11
62.32892550000011
 21
117.8758730000001
 31
0.0
  0
LINE
  5
1AC
330
1F
100
AcDbEntity
  8
138
  6
Continuous
 62
     7
370
    15
100
AcDbLine
 10
64.4669965000001
 20
118.6806110000001
 30
0.0
 11
64.1504135000001
 21
118.364028
 31
0.0
  0
LINE
  5
1AD
330
1F
100
AcDbEntity
  8
138
  6
Continuous
 62
     7
370
    15
100
AcDbLine
 10
64.66225850000012
 20
118.2092060000001
 30
0.0
 11
64.34567550000011
 21
117.8926240000001
 31
0.0
  0
LINE
  5
1AE
330
1F
100
AcDbEntity
  8
138
  6
Continuous
 62
     7
370
    15
100
AcDbLine
 10
62.69576050000012
 20
117.2092060000001
 30
0.0
 11
62.32892550000011
 21
117.2092060000001
 31
0.0
  0
ARC
  5
1AF
330
1F
100
AcDbEntity
  8
138
  6
Continuous
 62
     7
370
    15
100
AcDbCircle
 10
62.97190250000011
 20
119.54254
 30
0.0
 40
1.666666999999997
100
AcDbArc
 50
269.9999999999998
 51
314.9999999999997
  0
ARC
  5
1B0
330
1F
100
AcDbEntity
  8
138
  6
Continuous
 62
     7
370
    15
100
AcDbCircle
 10
62.69576050000012
 20
119.54254
 30
0.0
 40
2.333333000000003
100
AcDbArc
 50
269.9999999999998
 51
314.9999999999997
  0
ARC
  5
1B1
330
1F
100
AcDbEntity
  8
138
  6
Continuous
 62
     7
370
    15
100
AcDbCircle
 10
64.93840050000011
 20
118.2092060000001
 30
0.0
 40
0.6666670000000039
100
AcDbArc
 50
89.99999999999991
 51
135.0
  0
LINE
  5
1B2
330
1F
100
AcDbEntity
  8
138
  6
Continuous
 62
     7
370
    15
100
AcDbLine
 10
87.86225850000011
 20
118.8758730000001
 30
0.0
 11
85.75798950000012
 21
118.8758730000001
 31
0.0
  0
LINE
  5
1B3
330
1F
100
AcDbEntity
  8
138
  6
Continuous
 62
     7
370
    15
100
AcDbLine
 10
82.1719025000001
 20
117.8758730000001
 30
0.0
 11
81.5289255000001
 21
117.8758730000001
 31
0.0
  0
LINE
  5
1B4
330
1F
100
AcDbEntity
  8
138
  6
Continuous
 62
     7
370
    15
100
AcDbLine
 10
87.86225850000011
 20
118.2092060000001
 30
0.0
 11
83.86225850000011
 21
118.2092060000001
 31
0.0
  0
LINE
  5
1B5
330
1F
100
AcDbEntity
  8
138
  6
Continuous
 62
     7
370
    15
100
AcDbLine
 10
83.66699650000012
 20
118.6806110000001
 30
0.0
 11
83.35041350000012
 21
118.364028
 31
0.0
  0
LINE
  5
1B6
330
1F
100
AcDbEntity
  8
138
  6
Continuous
 62
     7
370
    15
100
AcDbLine
 10
83.86225850000011
 20
118.2092060000001
 30
0.0
 11
83.5456755000001
 21
117.8926240000001
 31
0.0
  0
LINE
  5
1B7
330
1F
100
AcDbEntity
  8
138
  6
Continuous
 62
     7
370
    15
100
AcDbLine
 10
81.89576050000011
 20
117.2092060000001
 30
0.0
 11
81.5289255000001
 21
117.2092060000001
 31
0.0
  0
LINE
  5
1B8
330
1F
100
AcDbEntity
  8
138
  6
Continuous
 62
     7
370
    15
100
AcDbLine
 10
78.9194495000001
 20
118.8758730000001
 30
0.0
 11
76.76263250000011
 21
118.8758730000001
 31
0.0
  0
LINE
  5
1B9
330
1F
100
AcDbEntity
  8
138
  6
Continuous
 62
     7
370
    15
100
AcDbLine
 10
79.19559150000012
 20
118.2092060000001
 30
0.0
 11
74.5289255000001
 21
118.2092060000001
 31
0.0
  0
ARC
  5
1BA
330
1F
100
AcDbEntity
  8
138
  6
Continuous
 62
     7
370
    15
100
AcDbCircle
 10
82.1719025000001
 20
119.54254
 30
0.0
 40
1.666667000000004
100
AcDbArc
 50
269.9999999999998
 51
314.9999999999997
  0
ARC
  5
1BB
330
1F
100
AcDbEntity
  8
138
  6
Continuous
 62
     7
370
    15
100
AcDbCircle
 10
81.89576050000011
 20
119.54254
 30
0.0
 40
2.333332999999996
100
AcDbArc
 50
269.9999999999998
 51
314.9999999999997
  0
ARC
  5
1BC
330
1F
100
AcDbEntity
  8
138
  6
Continuous
 62
     7
370
    15
100
AcDbCircle
 10
84.1384005000001
 20
118.2092060000001
 30
0.0
 40
0.6666670000000039
100
AcDbArc
 50
89.99999999999991
 51
135.0
  0
LINE
  5
1BD
330
1F
100
AcDbEntity
  8
138
  6
Continuous
 62
     7
370
    15
100
AcDbLine
 10
80.88594750000013
 20
117.8758730000001
 30
0.0
 11
81.5289255000001
 21
117.8758730000001
 31
0.0
  0
LINE
  5
1BE
330
1F
100
AcDbEntity
  8
138
  6
Continuous
 62
     7
370
    15
100
AcDbLine
 10
79.3908535000001
 20
118.6806110000001
 30
0.0
 11
79.70743650000011
 21
118.364028
 31
0.0
  0
LINE
  5
1BF
330
1F
100
AcDbEntity
  8
138
  6
Continuous
 62
     7
370
    15
100
AcDbLine
 10
79.19559150000012
 20
118.2092060000001
 30
0.0
 11
79.5121745000001
 21
117.8926240000001
 31
0.0
  0
LINE
  5
1C0
330
1F
100
AcDbEntity
  8
138
  6
Continuous
 62
     7
370
    15
100
AcDbLine
 10
81.16209050000012
 20
117.2092060000001
 30
0.0
 11
81.5289255000001
 21
117.2092060000001
 31
0.0
  0
ARC
  5
1C1
330
1F
100
AcDbEntity
  8
138
  6
Continuous
 62
     7
370
    15
100
AcDbCircle
 10
80.88594750000013
 20
119.54254
 30
0.0
 40
1.666667000000004
100
AcDbArc
 50
224.9999999999996
 51
269.9999999999998
  0
ARC
  5
1C2
330
1F
100
AcDbEntity
  8
138
  6
Continuous
 62
     7
370
    15
100
AcDbCircle
 10
81.16209050000012
 20
119.54254
 30
0.0
 40
2.333332999999996
100
AcDbArc
 50
224.9999999999996
 51
269.9999999999998
  0
ARC
  5
1C3
330
1F
100
AcDbEntity
  8
138
  6
Continuous
 62
     7
370
    15
100
AcDbCircle
 10
78.9194495000001
 20
118.2092060000001
 30
0.0
 40
0.6666670000000039
100
AcDbArc
 50
45.0
 51
89.99999999999991
  0
LINE
  5
1C4
330
1F
100
AcDbEntity
  8
138
  6
Continuous
 62
     7
370
    15
100
AcDbLine
 10
72.83856950000012
 20
117.8758730000001
 30
0.0
 11
72.19559150000012
 21
117.8758730000001
 31
0.0
  0
LINE
  5
1C5
330
1F
100
AcDbEntity
  8
138
  6
Continuous
 62
     7
370
    15
100
AcDbLine
 10
74.33366250000012
 20
118.6806110000001
 30
0.0
 11
74.0170805000001
 21
118.364028
 31
0.0
  0
LINE
  5
1C6
330
1F
100
AcDbEntity
  8
138
  6
Continuous
 62
     7
370
    15
100
AcDbLine
 10
74.5289255000001
 20
118.2092060000001
 30
0.0
 11
74.21234250000012
 21
117.8926240000001
 31
0.0
  0
LINE
  5
1C7
330
1F
100
AcDbEntity
  8
138
  6
Continuous
 62
     7
370
    15
100
AcDbLine
 10
72.5624265000001
 20
117.2092060000001
 30
0.0
 11
72.19559150000012
 21
117.2092060000001
 31
0.0
  0
LINE
  5
1C8
330
1F
100
AcDbEntity
  8
138
  6
Continuous
 62
     7
370
    15
100
AcDbLine
 10
69.58611650000012
 20
118.8758730000001
 30
0.0
 11
68.71084350000012
 21
118.8758730000001
 31
0.0
  0
LINE
  5
1C9
330
1F
100
AcDbEntity
  8
138
  6
Continuous
 62
     7
370
    15
100
AcDbLine
 10
69.86225850000011
 20
118.2092060000001
 30
0.0
 11
67.26225850000012
 21
118.2092060000001
 31
0.0
  0
ARC
  5
1CA
330
1F
100
AcDbEntity
  8
138
  6
Continuous
 62
     7
370
    15
100
AcDbCircle
 10
72.83856950000012
 20
119.54254
 30
0.0
 40
1.666667000000004
100
AcDbArc
 50
269.9999999999998
 51
314.9999999999997
  0
ARC
  5
1CB
330
1F
100
AcDbEntity
  8
138
  6
Continuous
 62
     7
370
    15
100
AcDbCircle
 10
72.5624265000001
 20
119.54254
 30
0.0
 40
2.333332999999996
100
AcDbArc
 50
269.9999999999998
 51
314.9999999999997
  0
ARC
  5
1CC
330
1F
100
AcDbEntity
  8
138
  6
Continuous
 62
     7
370
    15
100
AcDbCircle
 10
74.80506750000012
 20
118.2092060000001
 30
0.0
 40
0.6666670000000039
100
AcDbArc
 50
89.99999999999991
 51
135.0
  0
LINE
  5
1CD
330
1F
100
AcDbEntity
  8
138
  6
Continuous
 62
     7
370
    15
100
AcDbLine
 10
71.55261450000012
 20
117.8758730000001
 30
0.0
 11
72.19559150000012
 21
117.8758730000001
 31
0.0
  0
LINE
  5
1CE
330
1F
100
AcDbEntity
  8
138
  6
Continuous
 62
     7
370
    15
100
AcDbLine
 10
70.05752050000012
 20
118.6806110000001
 30
0.0
 11
70.3741035000001
 21
118.364028
 31
0.0
  0
LINE
  5
1CF
330
1F
100
AcDbEntity
  8
138
  6
Continuous
 62
     7
370
    15
100
AcDbLine
 10
69.86225850000011
 20
118.2092060000001
 30
0.0
 11
70.17884050000012
 21
117.8926240000001
 31
0.0
  0
LINE
  5
1D0
330
1F
100
AcDbEntity
  8
138
  6
Continuous
 62
     7
370
    15
100
AcDbLine
 10
71.82875650000011
 20
117.2092060000001
 30
0.0
 11
72.19559150000012
 21
117.2092060000001
 31
0.0
  0
ARC
  5
1D1
330
1F
100
AcDbEntity
  8
138
  6
Continuous
 62
     7
370
    15
100
AcDbCircle
 10
71.55261450000012
 20
119.54254
 30
0.0
 40
1.666667000000004
100
AcDbArc
 50
224.9999999999996
 51
269.9999999999998
  0
ARC
  5
1D2
330
1F
100
AcDbEntity
  8
138
  6
Continuous
 62
     7
370
    15
100
AcDbCircle
 10
71.82875650000011
 20
119.54254
 30
0.0
 40
2.333332999999996
100
AcDbArc
 50
224.9999999999996
 51
269.9999999999998
  0
ARC
  5
1D3
330
1F
100
AcDbEntity
  8
138
  6
Continuous
 62
     7
370
    15
100
AcDbCircle
 10
69.58611650000012
 20
118.2092060000001
 30
0.0
 40
0.6666670000000039
100
AcDbArc
 50
45.0
 51
89.99999999999991
  0
ARC
  5
1D4
330
1F
100
AcDbEntity
  8
138
  6
Continuous
 62
     7
370
    15
100
AcDbCircle
 10
52.9955915000001
 20
131.7092060000001
 30
0.0
 40
2.333333000000003
100
AcDbArc
 50
0.0
 51
59.64022190249479
  0
ARC
  5
1D5
330
1F
100
AcDbEntity
  8
138
  6
Continuous
 62
     7
370
    15
100
AcDbCircle
 10
62.32892550000011
 20
131.7092060000001
 30
0.0
 40
2.333333000000003
100
AcDbArc
 50
0.0
 51
179.9999999999998
  0
LINE
  5
1D6
330
1F
100
AcDbEntity
  8
138
  6
Continuous
 62
     7
370
    15
100
AcDbLine
 10
64.66225850000012
 20
118.815993
 30
0.0
 11
64.66225850000012
 21
131.7092060000001
 31
0.0
  0
LINE
  5
1D7
330
1F
100
AcDbEntity
  8
138
  6
Continuous
 62
     7
370
    15
100
AcDbLine
 10
64.1504135000001
 20
118.364028
 30
0.0
 11
64.1504135000001
 21
124.120355
 31
0.0
  0
LINE
  5
1D8
330
1F
100
AcDbEntity
  8
138
  6
Continuous
 62
     7
370
    15
100
AcDbLine
 10
60.5074365000001
 20
118.364028
 30
0.0
 11
60.5074365000001
 21
124.120355
 31
0.0
  0
LINE
  5
1D9
330
1F
100
AcDbEntity
  8
138
  6
Continuous
 62
     7
370
    15
100
AcDbLine
 10
59.9955915000001
 20
118.815993
 30
0.0
 11
59.9955915000001
 21
131.7092060000001
 31
0.0
  0
ARC
  5
1DA
330
1F
100
AcDbEntity
  8
138
  6
Continuous
 62
     7
370
    15
100
AcDbCircle
 10
72.19559150000012
 20
131.7092060000001
 30
0.0
 40
2.333332999999996
100
AcDbArc
 50
0.0
 51
179.9999999999998
  0
LINE
  5
1DB
330
1F
100
AcDbEntity
  8
138
  6
Continuous
 62
     7
370
    15
100
AcDbLine
 10
74.5289255000001
 20
118.815993
 30
0.0
 11
74.5289255000001
 21
131.7092060000001
 31
0.0
  0
LINE
  5
1DC
330
1F
100
AcDbEntity
  8
138
  6
Continuous
 62
     7
370
    15
100
AcDbLine
 10
74.0170805000001
 20
118.364028
 30
0.0
 11
74.0170805000001
 21
124.120355
 31
0.0
  0
LINE
  5
1DD
330
1F
100
AcDbEntity
  8
138
  6
Continuous
 62
     7
370
    15
100
AcDbLine
 10
70.3741035000001
 20
118.364028
 30
0.0
 11
70.3741035000001
 21
124.120355
 31
0.0
  0
LINE
  5
1DE
330
1F
100
AcDbEntity
  8
138
  6
Continuous
 62
     7
370
    15
100
AcDbLine
 10
69.86225850000011
 20
118.815993
 30
0.0
 11
69.86225850000011
 21
131.7092060000001
 31
0.0
  0
ARC
  5
1DF
330
1F
100
AcDbEntity
  8
138
  6
Continuous
 62
     7
370
    15
100
AcDbCircle
 10
81.5289255000001
 20
131.7092060000001
 30
0.0
 40
2.333332999999996
100
AcDbArc
 50
0.0
 51
59.64022190249479
  0
LINE
  5
1E0
330
1F
100
AcDbEntity
  8
138
  6
Continuous
 62
     7
370
    15
100
AcDbLine
 10
83.86225850000011
 20
118.815993
 30
0.0
 11
83.86225850000011
 21
131.7092060000001
 31
0.0
  0
LINE
  5
1E1
330
1F
100
AcDbEntity
  8
138
  6
Continuous
 62
     7
370
    15
100
AcDbLine
 10
83.35041350000012
 20
118.364028
 30
0.0
 11
83.35041350000012
 21
124.120355
 31
0.0
  0
LINE
  5
1E2
330
1F
100
AcDbEntity
  8
138
  6
Continuous
 62
     7
370
    15
100
AcDbLine
 10
79.70743650000011
 20
118.364028
 30
0.0
 11
79.70743650000011
 21
124.120355
 31
0.0
  0
LINE
  5
1E3
330
1F
100
AcDbEntity
  8
138
  6
Continuous
 62
     7
370
    15
100
AcDbLine
 10
79.19559150000012
 20
118.815993
 30
0.0
 11
79.19559150000012
 21
131.7092060000001
 31
0.0
  0
CIRCLE
  5
1E4
330
1F
100
AcDbEntity
  8
138
  6
Continuous
 62
     7
370
    15
100
AcDbCircle
 10
51.26225850000012
 20
156.3758730000001
 30
0.0
 40
2.166666999999997
  0
CIRCLE
  5
1E5
330
1F
100
AcDbEntity
  8
138
  6
Continuous
 62
     7
370
    15
100
AcDbCircle
 10
51.26225850000012
 20
156.3758730000001
 30
0.0
 40
0.8333330000000032
  0
CIRCLE
  5
1E6
330
1F
100
AcDbEntity
  8
138
  6
HIDDEN
 62
     7
370
    15
100
AcDbCircle
 10
51.26225850000012
 20
156.3758730000001
 30
0.0
 40
1.5
  0
CIRCLE
  5
1E7
330
1F
100
AcDbEntity
  8
138
  6
Continuous
 62
     7
370
    15
100
AcDbCircle
 10
51.26225850000012
 20
141.3758730000001
 30
0.0
 40
2.166666999999997
  0
CIRCLE
  5
1E8
330
1F
100
AcDbEntity
  8
138
  6
Continuous
 62
     7
370
    15
100
AcDbCircle
 10
51.26225850000012
 20
141.3758730000001
 30
0.0
 40
0.8333330000000032
  0
CIRCLE
  5
1E9
330
1F
100
AcDbEntity
  8
138
  6
HIDDEN
 62
     7
370
    15
100
AcDbCircle
 10
51.26225850000012
 20
141.3758730000001
 30
0.0
 40
1.5
  0
CIRCLE
  5
1EA
330
1F
100
AcDbEntity
  8
138
  6
Continuous
 62
     7
370
    15
100
AcDbCircle
 10
83.26225850000012
 20
156.3758730000001
 30
0.0
 40
2.166667000000004
  0
CIRCLE
  5
1EB
330
1F
100
AcDbEntity
  8
138
  6
Continuous
 62
     7
370
    15
100
AcDbCircle
 10
83.26225850000012
 20
156.3758730000001
 30
0.0
 40
0.8333329999999961
  0
CIRCLE
  5
1EC
330
1F
100
AcDbEntity
  8
138
  6
HIDDEN
 62
     7
370
    15
100
AcDbCircle
 10
83.26225850000012
 20
156.3758730000001
 30
0.0
 40
1.5
  0
CIRCLE
  5
1ED
330
1F
100
AcDbEntity
  8
138
  6
Continuous
 62
     7
370
    15
100
AcDbCircle
 10
83.26225850000012
 20
141.3758730000001
 30
0.0
 40
2.166667000000004
  0
CIRCLE
  5
1EE
330
1F
100
AcDbEntity
  8
138
  6
Continuous
 62
     7
370
    15
100
AcDbCircle
 10
83.26225850000012
 20
141.3758730000001
 30
0.0
 40
0.8333329999999961
  0
CIRCLE
  5
1EF
330
1F
100
AcDbEntity
  8
138
  6
HIDDEN
 62
     7
370
    15
100
AcDbCircle
 10
83.26225850000012
 20
141.3758730000001
 30
0.0
 40
1.5
  0
LINE
  5
1F0
330
1F
100
AcDbEntity
  8
138
  6
Continuous
 62
     7
370
    15
100
AcDbLine
 10
46.66225850000012
 20
134.04254
 30
0.0
 11
47.7615935000001
 21
134.04254
 31
0.0
  0
LINE
  5
1F1
330
1F
100
AcDbEntity
  8
138
  6
Continuous
 62
     7
370
    15
100
AcDbLine
 10
45.72892550000012
 20
117.0358650000001
 30
0.0
 11
45.9955915000001
 21
117.0358650000001
 31
0.0
  0
CIRCLE
  5
1F2
330
1F
100
AcDbEntity
  8
138
  6
Continuous
 62
     7
370
    15
100
AcDbCircle
 10
65.59559150000013
 20
160.3758730000001
 30
0.0
 40
1.666667000000004
  0
CIRCLE
  5
1F3
330
1F
100
AcDbEntity
  8
138
  6
Continuous
 62
     7
370
    15
100
AcDbCircle
 10
60.5955915000001
 20
160.3758730000001
 30
0.0
 40
1.666666999999997
  0
LINE
  5
1F4
330
1F
100
AcDbEntity
  8
138
  6
Continuous
 62
     7
370
    15
100
AcDbLine
 10
70.59559150000013
 20
158.7092060000001
 30
0.0
 11
77.26225850000012
 21
158.7092060000001
 31
0.0
  0
LINE
  5
1F5
330
1F
100
AcDbEntity
  8
138
  6
Continuous
 62
     7
370
    15
100
AcDbLine
 10
70.59559150000013
 20
158.7092060000001
 30
0.0
 11
70.59559150000013
 21
160.3758730000001
 31
0.0
  0
LINE
  5
1F6
330
1F
100
AcDbEntity
  8
138
  6
Continuous
 62
     7
370
    15
100
AcDbLine
 10
70.59559150000013
 20
160.3758730000001
 30
0.0
 11
77.26225850000012
 21
160.3758730000001
 31
0.0
  0
LINE
  5
1F7
330
1F
100
AcDbEntity
  8
138
  6
Continuous
 62
     7
370
    15
100
AcDbLine
 10
77.26225850000012
 20
158.7092060000001
 30
0.0
 11
77.26225850000012
 21
160.3758730000001
 31
0.0
  0
LINE
  5
1F8
330
1F
100
AcDbEntity
  8
142
  6
Continuous
 62
     7
370
    15
100
AcDbLine
 10
76.3194495000001
 20
160.3758730000001
 30
0.0
 11
77.26225850000012
 21
159.4330640000001
 31
0.0
  0
LINE
  5
1F9
330
1F
100
AcDbEntity
  8
142
  6
Continuous
 62
     7
370
    15
100
AcDbLine
 10
75.37664050000012
 20
160.3758730000001
 30
0.0
 11
77.04330750000011
 21
158.7092060000001
 31
0.0
  0
LINE
  5
1FA
330
1F
100
AcDbEntity
  8
142
  6
Continuous
 62
     7
370
    15
100
AcDbLine
 10
74.43383150000011
 20
160.3758730000001
 30
0.0
 11
76.10049750000013
 21
158.7092060000001
 31
0.0
  0
LINE
  5
1FB
330
1F
100
AcDbEntity
  8
142
  6
Continuous
 62
     7
370
    15
100
AcDbLine
 10
73.49102250000013
 20
160.3758730000001
 30
0.0
 11
75.15768850000012
 21
158.7092060000001
 31
0.0
  0
LINE
  5
1FC
330
1F
100
AcDbEntity
  8
142
  6
Continuous
 62
     7
370
    15
100
AcDbLine
 10
72.54821350000012
 20
160.3758730000001
 30
0.0
 11
74.21487950000011
 21
158.7092060000001
 31
0.0
  0
LINE
  5
1FD
330
1F
100
AcDbEntity
  8
142
  6
Continuous
 62
     7
370
    15
100
AcDbLine
 10
71.6054045000001
 20
160.3758730000001
 30
0.0
 11
73.27207050000013
 21
158.7092060000001
 31
0.0
  0
LINE
  5
1FE
330
1F
100
AcDbEntity
  8
142
  6
Continuous
 62
     7
370
    15
100
AcDbLine
 10
70.66259550000012
 20
160.3758730000001
 30
0.0
 11
72.32926150000011
 21
158.7092060000001
 31
0.0
  0
LINE
  5
1FF
330
1F
100
AcDbEntity
  8
142
  6
Continuous
 62
     7
370
    15
100
AcDbLine
 10
70.59559150000013
 20
159.5000670000001
 30
0.0
 11
71.3864525000001
 21
158.7092060000001
 31
0.0
  0
LINE
  5
200
330
1F
100
AcDbEntity
  8
138
  6
Continuous
 62
     7
370
    15
100
AcDbLine
 10
46.66225850000012
 20
164.04254
 30
0.0
 11
87.86225850000011
 21
164.04254
 31
0.0
  0
LINE
  5
201
330
1F
100
AcDbEntity
  8
138
  6
Continuous
 62
     7
370
    15
100
AcDbLine
 10
51.17410350000011
 20
125.7558750000001
 30
0.0
 11
51.17410350000011
 21
131.16567
 31
0.0
  0
LINE
  5
202
330
1F
100
AcDbEntity
  8
138
  6
Continuous
 62
     7
370
    15
100
AcDbLine
 10
54.81708050000012
 20
125.7558750000001
 30
0.0
 11
54.81708050000012
 21
131.16567
 31
0.0
  0
LINE
  5
203
330
1F
100
AcDbEntity
  8
138
  6
Continuous
 62
     7
370
    15
100
AcDbLine
 10
60.5074365000001
 20
125.7558750000001
 30
0.0
 11
60.5074365000001
 21
131.16567
 31
0.0
  0
LINE
  5
204
330
1F
100
AcDbEntity
  8
138
  6
Continuous
 62
     7
370
    15
100
AcDbLine
 10
64.1504135000001
 20
125.7558750000001
 30
0.0
 11
64.1504135000001
 21
131.16567
 31
0.0
  0
LINE
  5
205
330
1F
100
AcDbEntity
  8
138
  6
Continuous
 62
     7
370
    15
100
AcDbLine
 10
70.3741035000001
 20
125.7558750000001
 30
0.0
 11
70.3741035000001
 21
131.16567
 31
0.0
  0
LINE
  5
206
330
1F
100
AcDbEntity
  8
138
  6
Continuous
 62
     7
370
    15
100
AcDbLine
 10
74.0170805000001
 20
125.7558750000001
 30
0.0
 11
74.0170805000001
 21
131.16567
 31
0.0
  0
LINE
  5
207
330
1F
100
AcDbEntity
  8
138
  6
Continuous
 62
     7
370
    15
100
AcDbLine
 10
79.70743650000011
 20
125.7558750000001
 30
0.0
 11
79.70743650000011
 21
131.16567
 31
0.0
  0
LINE
  5
208
330
1F
100
AcDbEntity
  8
138
  6
Continuous
 62
     7
370
    15
100
AcDbLine
 10
83.35041350000012
 20
125.7558750000001
 30
0.0
 11
83.35041350000012
 21
131.16567
 31
0.0
  0
LINE
  5
209
330
1F
100
AcDbEntity
  8
138
  6
Continuous
 62
     7
370
    15
100
AcDbLine
 10
50.09108250000011
 20
118.8758730000001
 30
0.0
 11
50.3861165000001
 21
118.8758730000001
 31
0.0
  0
LINE
  5
20A
330
1F
100
AcDbEntity
  8
138
  6
Continuous
 62
     7
370
    15
100
AcDbLine
 10
59.2751535000001
 20
118.8758730000001
 30
0.0
 11
59.71944950000011
 21
118.8758730000001
 31
0.0
  0
LINE
  5
20B
330
1F
100
AcDbEntity
  8
138
  6
Continuous
 62
     7
370
    15
100
AcDbLine
 10
67.07532350000011
 20
118.8758730000001
 30
0.0
 11
67.26225850000012
 21
118.8758730000001
 31
0.0
  0
LINE
  5
20C
330
1F
100
AcDbEntity
  8
138
  6
Continuous
 62
     7
370
    15
100
AcDbLine
 10
67.64146550000012
 20
118.8758730000001
 30
0.0
 11
67.26225850000012
 21
118.8758730000001
 31
0.0
  0
LINE
  5
20D
330
1F
100
AcDbEntity
  8
138
  6
Continuous
 62
     7
370
    15
100
AcDbLine
 10
75.19001750000012
 20
118.8758730000001
 30
0.0
 11
74.80506750000012
 21
118.8758730000001
 31
0.0
  0
LINE
  5
20E
330
1F
100
AcDbEntity
  8
138
  6
Continuous
 62
     7
370
    15
100
AcDbLine
 10
84.37408850000011
 20
118.8758730000001
 30
0.0
 11
84.1384005000001
 21
118.8758730000001
 31
0.0
  0
LINE
  5
20F
330
1F
100
AcDbEntity
  8
138
  6
HIDDEN
 62
     7
370
    15
100
AcDbLine
 10
221.217772982996
 20
163.386961
 30
0.0
 11
221.572221982996
 21
163.3931480000001
 31
0.0
  0
LINE
  5
210
330
1F
100
AcDbEntity
  8
135
  6
Continuous
 62
     4
370
    15
100
AcDbLine
 10
184.0927359829961
 20
103.875873
 30
0.0
 11
184.0927359829961
 21
124.2643142151723
 31
0.0
  0
LINE
  5
211
330
1F
100
AcDbEntity
  8
140
  6
DASHDOT
 62
     1
370
    15
100
AcDbLine
 10
207.2622585000001
 20
169.537332
 30
0.0
 11
207.2622585000001
 21
107.8098890000001
 31
0.0
  0
LINE
  5
212
330
1F
100
AcDbEntity
  8
135
  6
Continuous
 62
     4
370
    15
100
AcDbLine
 10
227.426068982996
 20
103.875873
 30
0.0
 11
227.426068982996
 21
133.5426500954319
 31
0.0
  0
LINE
  5
213
330
1F
100
AcDbEntity
  8
135
  6
Continuous
 62
     4
370
    15
100
AcDbLine
 10
184.0927359829961
 20
104.375873
 30
0.0
 11
227.426068982996
 21
104.375873
 31
0.0
  0
LINE
  5
214
330
1F
100
AcDbEntity
  8
135
  6
Continuous
 62
     4
370
    15
100
AcDbLine
 10
184.0927359829961
 20
104.375873
 30
0.0
 11
185.5416239829961
 21
104.764102
 31
0.0
  0
LINE
  5
215
330
1F
100
AcDbEntity
  8
135
  6
Continuous
 62
     4
370
    15
100
AcDbLine
 10
184.0927359829961
 20
104.375873
 30
0.0
 11
185.5416239829961
 21
103.987644
 31
0.0
  0
LINE
  5
216
330
1F
100
AcDbEntity
  8
135
  6
Continuous
 62
     4
370
    15
100
AcDbLine
 10
227.426068982996
 20
104.375873
 30
0.0
 11
225.977179982996
 21
104.764102
 31
0.0
  0
LINE
  5
217
330
1F
100
AcDbEntity
  8
135
  6
Continuous
 62
     4
370
    15
100
AcDbLine
 10
227.426068982996
 20
104.375873
 30
0.0
 11
225.977179982996
 21
103.987644
 31
0.0
  0
LINE
  5
218
330
1F
100
AcDbEntity
  8
135
  6
Continuous
 62
     4
370
    15
100
AcDbLine
 10
210.5670902526062
 20
115.7092060000001
 30
0.0
 11
251.126068982996
 21
115.7092060000001
 31
0.0
  0
LINE
  5
219
330
1F
100
AcDbEntity
  8
140
  6
DASHDOT
 62
     1
370
    15
100
AcDbLine
 10
224.0245278276777
 20
136.379206
 30
0.0
 11
228.9215714436456
 21
136.379206
 31
0.0
  0
LINE
  5
21A
330
1F
100
AcDbEntity
  8
140
  6
DASHDOT
 62
     1
370
    15
100
AcDbLine
 10
224.6174693275598
 20
161.379206
 30
0.0
 11
228.9943453359541
 21
161.379206
 31
0.0
  0
LINE
  5
21B
330
1F
100
AcDbEntity
  8
135
  6
Continuous
 62
     4
370
    15
100
AcDbLine
 10
228.0927359829961
 20
134.375873
 30
0.0
 11
251.126068982996
 21
134.375873
 31
0.0
  0
LINE
  5
21C
330
1F
100
AcDbEntity
  8
135
  6
Continuous
 62
     4
370
    15
100
AcDbLine
 10
228.0927359829961
 20
164.7092060000001
 30
0.0
 11
251.126068982996
 21
164.7092060000001
 31
0.0
  0
LINE
  5
21D
330
1F
100
AcDbEntity
  8
140
  6
DASHDOT
 62
     1
370
    15
100
AcDbLine
 10
179.2970985000001
 20
141.7998030000001
 30
0.0
 11
228.4792605000002
 21
141.7998030000001
 31
0.0
  0
LINE
  5
21E
330
1F
100
AcDbEntity
  8
135
  6
Continuous
 62
     4
370
    15
100
AcDbLine
 10
218.0927359829961
 20
164.7092060000001
 30
0.0
 11
218.0927359829959
 21
173.230976
 31
0.0
  0
LINE
  5
21F
330
1F
100
AcDbEntity
  8
135
  6
Continuous
 62
     4
370
    15
100
AcDbLine
 10
227.426068982996
 20
165.421051
 30
0.0
 11
227.426068982996
 21
173.230976
 31
0.0
  0
LINE
  5
220
330
1F
100
AcDbEntity
  8
135
  6
Continuous
 62
     4
370
    15
100
AcDbLine
 10
225.926068982996
 20
172.730976
 30
0.0
 11
219.5927359829961
 21
172.730976
 31
0.0
  0
INSERT
  5
227
330
1F
100
AcDbEntity
  8
0
100
AcDbBlockReference
  2
*G12
 10
0.0
 20
0.0
 30
0.0
  0
INSERT
  5
22E
330
1F
100
AcDbEntity
  8
0
100
AcDbBlockReference
  2
*G13
 10
0.0
 20
0.0
 30
0.0
  0
LINE
  5
22F
330
1F
100
AcDbEntity
  8
135
  6
Continuous
 62
     4
370
    15
100
AcDbLine
 10
250.626068982996
 20
134.375873
 30
0.0
 11
250.626068982996
 21
164.7092060000001
 31
0.0
  0
LINE
  5
230
330
1F
100
AcDbEntity
  8
135
  6
Continuous
 62
     4
370
    15
100
AcDbLine
 10
244.5927359829961
 20
136.379206
 30
0.0
 11
244.5927359829961
 21
161.379206
 31
0.0
  0
LINE
  5
231
330
1F
100
AcDbEntity
  8
135
  6
Continuous
 62
     4
370
    15
100
AcDbLine
 10
250.626068982996
 20
115.7092060000001
 30
0.0
 11
250.626068982996
 21
134.375873
 31
0.0
  0
LINE
  5
232
330
1F
100
AcDbEntity
  8
135
  6
Continuous
 62
     4
370
    15
100
AcDbLine
 10
250.626068982996
 20
115.7092060000001
 30
0.0
 11
251.0142979829961
 21
117.1580950000001
 31
0.0
  0
LINE
  5
233
330
1F
100
AcDbEntity
  8
135
  6
Continuous
 62
     4
370
    15
100
AcDbLine
 10
250.626068982996
 20
115.7092060000001
 30
0.0
 11
250.237839982996
 21
117.1580950000001
 31
0.0
  0
LINE
  5
234
330
1F
100
AcDbEntity
  8
135
  6
Continuous
 62
     4
370
    15
100
AcDbLine
 10
250.626068982996
 20
134.375873
 30
0.0
 11
251.0142979829961
 21
135.824762
 31
0.0
  0
LINE
  5
235
330
1F
100
AcDbEntity
  8
135
  6
Continuous
 62
     4
370
    15
100
AcDbLine
 10
250.626068982996
 20
134.375873
 30
0.0
 11
250.237839982996
 21
135.824762
 31
0.0
  0
LINE
  5
236
330
1F
100
AcDbEntity
  8
135
  6
Continuous
 62
     4
370
    15
100
AcDbLine
 10
250.626068982996
 20
134.375873
 30
0.0
 11
251.0142979829961
 21
132.9269840000001
 31
0.0
  0
LINE
  5
237
330
1F
100
AcDbEntity
  8
135
  6
Continuous
 62
     4
370
    15
100
AcDbLine
 10
250.626068982996
 20
134.375873
 30
0.0
 11
250.237839982996
 21
132.9269840000001
 31
0.0
  0
LINE
  5
238
330
1F
100
AcDbEntity
  8
135
  6
Continuous
 62
     4
370
    15
100
AcDbLine
 10
244.5927359829961
 20
136.379206
 30
0.0
 11
244.980963982996
 21
137.828095
 31
0.0
  0
LINE
  5
239
330
1F
100
AcDbEntity
  8
135
  6
Continuous
 62
     4
370
    15
100
AcDbLine
 10
244.5927359829961
 20
136.379206
 30
0.0
 11
244.204506982996
 21
137.828095
 31
0.0
  0
LINE
  5
23A
330
1F
100
AcDbEntity
  8
135
  6
Continuous
 62
     4
370
    15
100
AcDbLine
 10
244.5927359829961
 20
161.379206
 30
0.0
 11
244.5927359829961
 21
164.7092060000001
 31
0.0
  0
LINE
  5
23B
330
1F
100
AcDbEntity
  8
135
  6
Continuous
 62
     4
370
    15
100
AcDbLine
 10
244.5927359829961
 20
161.379206
 30
0.0
 11
244.980963982996
 21
159.930317
 31
0.0
  0
LINE
  5
23C
330
1F
100
AcDbEntity
  8
135
  6
Continuous
 62
     4
370
    15
100
AcDbLine
 10
244.5927359829961
 20
161.379206
 30
0.0
 11
244.204506982996
 21
159.930317
 31
0.0
  0
LINE
  5
23D
330
1F
100
AcDbEntity
  8
135
  6
Continuous
 62
     4
370
    15
100
AcDbLine
 10
244.5927359829961
 20
161.379206
 30
0.0
 11
244.980963982996
 21
162.828095
 31
0.0
  0
LINE
  5
23E
330
1F
100
AcDbEntity
  8
135
  6
Continuous
 62
     4
370
    15
100
AcDbLine
 10
244.5927359829961
 20
161.379206
 30
0.0
 11
244.204506982996
 21
162.828095
 31
0.0
  0
LINE
  5
23F
330
1F
100
AcDbEntity
  8
135
  6
Continuous
 62
     4
370
    15
100
AcDbLine
 10
244.5927359829961
 20
164.7092060000001
 30
0.0
 11
244.980963982996
 21
163.260318
 31
0.0
  0
LINE
  5
240
330
1F
100
AcDbEntity
  8
135
  6
Continuous
 62
     4
370
    15
100
AcDbLine
 10
244.5927359829961
 20
164.7092060000001
 30
0.0
 11
244.204506982996
 21
163.260318
 31
0.0
  0
LINE
  5
241
330
1F
100
AcDbEntity
  8
135
  6
Continuous
 62
     4
370
    15
100
AcDbLine
 10
250.626068982996
 20
164.7092060000001
 30
0.0
 11
251.0142979829961
 21
163.260318
 31
0.0
  0
LINE
  5
242
330
1F
100
AcDbEntity
  8
135
  6
Continuous
 62
     4
370
    15
100
AcDbLine
 10
250.626068982996
 20
164.7092060000001
 30
0.0
 11
250.237839982996
 21
163.260318
 31
0.0
  0
LINE
  5
243
330
1F
100
AcDbEntity
  8
140
  6
DASHDOT
 62
     1
370
    15
100
AcDbLine
 10
137.2695225000002
 20
90.14038495585191
 30
0.0
 11
137.2695225000001
 21
37.14038495585191
 31
0.0
  0
LINE
  5
244
330
1F
100
AcDbEntity
  8
135
  6
Continuous
 62
     4
370
    15
100
AcDbLine
 10
105.7361885000001
 20
83.64038495585191
 30
0.0
 11
105.7361885000001
 21
43.30705095585188
 31
0.0
  0
LINE
  5
245
330
1F
100
AcDbEntity
  8
140
  6
DASHDOT
 62
     1
370
    15
100
AcDbLine
 10
110.7361885000001
 20
64.9737179558519
 30
0.0
 11
163.8028555000001
 21
64.9737179558519
 31
0.0
  0
LINE
  5
246
330
1F
100
AcDbEntity
  8
135
  6
Continuous
 62
     4
370
    15
100
AcDbLine
 10
115.5028555000001
 20
41.80705095585188
 30
0.0
 11
105.2361885000001
 21
41.80705095585188
 31
0.0
  0
INSERT
  5
24D
330
1F
100
AcDbEntity
  8
0
100
AcDbBlockReference
  2
*G14
 10
0.0
 20
0.0
 30
0.0
  0
LINE
  5
24E
330
1F
100
AcDbEntity
  8
135
  6
Continuous
 62
     4
370
    15
100
AcDbLine
 10
105.2361885000001
 20
85.14038495585191
 30
0.0
 11
115.5028555000001
 21
85.14038495585191
 31
0.0
  0
INSERT
  5
255
330
1F
100
AcDbEntity
  8
0
100
AcDbBlockReference
  2
*G15
 10
0.0
 20
0.0
 30
0.0
  0
LINE
  5
256
330
1F
100
AcDbEntity
  8
135
  6
Continuous
 62
     4
370
    15
100
AcDbLine
 10
158.8028550000001
 20
160.7927940000001
 30
0.0
 11
158.8028550000001
 21
180.2092060000001
 31
0.0
  0
LINE
  5
257
330
1F
100
AcDbEntity
  8
135
  6
Continuous
 62
     4
370
    15
100
AcDbLine
 10
115.7361880000001
 20
161.1494280000001
 30
0.0
 11
115.7361880000001
 21
180.2092060000001
 31
0.0
  0
LINE
  5
258
330
1F
100
AcDbEntity
  8
140
  6
DASHDOT
 62
     1
370
    15
100
AcDbLine
 10
137.2622585000001
 20
169.7092059999999
 30
0.0
 11
137.2622585000001
 21
111.4591079558519
 31
0.0
  0
LINE
  5
259
330
1F
100
AcDbEntity
  8
135
  6
Continuous
 62
     4
370
    15
100
AcDbLine
 10
105.7028550000001
 20
115.7092060000001
 30
0.0
 11
105.7028550000001
 21
164.7092060000001
 31
0.0
  0
LINE
  5
25A
330
1F
100
AcDbEntity
  8
140
  6
DASHDOT
 62
     1
370
    15
100
AcDbLine
 10
163.7992235000001
 20
141.7982700000001
 30
0.0
 11
110.7325565000001
 21
141.7982700000001
 31
0.0
  0
LINE
  5
25B
330
1F
100
AcDbEntity
  8
135
  6
Continuous
 62
     4
370
    15
100
AcDbLine
 10
105.2028550000001
 20
115.7092060000001
 30
0.0
 11
115.5028550000001
 21
115.7092060000001
 31
0.0
  0
LINE
  5
25C
330
1F
100
AcDbEntity
  8
135
  6
Continuous
 62
     4
370
    15
100
AcDbLine
 10
105.7028550000001
 20
115.7092060000001
 30
0.0
 11
105.3146260000001
 21
117.1580950000001
 31
0.0
  0
LINE
  5
25D
330
1F
100
AcDbEntity
  8
135
  6
Continuous
 62
     4
370
    15
100
AcDbLine
 10
105.7028550000001
 20
115.7092060000001
 30
0.0
 11
106.0910840000001
 21
117.1580950000001
 31
0.0
  0
LINE
  5
25E
330
1F
100
AcDbEntity
  8
135
  6
Continuous
 62
     4
370
    15
100
AcDbLine
 10
116.6695220000001
 20
174.709206
 30
0.0
 11
157.8695220000001
 21
174.709206
 31
0.0
  0
LINE
  5
25F
330
1F
100
AcDbEntity
  8
135
  6
Continuous
 62
     4
370
    15
100
AcDbLine
 10
105.2028550000001
 20
164.7092060000001
 30
0.0
 11
115.5028550000001
 21
164.7092060000001
 31
0.0
  0
LINE
  5
260
330
1F
100
AcDbEntity
  8
135
  6
Continuous
 62
     4
370
    15
100
AcDbLine
 10
105.7028550000001
 20
164.7092060000001
 30
0.0
 11
105.3146260000001
 21
163.260318
 31
0.0
  0
LINE
  5
261
330
1F
100
AcDbEntity
  8
135
  6
Continuous
 62
     4
370
    15
100
AcDbLine
 10
105.7028550000001
 20
164.7092060000001
 30
0.0
 11
106.0910840000001
 21
163.260318
 31
0.0
  0
LINE
  5
262
330
1F
100
AcDbEntity
  8
135
  6
Continuous
 62
     4
370
    15
100
AcDbLine
 10
116.6695220000001
 20
165.209206
 30
0.0
 11
116.6695220000001
 21
175.209206
 31
0.0
  0
LINE
  5
263
330
1F
100
AcDbEntity
  8
135
  6
Continuous
 62
     4
370
    15
100
AcDbLine
 10
116.6695220000001
 20
174.709206
 30
0.0
 11
118.1184100000002
 21
175.097435
 31
0.0
  0
LINE
  5
264
330
1F
100
AcDbEntity
  8
135
  6
Continuous
 62
     4
370
    15
100
AcDbLine
 10
116.6695220000001
 20
174.709206
 30
0.0
 11
118.1184100000002
 21
174.320978
 31
0.0
  0
LINE
  5
265
330
1F
100
AcDbEntity
  8
135
  6
Continuous
 62
     4
370
    15
100
AcDbLine
 10
157.8695220000001
 20
165.209206
 30
0.0
 11
157.8695220000001
 21
175.209206
 31
0.0
  0
LINE
  5
266
330
1F
100
AcDbEntity
  8
135
  6
Continuous
 62
     4
370
    15
100
AcDbLine
 10
157.8695220000001
 20
174.709206
 30
0.0
 11
156.4206330000002
 21
175.097435
 31
0.0
  0
LINE
  5
267
330
1F
100
AcDbEntity
  8
135
  6
Continuous
 62
     4
370
    15
100
AcDbLine
 10
157.8695220000001
 20
174.709206
 30
0.0
 11
156.4206330000002
 21
174.320978
 31
0.0
  0
LINE
  5
268
330
1F
100
AcDbEntity
  8
135
  6
Continuous
 62
     4
370
    15
100
AcDbLine
 10
115.7361880000001
 20
179.7092060000001
 30
0.0
 11
158.8028550000001
 21
179.7092060000001
 31
0.0
  0
LINE
  5
269
330
1F
100
AcDbEntity
  8
135
  6
Continuous
 62
     4
370
    15
100
AcDbLine
 10
115.7361880000001
 20
179.7092060000001
 30
0.0
 11
117.1850770000001
 21
180.097435
 31
0.0
  0
LINE
  5
26A
330
1F
100
AcDbEntity
  8
135
  6
Continuous
 62
     4
370
    15
100
AcDbLine
 10
115.7361880000001
 20
179.7092060000001
 30
0.0
 11
117.1850770000001
 21
179.320978
 31
0.0
  0
LINE
  5
26B
330
1F
100
AcDbEntity
  8
135
  6
Continuous
 62
     4
370
    15
100
AcDbLine
 10
158.8028550000001
 20
179.7092060000001
 30
0.0
 11
157.3539660000001
 21
180.097435
 31
0.0
  0
LINE
  5
26C
330
1F
100
AcDbEntity
  8
135
  6
Continuous
 62
     4
370
    15
100
AcDbLine
 10
158.8028550000001
 20
179.7092060000001
 30
0.0
 11
157.3539660000001
 21
179.320978
 31
0.0
  0
LINE
  5
26D
330
1F
100
AcDbEntity
  8
135
  6
Continuous
 62
     4
370
    15
100
AcDbLine
 10
87.29489150000009
 20
179.7092060000001
 30
0.0
 11
47.22822550000009
 21
179.7092060000001
 31
0.0
  0
LINE
  5
26E
330
1F
100
AcDbEntity
  8
135
  6
Continuous
 62
     4
370
    15
100
AcDbLine
 10
83.26155850000015
 20
165.3571300354146
 30
0.0
 11
83.26155850000015
 21
175.2092060000001
 31
0.0
  0
LINE
  5
26F
330
1F
100
AcDbEntity
  8
135
  6
Continuous
 62
     4
370
    15
100
AcDbLine
 10
51.2615585000001
 20
174.7092060000001
 30
0.0
 11
83.26155850000015
 21
174.7092060000001
 31
0.0
  0
LINE
  5
270
330
1F
100
AcDbEntity
  8
135
  6
Continuous
 62
     4
370
    15
100
AcDbLine
 10
83.26155850000015
 20
174.7092060000001
 30
0.0
 11
81.81266950000014
 21
174.3209780000001
 31
0.0
  0
LINE
  5
271
330
1F
100
AcDbEntity
  8
135
  6
Continuous
 62
     4
370
    15
100
AcDbLine
 10
83.26155850000015
 20
174.7092060000001
 30
0.0
 11
81.81266950000014
 21
175.0974350000001
 31
0.0
  0
LINE
  5
272
330
1F
100
AcDbEntity
  8
135
  6
Continuous
 62
     4
370
    15
100
AcDbLine
 10
88.79489150000009
 20
165.2092060000001
 30
0.0
 11
88.79489150000009
 21
180.2092060000001
 31
0.0
  0
INSERT
  5
279
330
1F
100
AcDbEntity
  8
0
100
AcDbBlockReference
  2
*G16
 10
0.0
 20
0.0
 30
0.0
  0
LINE
  5
27A
330
1F
100
AcDbEntity
  8
135
  6
Continuous
 62
     4
370
    15
100
AcDbLine
 10
51.2615585000001
 20
165.3381684276695
 30
0.0
 11
51.2615585000001
 21
175.2092060000001
 31
0.0
  0
LINE
  5
27B
330
1F
100
AcDbEntity
  8
135
  6
Continuous
 62
     4
370
    15
100
AcDbLine
 10
45.72822550000015
 20
165.2092060000001
 30
0.0
 11
45.72822550000015
 21
180.2092060000001
 31
0.0
  0
LINE
  5
27C
330
1F
100
AcDbEntity
  8
135
  6
Continuous
 62
     4
370
    15
100
AcDbLine
 10
51.2615585000001
 20
174.7092060000001
 30
0.0
 11
52.71044750000011
 21
174.3209780000001
 31
0.0
  0
LINE
  5
27D
330
1F
100
AcDbEntity
  8
135
  6
Continuous
 62
     4
370
    15
100
AcDbLine
 10
51.2615585000001
 20
174.7092060000001
 30
0.0
 11
52.71044750000011
 21
175.0974350000001
 31
0.0
  0
INSERT
  5
284
330
1F
100
AcDbEntity
  8
0
100
AcDbBlockReference
  2
*G17
 10
0.0
 20
0.0
 30
0.0
  0
LINE
  5
285
330
1F
100
AcDbEntity
  8
140
  6
DASHDOT
 62
     1
370
    15
100
AcDbLine
 10
51.2615585000001
 20
133.4873157422941
 30
0.0
 11
51.2615585000001
 21
164.4304695721116
 31
0.0
  0
LINE
  5
286
330
1F
100
AcDbEntity
  8
140
  6
DASHDOT
 62
     1
370
    15
100
AcDbLine
 10
83.26155850000015
 20
133.4996112835738
 30
0.0
 11
83.26155850000015
 21
164.325062458004
 31
0.0
  0
LINE
  5
287
330
1F
100
AcDbEntity
  8
140
  6
DASHDOT
 62
     1
370
    15
100
AcDbLine
 10
67.26225850000012
 20
169.709206
 30
0.0
 11
67.26225850000012
 21
112.1403849558519
 31
0.0
  0
TEXT
  5
288
330
1F
100
AcDbEntity
  8
136
  6
Continuous
 62
     7
370
    15
100
AcDbText
 10
105.2401617611951
 20
61.14398640665738
 30
0.0
 40
2.499996250002255
  1
130
 50
89.99999999999991
100
AcDbText
  0
TEXT
  5
289
330
1F
100
AcDbEntity
  8
136
  6
Continuous
 62
     7
370
    15
100
AcDbText
 10
65.62760131608005
 20
175.2052327388051
 30
0.0
 40
2.499996250002255
  1
96
100
AcDbText
  0
TEXT
  5
28A
330
1F
100
AcDbEntity
  8
136
  6
Continuous
 62
     7
370
    15
100
AcDbText
 10
105.206828261195
 20
137.6951759508055
 30
0.0
 40
2.499996250002255
  1
147
 50
89.99999999999991
100
AcDbText
  0
TEXT
  5
28B
330
1F
100
AcDbEntity
  8
136
  6
Continuous
 62
     7
370
    15
100
AcDbText
 10
134.9397904508056
 20
175.2052327388051
 30
0.0
 40
2.499996250002255
  1
122
100
AcDbText
  0
TEXT
  5
28C
330
1F
100
AcDbEntity
  8
136
  6
Continuous
 62
     7
370
    15
100
AcDbText
 10
64.93182695080554
 20
180.2052327388051
 30
0.0
 40
2.499996250002255
  1
128
100
AcDbText
  0
TEXT
  5
28D
330
1F
100
AcDbEntity
  8
136
  6
Continuous
 62
     7
370
    15
100
AcDbText
 10
134.9397899508056
 20
180.2052327388051
 30
0.0
 40
2.499996250002255
  1
128
100
AcDbText
  0
TEXT
  5
28E
330
1F
100
AcDbEntity
  8
136
  6
Continuous
 62
     7
370
    15
100
AcDbText
 10
203.4296709338014
 20
104.8718997388051
 30
0.0
 40
2.499996250002255
  1
130
100
AcDbText
  0
TEXT
  5
28F
330
1F
100
AcDbEntity
  8
136
  6
Continuous
 62
     7
370
    15
100
AcDbText
 10
184.026297336723
 20
166.3428690627114
 30
0.0
 40
2.5
  1
紙おさえ
 41
0.96
100
AcDbText
  0
LINE
  5
290
330
1F
100
AcDbEntity
  8
141
  6
Continuous
 62
     7
370
    15
100
AcDbLine
 10
195.253893982996
 20
165.5464130000001
 30
0.0
 11
183.6441426887357
 21
165.5464130000001
 31
0.0
  0
TEXT
  5
291
330
1F
100
AcDbEntity
  8
136
  6
Continuous
 62
     7
370
    15
100
AcDbText
 10
206.5953885624709
 20
171.8512430627114
 30
0.0
 40
2.5
  1
本体
 41
0.96
100
AcDbText
  0
LINE
  5
292
330
1F
100
AcDbEntity
  8
141
  6
Continuous
 62
     7
370
    15
100
AcDbLine
 10
212.908940982996
 20
171.0547870000001
 30
0.0
 11
206.3332556700525
 21
171.0547870000001
 31
0.0
  0
TEXT
  5
293
330
1F
100
AcDbEntity
  8
136
  6
Continuous
 62
     7
370
    15
100
AcDbText
 10
221.368708079089
 20
173.2963344541578
 30
0.0
 40
2.5
  1
28
100
AcDbText
  0
TEXT
  5
294
330
1F
100
AcDbEntity
  8
136
  6
Continuous
 62
     7
370
    15
100
AcDbText
 10
250.0607105288382
 20
123.1518450960931
 30
0.0
 40
2.5
  1
56
 50
89.99999999999991
100
AcDbText
  0
TEXT
  5
295
330
1F
100
AcDbEntity
  8
136
  6
Continuous
 62
     7
370
    15
100
AcDbText
 10
244.0273775288382
 20
161.2655287378201
 30
0.0
 40
2.5
  1
10
 50
89.99999999999991
100
AcDbText
  0
TEXT
  5
296
330
1F
100
AcDbEntity
  8
136
  6
Continuous
 62
     7
370
    15
100
AcDbText
 10
250.0607105288382
 20
148.1518450960931
 30
0.0
 40
2.5
  1
91
 50
89.99999999999991
100
AcDbText
  0
TEXT
  5
297
330
1F
100
AcDbEntity
  8
136
  6
Continuous
 62
     7
370
    15
100
AcDbText
 10
244.0273775288382
 20
147.4844070960931
 30
0.0
 40
2.5
  1
75
 50
89.99999999999991
100
AcDbText
  0
LINE
  5
298
330
1F
100
AcDbEntity
  8
134
  6
Continuous
 62
     7
370
    15
100
AcDbLine
 10
297.0
 20
0.0
 30
0.0
 11
297.0
 21
210.0
 31
0.0
  0
LINE
  5
299
330
1F
100
AcDbEntity
  8
132
  6
Continuous
 62
     7
370
    35
100
AcDbLine
 10
285.0
 20
12.0
 30
0.0
 11
285.0000000000002
 21
194.0
 31
0.0
  0
LINE
  5
29A
330
1F
100
AcDbEntity
  8
134
  6
Continuous
 62
     7
370
    15
100
AcDbLine
 10
0.0
 20
0.0
 30
0.0
 11
0.0000000000001137
 21
210.0
 31
0.0
  0
LINE
  5
29B
330
1F
100
AcDbEntity
  8
132
  6
Continuous
 62
     7
370
    35
100
AcDbLine
 10
12.0
 20
12.0
 30
0.0
 11
12.00000000000011
 21
194.0
 31
0.0
  0
LINE
  5
29C
330
1F
100
AcDbEntity
  8
134
  6
Continuous
 62
     7
370
    15
100
AcDbLine
 10
0.0
 20
0.0
 30
0.0
 11
297.0
 21
0.0
 31
0.0
  0
LINE
  5
29D
330
1F
100
AcDbEntity
  8
132
  6
Continuous
 62
     7
370
    35
100
AcDbLine
 10
12.0
 20
11.99999999999994
 30
0.0
 11
285.0
 21
12.0
 31
0.0
  0
LINE
  5
29E
330
1F
100
AcDbEntity
  8
134
  6
Continuous
 62
     7
370
    15
100
AcDbLine
 10
0.0000000000001137
 20
210.0
 30
0.0
 11
297.0
 21
210.0
 31
0.0
  0
LINE
  5
29F
330
1F
100
AcDbEntity
  8
132
  6
Continuous
 62
     7
370
    35
100
AcDbLine
 10
12.00000000000011
 20
194.0
 30
0.0
 11
285.0000000000002
 21
194.0
 31
0.0
  0
TEXT
  5
2A0
330
1F
100
AcDbEntity
  8
143
  6
Continuous
 62
   171
370
    15
100
AcDbText
 10
251.0
 20
29.74999999999999
 30
0.0
 40
4.5
  1
株式会社シマブン
 41
0.8039999999999999
100
AcDbText
  0
LINE
  5
2A1
330
1F
100
AcDbEntity
  8
143
  6
Continuous
 62
   171
370
    25
100
AcDbLine
 10
285.0
 20
27.99999999999999
 30
0.0
 11
249.0
 21
27.99999999999999
 31
0.0
  0
LINE
  5
2A2
330
1F
100
AcDbEntity
  8
143
  6
Continuous
 62
   171
370
    25
100
AcDbLine
 10
249.0
 20
23.99999999999999
 30
0.0
 11
285.0
 21
23.99999999999999
 31
0.0
  0
LINE
  5
2A3
330
1F
100
AcDbEntity
  8
143
  6
Continuous
 62
   171
370
    25
100
AcDbLine
 10
285.0
 20
17.99999999999999
 30
0.0
 11
249.0
 21
17.99999999999999
 31
0.0
  0
LINE
  5
2A4
330
1F
100
AcDbEntity
  8
144
  6
Continuous
 62
     5
370
    25
100
AcDbLine
 10
285.0
 20
35.99999999999999
 30
0.0
 11
185.0
 21
35.99999999999999
 31
0.0
  0
TEXT
  5
2A5
330
1F
100
AcDbEntity
  8
143
  6
Continuous
 62
   171
370
    15
100
AcDbText
 10
250.8
 20
15.39999999999999
 30
0.0
 40
2.399999999999999
  1
作　成
 41
1.08
100
AcDbText
  0
LINE
  5
2A6
330
1F
100
AcDbEntity
  8
143
  6
Continuous
 62
   171
370
    25
100
AcDbLine
 10
249.0
 20
35.99999999999999
 30
0.0
 11
249.0
 21
11.99999999999999
 31
0.0
  0
LINE
  5
2A7
330
1F
100
AcDbEntity
  8
144
  6
Continuous
 62
     5
370
    25
100
AcDbLine
 10
185.0
 20
35.99999999999999
 30
0.0
 11
185.0
 21
11.99999999999999
 31
0.0
  0
LINE
  5
2A8
330
1F
100
AcDbEntity
  8
143
  6
Continuous
 62
   171
370
    25
100
AcDbLine
 10
190.0
 20
35.99999999999999
 30
0.0
 11
190.0
 21
11.99999999999999
 31
0.0
  0
TEXT
  5
2A9
330
1F
100
AcDbEntity
  8
143
  6
Continuous
 62
   171
370
    15
100
AcDbText
 10
250.8
 20
12.49999999999999
 30
0.0
 40
2.399999999999999
  1
年月日
 41
1.08
100
AcDbText
  0
LINE
  5
2AA
330
1F
100
AcDbEntity
  8
143
  6
Continuous
 62
   171
370
    25
100
AcDbLine
 10
249.0
 20
19.99999999999999
 30
0.0
 11
185.0
 21
19.99999999999999
 31
0.0
  0
LINE
  5
2AB
330
1F
100
AcDbEntity
  8
143
  6
Continuous
 62
   171
370
    25
100
AcDbLine
 10
237.0
 20
27.99999999999999
 30
0.0
 11
185.0
 21
27.99999999999999
 31
0.0
  0
TEXT
  5
2AC
330
1F
100
AcDbEntity
  8
143
  6
Continuous
 62
   171
370
    15
100
AcDbText
 10
192.0999999999999
 20
30.19999999999999
 30
0.0
 40
3.600000000000001
  1
ペーパーホルダー「おくだけ」
 41
0.7199999999999998
100
AcDbText
  0
TEXT
  5
2AD
330
1F
100
AcDbEntity
  8
143
  6
Continuous
 62
   171
370
    15
100
AcDbText
 10
192.0999999999999
 20
22.19999999999999
 30
0.0
 40
3.600000000000001
  1
ＰＲ－１Ｂ
 41
0.72
100
AcDbText
  0
TEXT
  5
2AE
330
1F
100
AcDbEntity
  8
143
  6
Continuous
 62
   171
370
    15
100
AcDbText
 10
238.5
 20
32.14999999999999
 30
0.0
 40
2.699999999999999
  1
縮　尺
 41
1.0
100
AcDbText
  0
LINE
  5
2AF
330
1F
100
AcDbEntity
  8
143
  6
Continuous
 62
   171
370
    25
100
AcDbLine
 10
237.0
 20
35.99999999999999
 30
0.0
 11
237.0
 21
19.99999999999999
 31
0.0
  0
LINE
  5
2B0
330
1F
100
AcDbEntity
  8
143
  6
Continuous
 62
   171
370
    25
100
AcDbLine
 10
237.0
 20
30.99999999999999
 30
0.0
 11
249.0
 21
30.99999999999999
 31
0.0
  0
TEXT
  5
2B1
330
1F
100
AcDbEntity
  8
143
  6
Continuous
 62
   171
370
    15
100
AcDbText
 10
238.8
 20
23.49999999999999
 30
0.0
 40
3.600000000000001
  1
１：３
 41
0.7
100
AcDbText
  0
TEXT
  5
2B2
330
1F
100
AcDbEntity
  8
143
  6
Continuous
 62
   171
370
    15
100
AcDbText
 10
251.25
 20
24.64999999999999
 30
0.0
 40
2.699999999999999
  1
承 認
100
AcDbText
  0
TEXT
  5
2B3
330
1F
100
AcDbEntity
  8
143
  6
Continuous
 62
   171
370
    15
100
AcDbText
 10
262.0
 20
13.64999999999999
 30
0.0
 40
2.7
  1
２０１０年０３月０１日
 41
0.6599999999999999
100
AcDbText
  0
LINE
  5
2B4
330
1F
100
AcDbEntity
  8
143
  6
Continuous
 62
   171
370
    25
100
AcDbLine
 10
261.0
 20
27.99999999999999
 30
0.0
 11
261.0
 21
11.99999999999999
 31
0.0
  0
TEXT
  5
2B5
330
1F
100
AcDbEntity
  8
143
  6
Continuous
 62
   171
370
    15
100
AcDbText
 10
263.25
 20
24.64999999999999
 30
0.0
 40
2.699999999999999
  1
検 図
100
AcDbText
  0
TEXT
  5
2B6
330
1F
100
AcDbEntity
  8
143
  6
Continuous
 62
   171
370
    15
100
AcDbText
 10
263.0
 20
19.19999999999999
 30
0.0
 40
3.6
  1
渋田
100
AcDbText
  0
TEXT
  5
2B7
330
1F
100
AcDbEntity
  8
143
  6
Continuous
 62
   171
370
    15
100
AcDbText
 10
275.25
 20
24.64999999999999
 30
0.0
 40
2.699999999999999
  1
設 計
100
AcDbText
  0
LINE
  5
2B8
330
1F
100
AcDbEntity
  8
143
  6
Continuous
 62
   171
370
    25
100
AcDbLine
 10
273.0
 20
27.99999999999999
 30
0.0
 11
273.0
 21
17.99999999999999
 31
0.0
  0
TEXT
  5
2B9
330
1F
100
AcDbEntity
  8
143
  6
Continuous
 62
   171
370
    15
100
AcDbText
 10
275.0
 20
19.19999999999999
 30
0.0
 40
3.6
  1
藤戸
100
AcDbText
  0
LINE
  5
2BA
330
1F
100
AcDbEntity
  8
141
  6
Continuous
 62
     7
370
    15
100
AcDbLine
 10
242.1054092282118
 20
84.37510690575624
 30
0.0
 11
242.1054092282118
 21
54.37510690575624
 31
0.0
  0
TEXT
  5
2BB
330
1F
100
AcDbEntity
  8
136
  6
Continuous
 62
     7
370
    15
100
AcDbText
 10
201.6222846750309
 20
73.75377536355955
 30
0.0
 40
3.0
  1
ＰＲ－１Ｂ－Ｓ
 41
0.7199999999999999
100
AcDbText
  0
TEXT
  5
2BC
330
1F
100
AcDbEntity
  8
136
  6
Continuous
 62
     7
370
    15
100
AcDbText
 10
222.4161596038784
 20
73.86175250103855
 30
0.0
 40
3.0
  1
オフホワイト
 41
0.7199999999999999
100
AcDbText
  0
LINE
  5
2BD
330
1F
100
AcDbEntity
  8
141
  6
Continuous
 62
     7
370
    15
100
AcDbLine
 10
197.2501752282118
 20
84.37510690575624
 30
0.0
 11
197.2501752282118
 21
54.37510690575624
 31
0.0
  0
LINE
  5
2BE
330
1F
100
AcDbEntity
  8
141
  6
Continuous
 62
     7
370
    15
100
AcDbLine
 10
219.6777922282118
 20
84.37510690575624
 30
0.0
 11
219.6777922282118
 21
54.37510690575624
 31
0.0
  0
LINE
  5
2BF
330
1F
100
AcDbEntity
  8
141
  6
Continuous
 62
     7
370
    15
100
AcDbLine
 10
197.2501752282118
 20
60.37510690575624
 30
0.0
 11
242.1054092282118
 21
60.37510690575624
 31
0.0
  0
LINE
  5
2C0
330
1F
100
AcDbEntity
  8
141
  6
Continuous
 62
     7
370
    15
100
AcDbLine
 10
197.2501752282118
 20
54.37510690575624
 30
0.0
 11
242.1054092282118
 21
54.37510690575624
 31
0.0
  0
LINE
  5
2C1
330
1F
100
AcDbEntity
  8
141
  6
Continuous
 62
     7
370
    15
100
AcDbLine
 10
197.2501752282118
 20
66.37510690575624
 30
0.0
 11
242.1054092282118
 21
66.37510690575624
 31
0.0
  0
LINE
  5
2C2
330
1F
100
AcDbEntity
  8
141
  6
Continuous
 62
     7
370
    15
100
AcDbLine
 10
197.2501752282118
 20
72.37510690575624
 30
0.0
 11
242.1054092282118
 21
72.37510690575624
 31
0.0
  0
TEXT
  5
2C3
330
1F
100
AcDbEntity
  8
136
  6
Continuous
 62
     7
370
    15
100
AcDbText
 10
201.6222846750309
 20
55.87849636355946
 30
0.0
 40
3.0
  1
ＰＲ－１Ｂ－Ａ
 41
0.7199999999999999
100
AcDbText
  0
TEXT
  5
2C4
330
1F
100
AcDbEntity
  8
136
  6
Continuous
 62
     7
370
    15
100
AcDbText
 10
201.6222846750309
 20
67.81613736355945
 30
0.0
 40
3.0
  1
ＰＲ－１Ｂ－ｉ
 41
0.7199999999999999
100
AcDbText
  0
TEXT
  5
2C5
330
1F
100
AcDbEntity
  8
136
  6
Continuous
 62
     7
370
    15
100
AcDbText
 10
201.6222846750309
 20
61.87849636355946
 30
0.0
 40
3.0
  1
ＰＲ－１Ｂ－Ｐ
 41
0.7199999999999999
100
AcDbText
  0
TEXT
  5
2C6
330
1F
100
AcDbEntity
  8
136
  6
Continuous
 62
     7
370
    15
100
AcDbText
 10
222.7254324894083
 20
55.98647450103846
 30
0.0
 40
3.0
  1
パステルブルー
 41
0.7199999999999999
100
AcDbText
  0
TEXT
  5
2C7
330
1F
100
AcDbEntity
  8
136
  6
Continuous
 62
     7
370
    15
100
AcDbText
 10
222.7254324894083
 20
61.98647450103846
 30
0.0
 40
3.0
  1
パステルピンク
 41
0.7199999999999999
100
AcDbText
  0
TEXT
  5
2C8
330
1F
100
AcDbEntity
  8
136
  6
Continuous
 62
     7
370
    15
100
AcDbText
 10
222.4880245322788
 20
67.92411550103844
 30
0.0
 40
3.0
  1
パステルアイボリー
 41
0.6
100
AcDbText
  0
LINE
  5
2C9
330
1F
100
AcDbEntity
  8
141
  6
Continuous
 62
     7
370
    15
100
AcDbLine
 10
197.2501752282118
 20
84.37510690575624
 30
0.0
 11
242.1054092282118
 21
84.37510690575624
 31
0.0
  0
LINE
  5
2CA
330
1F
100
AcDbEntity
  8
141
  6
Continuous
 62
     7
370
    15
100
AcDbLine
 10
197.2501752282118
 20
78.37510690575624
 30
0.0
 11
242.1054092282118
 21
78.37510690575624
 31
0.0
  0
TEXT
  5
2CB
330
1F
100
AcDbEntity
  8
136
  6
Continuous
 62
     7
370
    15
100
AcDbText
 10
204.2161949983987
 20
79.80647619730502
 30
0.0
 40
3.0
  1
品　番
 41
0.9600000000000001
100
AcDbText
  0
TEXT
  5
2CC
330
1F
100
AcDbEntity
  8
136
  6
Continuous
 62
     7
370
    15
100
AcDbText
 10
228.8684682155519
 20
79.69141636355954
 30
0.0
 40
3.0
  1
色
 41
0.9600000000000001
100
AcDbText
  0
TEXT
  5
2CD
330
1F
100
AcDbEntity
  8
143
  6
Continuous
 62
   171
370
    15
100
AcDbText
 10
192.0999999999999
 20
14.19999999999999
 30
0.0
 40
3.6
  1
色については品番表参照のこと
 41
0.7199999999999999
100
AcDbText
  0
TEXT
  5
2CE
330
1F
100
AcDbEntity
  8
136
  6
Continuous
 62
     7
370
    15
100
AcDbText
 10
208.3442483194102
 20
85.80647619730502
 30
0.0
 40
3.5
  1
品　番　表
 41
1.2
100
AcDbText
  0
LINE
  5
2CF
330
1F
100
AcDbEntity
  8
138
  6
Continuous
 62
     7
370
    15
100
AcDbLine
 10
54.7615235000001
 20
161.712536
 30
0.0
 11
54.7615235000001
 21
161.045876
 31
0.0
  0
LINE
  5
2D0
330
1F
100
AcDbEntity
  8
138
  6
Continuous
 62
     7
370
    15
100
AcDbLine
 10
54.5115260000001
 20
163.379186
 30
0.0
 11
54.5115260000001
 21
159.379226
 31
0.0
  0
LINE
  5
2D1
330
1F
100
AcDbEntity
  8
138
  6
Continuous
 62
     7
370
    15
100
AcDbLine
 10
47.7615935000001
 20
161.712536
 30
0.0
 11
47.7615935000001
 21
161.045876
 31
0.0
  0
LINE
  5
2D2
330
1F
100
AcDbEntity
  8
138
  6
Continuous
 62
     7
370
    15
100
AcDbLine
 10
48.0115910000001
 20
163.379186
 30
0.0
 11
48.0115910000001
 21
159.379226
 31
0.0
  0
LINE
  5
2D3
330
1F
100
AcDbEntity
  8
138
  6
Continuous
 62
     7
370
    15
100
AcDbLine
 10
48.0115910000001
 20
159.379226
 30
0.0
 11
54.5115260000001
 21
159.379226
 31
0.0
  0
LINE
  5
2D4
330
1F
100
AcDbEntity
  8
138
  6
Continuous
 62
     7
370
    15
100
AcDbLine
 10
47.7615935000001
 20
158.712566
 30
0.0
 11
54.7615235000001
 21
158.712566
 31
0.0
  0
LINE
  5
2D5
330
1F
100
AcDbEntity
  8
138
  6
Continuous
 62
     7
370
    15
100
AcDbLine
 10
47.7615935000001
 20
159.0458960000001
 30
0.0
 11
54.7615235000001
 21
159.0458960000001
 31
0.0
  0
LINE
  5
2D6
330
1F
100
AcDbEntity
  8
138
  6
Continuous
 62
     7
370
    15
100
AcDbLine
 10
47.7615935000001
 20
159.0458960000001
 30
0.0
 11
47.7615935000001
 21
158.712566
 31
0.0
  0
LINE
  5
2D7
330
1F
100
AcDbEntity
  8
138
  6
Continuous
 62
     7
370
    15
100
AcDbLine
 10
47.0949335000001
 20
161.045876
 30
0.0
 11
47.0949335000001
 21
159.22452688034
 31
0.0
  0
LINE
  5
2D8
330
1F
100
AcDbEntity
  8
138
  6
Continuous
 62
     7
370
    15
100
AcDbLine
 10
47.0949335000001
 20
161.045876
 30
0.0
 11
47.7615935000001
 21
161.045876
 31
0.0
  0
LINE
  5
2D9
330
1F
100
AcDbEntity
  8
138
  6
Continuous
 62
     7
370
    15
100
AcDbLine
 10
47.7615935000001
 20
159.0458960000001
 30
0.0
 11
47.0949335000001
 21
159.22452688034
 31
0.0
  0
LINE
  5
2DA
330
1F
100
AcDbEntity
  8
138
  6
Continuous
 62
     7
370
    15
100
AcDbLine
 10
55.4281835000001
 20
161.045876
 30
0.0
 11
55.4281835000001
 21
159.22452688034
 31
0.0
  0
LINE
  5
2DB
330
1F
100
AcDbEntity
  8
138
  6
Continuous
 62
     7
370
    15
100
AcDbLine
 10
54.7615235000001
 20
159.0458960000001
 30
0.0
 11
54.7615235000001
 21
158.712566
 31
0.0
  0
LINE
  5
2DC
330
1F
100
AcDbEntity
  8
138
  6
Continuous
 62
     7
370
    15
100
AcDbLine
 10
55.4281835000001
 20
161.045876
 30
0.0
 11
54.7615235000001
 21
161.045876
 31
0.0
  0
LINE
  5
2DD
330
1F
100
AcDbEntity
  8
138
  6
Continuous
 62
     7
370
    15
100
AcDbLine
 10
54.7615235000001
 20
159.0458960000001
 30
0.0
 11
55.4281835000001
 21
159.22452688034
 31
0.0
  0
LINE
  5
2DE
330
1F
100
AcDbEntity
  8
138
  6
Continuous
 62
     7
370
    15
100
AcDbLine
 10
48.0115910000001
 20
163.379186
 30
0.0
 11
54.5115260000001
 21
163.379186
 31
0.0
  0
LINE
  5
2DF
330
1F
100
AcDbEntity
  8
138
  6
Continuous
 62
     7
370
    15
100
AcDbLine
 10
47.7615935000001
 20
164.045846
 30
0.0
 11
54.7615235000001
 21
164.045846
 31
0.0
  0
LINE
  5
2E0
330
1F
100
AcDbEntity
  8
138
  6
Continuous
 62
     7
370
    15
100
AcDbLine
 10
47.7615935000001
 20
163.7125160000001
 30
0.0
 11
54.7615235000001
 21
163.7125160000001
 31
0.0
  0
LINE
  5
2E1
330
1F
100
AcDbEntity
  8
138
  6
Continuous
 62
     7
370
    15
100
AcDbLine
 10
47.7615935000001
 20
164.045846
 30
0.0
 11
47.7615935000001
 21
163.7125160000001
 31
0.0
  0
LINE
  5
2E2
330
1F
100
AcDbEntity
  8
138
  6
Continuous
 62
     7
370
    15
100
AcDbLine
 10
47.7615935000001
 20
163.7125160000001
 30
0.0
 11
47.0949335000001
 21
163.53388478633
 31
0.0
  0
LINE
  5
2E3
330
1F
100
AcDbEntity
  8
138
  6
Continuous
 62
     7
370
    15
100
AcDbLine
 10
47.0949335000001
 20
161.712536
 30
0.0
 11
47.7615935000001
 21
161.712536
 31
0.0
  0
LINE
  5
2E4
330
1F
100
AcDbEntity
  8
138
  6
Continuous
 62
     7
370
    15
100
AcDbLine
 10
47.0949335000001
 20
163.53388478633
 30
0.0
 11
47.0949335000001
 21
161.712536
 31
0.0
  0
LINE
  5
2E5
330
1F
100
AcDbEntity
  8
138
  6
Continuous
 62
     7
370
    15
100
AcDbLine
 10
54.7615235000001
 20
164.045846
 30
0.0
 11
54.7615235000001
 21
163.7125160000001
 31
0.0
  0
LINE
  5
2E6
330
1F
100
AcDbEntity
  8
138
  6
Continuous
 62
     7
370
    15
100
AcDbLine
 10
54.7615235000001
 20
163.7125160000001
 30
0.0
 11
55.4281835000001
 21
163.53388478633
 31
0.0
  0
LINE
  5
2E7
330
1F
100
AcDbEntity
  8
138
  6
Continuous
 62
     7
370
    15
100
AcDbLine
 10
55.4281835000001
 20
161.712536
 30
0.0
 11
54.7615235000001
 21
161.712536
 31
0.0
  0
LINE
  5
2E8
330
1F
100
AcDbEntity
  8
138
  6
Continuous
 62
     7
370
    15
100
AcDbLine
 10
55.4281835000001
 20
163.53388478633
 30
0.0
 11
55.4281835000001
 21
161.712536
 31
0.0
  0
LINE
  5
2E9
330
1F
100
AcDbEntity
  8
138
  6
Continuous
 62
     7
370
    15
100
AcDbLine
 10
55.4281835000001
 20
136.055876
 30
0.0
 11
55.4281835000001
 21
134.23452688034
 31
0.0
  0
LINE
  5
2EA
330
1F
100
AcDbEntity
  8
138
  6
Continuous
 62
     7
370
    15
100
AcDbLine
 10
47.0949335000001
 20
136.055876
 30
0.0
 11
47.0949335000001
 21
134.23452688034
 31
0.0
  0
LINE
  5
2EB
330
1F
100
AcDbEntity
  8
138
  6
Continuous
 62
     7
370
    15
100
AcDbLine
 10
48.0115910000001
 20
138.389186
 30
0.0
 11
48.0115910000001
 21
134.389226
 31
0.0
  0
LINE
  5
2EC
330
1F
100
AcDbEntity
  8
138
  6
Continuous
 62
     7
370
    15
100
AcDbLine
 10
54.5115260000001
 20
138.389186
 30
0.0
 11
54.5115260000001
 21
134.389226
 31
0.0
  0
LINE
  5
2ED
330
1F
100
AcDbEntity
  8
138
  6
Continuous
 62
     7
370
    15
100
AcDbLine
 10
47.7615935000001
 20
134.055896
 30
0.0
 11
54.76152350000011
 21
134.055896
 31
0.0
  0
LINE
  5
2EE
330
1F
100
AcDbEntity
  8
138
  6
Continuous
 62
     7
370
    15
100
AcDbLine
 10
47.7615935000001
 20
133.722566
 30
0.0
 11
54.76152350000011
 21
133.722566
 31
0.0
  0
LINE
  5
2EF
330
1F
100
AcDbEntity
  8
138
  6
Continuous
 62
     7
370
    15
100
AcDbLine
 10
48.0115910000001
 20
134.389226
 30
0.0
 11
54.5115260000001
 21
134.389226
 31
0.0
  0
LINE
  5
2F0
330
1F
100
AcDbEntity
  8
138
  6
Continuous
 62
     7
370
    15
100
AcDbLine
 10
47.7615935000001
 20
134.055896
 30
0.0
 11
47.0949335000001
 21
134.23452688034
 31
0.0
  0
LINE
  5
2F1
330
1F
100
AcDbEntity
  8
138
  6
Continuous
 62
     7
370
    15
100
AcDbLine
 10
47.7615935000001
 20
134.055896
 30
0.0
 11
47.7615935000001
 21
133.722566
 31
0.0
  0
LINE
  5
2F2
330
1F
100
AcDbEntity
  8
138
  6
Continuous
 62
     7
370
    15
100
AcDbLine
 10
54.76152350000011
 20
134.055896
 30
0.0
 11
55.4281835000001
 21
134.23452688034
 31
0.0
  0
LINE
  5
2F3
330
1F
100
AcDbEntity
  8
138
  6
Continuous
 62
     7
370
    15
100
AcDbLine
 10
54.76152350000011
 20
134.055896
 30
0.0
 11
54.76152350000011
 21
133.722566
 31
0.0
  0
LINE
  5
2F4
330
1F
100
AcDbEntity
  8
138
  6
Continuous
 62
     7
370
    15
100
AcDbLine
 10
47.7615935000001
 20
138.722516
 30
0.0
 11
54.76152350000011
 21
138.722516
 31
0.0
  0
LINE
  5
2F5
330
1F
100
AcDbEntity
  8
138
  6
Continuous
 62
     7
370
    15
100
AcDbLine
 10
47.7615935000001
 20
139.055846
 30
0.0
 11
54.76152350000011
 21
139.055846
 31
0.0
  0
LINE
  5
2F6
330
1F
100
AcDbEntity
  8
138
  6
Continuous
 62
     7
370
    15
100
AcDbLine
 10
48.0115910000001
 20
138.389186
 30
0.0
 11
54.5115260000001
 21
138.389186
 31
0.0
  0
LINE
  5
2F7
330
1F
100
AcDbEntity
  8
138
  6
Continuous
 62
     7
370
    15
100
AcDbLine
 10
47.0949335000001
 20
136.722536
 30
0.0
 11
47.7615935000001
 21
136.722536
 31
0.0
  0
LINE
  5
2F8
330
1F
100
AcDbEntity
  8
138
  6
Continuous
 62
     7
370
    15
100
AcDbLine
 10
47.7615935000001
 20
138.722516
 30
0.0
 11
47.0949335000001
 21
138.54388478633
 31
0.0
  0
LINE
  5
2F9
330
1F
100
AcDbEntity
  8
138
  6
Continuous
 62
     7
370
    15
100
AcDbLine
 10
47.0949335000001
 20
136.055876
 30
0.0
 11
47.7615935000001
 21
136.055876
 31
0.0
  0
LINE
  5
2FA
330
1F
100
AcDbEntity
  8
138
  6
Continuous
 62
     7
370
    15
100
AcDbLine
 10
47.0949335000001
 20
138.54388478633
 30
0.0
 11
47.0949335000001
 21
136.722536
 31
0.0
  0
LINE
  5
2FB
330
1F
100
AcDbEntity
  8
138
  6
Continuous
 62
     7
370
    15
100
AcDbLine
 10
47.7615935000001
 20
139.055846
 30
0.0
 11
47.7615935000001
 21
138.722516
 31
0.0
  0
LINE
  5
2FC
330
1F
100
AcDbEntity
  8
138
  6
Continuous
 62
     7
370
    15
100
AcDbLine
 10
47.7615935000001
 20
136.722536
 30
0.0
 11
47.7615935000001
 21
136.055876
 31
0.0
  0
LINE
  5
2FD
330
1F
100
AcDbEntity
  8
138
  6
Continuous
 62
     7
370
    15
100
AcDbLine
 10
55.4281835000001
 20
138.54388478633
 30
0.0
 11
55.4281835000001
 21
136.722536
 31
0.0
  0
LINE
  5
2FE
330
1F
100
AcDbEntity
  8
138
  6
Continuous
 62
     7
370
    15
100
AcDbLine
 10
55.4281835000001
 20
136.722536
 30
0.0
 11
54.76152350000011
 21
136.722536
 31
0.0
  0
LINE
  5
2FF
330
1F
100
AcDbEntity
  8
138
  6
Continuous
 62
     7
370
    15
100
AcDbLine
 10
54.76152350000011
 20
138.722516
 30
0.0
 11
55.4281835000001
 21
138.54388478633
 31
0.0
  0
LINE
  5
300
330
1F
100
AcDbEntity
  8
138
  6
Continuous
 62
     7
370
    15
100
AcDbLine
 10
54.76152350000011
 20
139.055846
 30
0.0
 11
54.76152350000011
 21
138.722516
 31
0.0
  0
LINE
  5
301
330
1F
100
AcDbEntity
  8
138
  6
Continuous
 62
     7
370
    15
100
AcDbLine
 10
55.4281835000001
 20
136.055876
 30
0.0
 11
54.76152350000011
 21
136.055876
 31
0.0
  0
LINE
  5
302
330
1F
100
AcDbEntity
  8
138
  6
Continuous
 62
     7
370
    15
100
AcDbLine
 10
54.76152350000011
 20
136.722536
 30
0.0
 11
54.76152350000011
 21
136.055876
 31
0.0
  0
LINE
  5
303
330
1F
100
AcDbEntity
  8
138
  6
Continuous
 62
     7
370
    15
100
AcDbLine
 10
79.09633350000013
 20
136.055876
 30
0.0
 11
79.09633350000013
 21
134.23452688034
 31
0.0
  0
LINE
  5
304
330
1F
100
AcDbEntity
  8
138
  6
Continuous
 62
     7
370
    15
100
AcDbLine
 10
87.42958350000012
 20
136.055876
 30
0.0
 11
87.42958350000012
 21
134.23452688034
 31
0.0
  0
LINE
  5
305
330
1F
100
AcDbEntity
  8
138
  6
Continuous
 62
     7
370
    15
100
AcDbLine
 10
86.76292350000013
 20
134.055896
 30
0.0
 11
79.76299350000012
 21
134.055896
 31
0.0
  0
LINE
  5
306
330
1F
100
AcDbEntity
  8
138
  6
Continuous
 62
     7
370
    15
100
AcDbLine
 10
86.76292350000013
 20
133.722566
 30
0.0
 11
79.76299350000012
 21
133.722566
 31
0.0
  0
LINE
  5
307
330
1F
100
AcDbEntity
  8
138
  6
Continuous
 62
     7
370
    15
100
AcDbLine
 10
86.76292350000013
 20
134.055896
 30
0.0
 11
87.42958350000012
 21
134.23452688034
 31
0.0
  0
LINE
  5
308
330
1F
100
AcDbEntity
  8
138
  6
Continuous
 62
     7
370
    15
100
AcDbLine
 10
86.76292350000013
 20
134.055896
 30
0.0
 11
86.76292350000013
 21
133.722566
 31
0.0
  0
LINE
  5
309
330
1F
100
AcDbEntity
  8
138
  6
Continuous
 62
     7
370
    15
100
AcDbLine
 10
79.76299350000012
 20
134.055896
 30
0.0
 11
79.09633350000013
 21
134.23452688034
 31
0.0
  0
LINE
  5
30A
330
1F
100
AcDbEntity
  8
138
  6
Continuous
 62
     7
370
    15
100
AcDbLine
 10
79.76299350000012
 20
134.055896
 30
0.0
 11
79.76299350000012
 21
133.722566
 31
0.0
  0
LINE
  5
30B
330
1F
100
AcDbEntity
  8
138
  6
Continuous
 62
     7
370
    15
100
AcDbLine
 10
86.51292600000014
 20
134.389226
 30
0.0
 11
80.01299100000013
 21
134.389226
 31
0.0
  0
LINE
  5
30C
330
1F
100
AcDbEntity
  8
138
  6
Continuous
 62
     7
370
    15
100
AcDbLine
 10
86.76292350000013
 20
138.722516
 30
0.0
 11
79.76299350000012
 21
138.722516
 31
0.0
  0
LINE
  5
30D
330
1F
100
AcDbEntity
  8
138
  6
Continuous
 62
     7
370
    15
100
AcDbLine
 10
86.76292350000013
 20
139.055846
 30
0.0
 11
79.76299350000012
 21
139.055846
 31
0.0
  0
LINE
  5
30E
330
1F
100
AcDbEntity
  8
138
  6
Continuous
 62
     7
370
    15
100
AcDbLine
 10
86.51292600000014
 20
138.389186
 30
0.0
 11
80.01299100000013
 21
138.389186
 31
0.0
  0
LINE
  5
30F
330
1F
100
AcDbEntity
  8
138
  6
Continuous
 62
     7
370
    15
100
AcDbLine
 10
86.76292350000013
 20
138.722516
 30
0.0
 11
87.42958350000012
 21
138.54388478633
 31
0.0
  0
LINE
  5
310
330
1F
100
AcDbEntity
  8
138
  6
Continuous
 62
     7
370
    15
100
AcDbLine
 10
87.42958350000012
 20
136.722536
 30
0.0
 11
86.76292350000013
 21
136.722536
 31
0.0
  0
LINE
  5
311
330
1F
100
AcDbEntity
  8
138
  6
Continuous
 62
     7
370
    15
100
AcDbLine
 10
87.42958350000012
 20
136.055876
 30
0.0
 11
86.76292350000013
 21
136.055876
 31
0.0
  0
LINE
  5
312
330
1F
100
AcDbEntity
  8
138
  6
Continuous
 62
     7
370
    15
100
AcDbLine
 10
87.42958350000012
 20
138.54388478633
 30
0.0
 11
87.42958350000012
 21
136.722536
 31
0.0
  0
LINE
  5
313
330
1F
100
AcDbEntity
  8
138
  6
Continuous
 62
     7
370
    15
100
AcDbLine
 10
86.76292350000013
 20
136.722536
 30
0.0
 11
86.76292350000013
 21
136.055876
 31
0.0
  0
LINE
  5
314
330
1F
100
AcDbEntity
  8
138
  6
Continuous
 62
     7
370
    15
100
AcDbLine
 10
86.51292600000014
 20
138.389186
 30
0.0
 11
86.51292600000014
 21
134.389226
 31
0.0
  0
LINE
  5
315
330
1F
100
AcDbEntity
  8
138
  6
Continuous
 62
     7
370
    15
100
AcDbLine
 10
86.76292350000013
 20
139.055846
 30
0.0
 11
86.76292350000013
 21
138.722516
 31
0.0
  0
LINE
  5
316
330
1F
100
AcDbEntity
  8
138
  6
Continuous
 62
     7
370
    15
100
AcDbLine
 10
79.76299350000012
 20
138.722516
 30
0.0
 11
79.09633350000013
 21
138.54388478633
 31
0.0
  0
LINE
  5
317
330
1F
100
AcDbEntity
  8
138
  6
Continuous
 62
     7
370
    15
100
AcDbLine
 10
79.09633350000013
 20
136.722536
 30
0.0
 11
79.76299350000012
 21
136.722536
 31
0.0
  0
LINE
  5
318
330
1F
100
AcDbEntity
  8
138
  6
Continuous
 62
     7
370
    15
100
AcDbLine
 10
79.09633350000013
 20
136.055876
 30
0.0
 11
79.76299350000012
 21
136.055876
 31
0.0
  0
LINE
  5
319
330
1F
100
AcDbEntity
  8
138
  6
Continuous
 62
     7
370
    15
100
AcDbLine
 10
79.76299350000012
 20
136.722536
 30
0.0
 11
79.76299350000012
 21
136.055876
 31
0.0
  0
LINE
  5
31A
330
1F
100
AcDbEntity
  8
138
  6
Continuous
 62
     7
370
    15
100
AcDbLine
 10
80.01299100000013
 20
138.389186
 30
0.0
 11
80.01299100000013
 21
134.389226
 31
0.0
  0
LINE
  5
31B
330
1F
100
AcDbEntity
  8
138
  6
Continuous
 62
     7
370
    15
100
AcDbLine
 10
79.09633350000013
 20
138.54388478633
 30
0.0
 11
79.09633350000013
 21
136.722536
 31
0.0
  0
LINE
  5
31C
330
1F
100
AcDbEntity
  8
138
  6
Continuous
 62
     7
370
    15
100
AcDbLine
 10
79.76299350000012
 20
139.055846
 30
0.0
 11
79.76299350000012
 21
138.722516
 31
0.0
  0
LINE
  5
31D
330
1F
100
AcDbEntity
  8
138
  6
Continuous
 62
     7
370
    15
100
AcDbLine
 10
79.09633350000013
 20
161.045876
 30
0.0
 11
79.09633350000013
 21
159.22452688034
 31
0.0
  0
LINE
  5
31E
330
1F
100
AcDbEntity
  8
138
  6
Continuous
 62
     7
370
    15
100
AcDbLine
 10
87.42958350000013
 20
161.045876
 30
0.0
 11
87.42958350000013
 21
159.22452688034
 31
0.0
  0
LINE
  5
31F
330
1F
100
AcDbEntity
  8
138
  6
Continuous
 62
     7
370
    15
100
AcDbLine
 10
86.51292600000014
 20
163.379186
 30
0.0
 11
86.51292600000014
 21
159.379226
 31
0.0
  0
LINE
  5
320
330
1F
100
AcDbEntity
  8
138
  6
Continuous
 62
     7
370
    15
100
AcDbLine
 10
80.01299100000014
 20
163.379186
 30
0.0
 11
80.01299100000014
 21
159.379226
 31
0.0
  0
LINE
  5
321
330
1F
100
AcDbEntity
  8
138
  6
Continuous
 62
     7
370
    15
100
AcDbLine
 10
86.76292350000014
 20
159.0458960000001
 30
0.0
 11
79.76299350000014
 21
159.0458960000001
 31
0.0
  0
LINE
  5
322
330
1F
100
AcDbEntity
  8
138
  6
Continuous
 62
     7
370
    15
100
AcDbLine
 10
86.76292350000014
 20
158.712566
 30
0.0
 11
79.76299350000014
 21
158.712566
 31
0.0
  0
LINE
  5
323
330
1F
100
AcDbEntity
  8
138
  6
Continuous
 62
     7
370
    15
100
AcDbLine
 10
86.51292600000014
 20
159.379226
 30
0.0
 11
80.01299100000014
 21
159.379226
 31
0.0
  0
LINE
  5
324
330
1F
100
AcDbEntity
  8
138
  6
Continuous
 62
     7
370
    15
100
AcDbLine
 10
86.76292350000014
 20
159.0458960000001
 30
0.0
 11
87.42958350000013
 21
159.22452688034
 31
0.0
  0
LINE
  5
325
330
1F
100
AcDbEntity
  8
138
  6
Continuous
 62
     7
370
    15
100
AcDbLine
 10
86.76292350000014
 20
159.0458960000001
 30
0.0
 11
86.76292350000014
 21
158.712566
 31
0.0
  0
LINE
  5
326
330
1F
100
AcDbEntity
  8
138
  6
Continuous
 62
     7
370
    15
100
AcDbLine
 10
79.76299350000014
 20
159.0458960000001
 30
0.0
 11
79.09633350000013
 21
159.22452688034
 31
0.0
  0
LINE
  5
327
330
1F
100
AcDbEntity
  8
138
  6
Continuous
 62
     7
370
    15
100
AcDbLine
 10
79.76299350000014
 20
159.0458960000001
 30
0.0
 11
79.76299350000014
 21
158.712566
 31
0.0
  0
LINE
  5
328
330
1F
100
AcDbEntity
  8
138
  6
Continuous
 62
     7
370
    15
100
AcDbLine
 10
86.76292350000014
 20
163.7125160000001
 30
0.0
 11
79.76299350000014
 21
163.7125160000001
 31
0.0
  0
LINE
  5
329
330
1F
100
AcDbEntity
  8
138
  6
Continuous
 62
     7
370
    15
100
AcDbLine
 10
86.76292350000014
 20
164.045846
 30
0.0
 11
79.76299350000014
 21
164.045846
 31
0.0
  0
LINE
  5
32A
330
1F
100
AcDbEntity
  8
138
  6
Continuous
 62
     7
370
    15
100
AcDbLine
 10
86.51292600000014
 20
163.379186
 30
0.0
 11
80.01299100000014
 21
163.379186
 31
0.0
  0
LINE
  5
32B
330
1F
100
AcDbEntity
  8
138
  6
Continuous
 62
     7
370
    15
100
AcDbLine
 10
87.42958350000013
 20
161.712536
 30
0.0
 11
86.76292350000014
 21
161.712536
 31
0.0
  0
LINE
  5
32C
330
1F
100
AcDbEntity
  8
138
  6
Continuous
 62
     7
370
    15
100
AcDbLine
 10
86.76292350000014
 20
163.7125160000001
 30
0.0
 11
87.42958350000013
 21
163.53388478633
 31
0.0
  0
LINE
  5
32D
330
1F
100
AcDbEntity
  8
138
  6
Continuous
 62
     7
370
    15
100
AcDbLine
 10
87.42958350000013
 20
161.045876
 30
0.0
 11
86.76292350000014
 21
161.045876
 31
0.0
  0
LINE
  5
32E
330
1F
100
AcDbEntity
  8
138
  6
Continuous
 62
     7
370
    15
100
AcDbLine
 10
87.42958350000013
 20
163.53388478633
 30
0.0
 11
87.42958350000013
 21
161.712536
 31
0.0
  0
LINE
  5
32F
330
1F
100
AcDbEntity
  8
138
  6
Continuous
 62
     7
370
    15
100
AcDbLine
 10
86.76292350000014
 20
164.045846
 30
0.0
 11
86.76292350000014
 21
163.7125160000001
 31
0.0
  0
LINE
  5
330
330
1F
100
AcDbEntity
  8
138
  6
Continuous
 62
     7
370
    15
100
AcDbLine
 10
86.76292350000014
 20
161.712536
 30
0.0
 11
86.76292350000014
 21
161.045876
 31
0.0
  0
LINE
  5
331
330
1F
100
AcDbEntity
  8
138
  6
Continuous
 62
     7
370
    15
100
AcDbLine
 10
79.09633350000013
 20
163.53388478633
 30
0.0
 11
79.09633350000013
 21
161.712536
 31
0.0
  0
LINE
  5
332
330
1F
100
AcDbEntity
  8
138
  6
Continuous
 62
     7
370
    15
100
AcDbLine
 10
79.09633350000013
 20
161.712536
 30
0.0
 11
79.76299350000014
 21
161.712536
 31
0.0
  0
LINE
  5
333
330
1F
100
AcDbEntity
  8
138
  6
Continuous
 62
     7
370
    15
100
AcDbLine
 10
79.76299350000014
 20
163.7125160000001
 30
0.0
 11
79.09633350000013
 21
163.53388478633
 31
0.0
  0
LINE
  5
334
330
1F
100
AcDbEntity
  8
138
  6
Continuous
 62
     7
370
    15
100
AcDbLine
 10
79.76299350000014
 20
164.045846
 30
0.0
 11
79.76299350000014
 21
163.7125160000001
 31
0.0
  0
LINE
  5
335
330
1F
100
AcDbEntity
  8
138
  6
Continuous
 62
     7
370
    15
100
AcDbLine
 10
79.09633350000013
 20
161.045876
 30
0.0
 11
79.76299350000014
 21
161.045876
 31
0.0
  0
LINE
  5
336
330
1F
100
AcDbEntity
  8
138
  6
Continuous
 62
     7
370
    15
100
AcDbLine
 10
79.76299350000014
 20
161.712536
 30
0.0
 11
79.76299350000014
 21
161.045876
 31
0.0
  0
LINE
  5
337
330
1F
100
AcDbEntity
  8
138
  6
Continuous
 62
     7
370
    15
100
AcDbLine
 10
54.76152350000012
 20
134.04254
 30
0.0
 11
79.76299350000012
 21
134.04254
 31
0.0
  0
LINE
  5
338
330
1F
100
AcDbEntity
  8
138
  6
Continuous
 62
     7
370
    15
100
AcDbLine
 10
86.76292350000013
 20
134.04254
 30
0.0
 11
87.86225850000011
 21
134.04254
 31
0.0
  0
ARC
  5
339
330
1F
100
AcDbEntity
  8
138
  6
Continuous
 62
     7
370
    15
100
AcDbCircle
 10
52.99559150000018
 20
131.709206
 30
0.0
 40
2.333333000000096
100
AcDbArc
 50
120.3597780975062
 51
179.9999999999986
  0
ARC
  5
33A
330
1F
100
AcDbEntity
  8
138
  6
Continuous
 62
     7
370
    15
100
AcDbCircle
 10
81.52892550000011
 20
131.7092060000001
 30
0.0
 40
2.33333300000001
100
AcDbArc
 50
120.3597780975055
 51
179.9999999999998
  0
LINE
  5
33B
330
1F
100
AcDbEntity
  8
140
  6
DASHDOT
 62
     1
370
    15
100
AcDbLine
 10
45.9955915000001
 20
161.379206
 30
0.0
 11
89.38299667829938
 21
161.379206
 31
0.0
  0
LINE
  5
33C
330
1F
100
AcDbEntity
  8
140
  6
DASHDOT
 62
     1
370
    15
100
AcDbLine
 10
45.9955915000001
 20
136.379206
 30
0.0
 11
89.46501470006524
 21
136.379206
 31
0.0
  0
TEXT
  5
33D
330
1F
100
AcDbEntity
  8
136
  6
Continuous
 62
     7
370
    15
100
AcDbText
 10
35.19956476119501
 20
148.2630545773483
 30
0.0
 40
2.499996250002255
  1
75
 50
89.99999999999991
100
AcDbText
  0
LINE
  5
33E
330
1F
100
AcDbEntity
  8
135
  6
Continuous
 62
     4
370
    15
100
AcDbLine
 10
35.69559150000009
 20
136.379206
 30
0.0
 11
35.69559150000009
 21
164.7092060000001
 31
0.0
  0
LINE
  5
33F
330
1F
100
AcDbEntity
  8
135
  6
Continuous
 62
     4
370
    15
100
AcDbLine
 10
35.19559150000009
 20
136.379206
 30
0.0
 11
45.4955915000001
 21
136.379206
 31
0.0
  0
LINE
  5
340
330
1F
100
AcDbEntity
  8
135
  6
Continuous
 62
     4
370
    15
100
AcDbLine
 10
35.69559150000009
 20
136.379206
 30
0.0
 11
36.08382050000012
 21
137.828095
 31
0.0
  0
LINE
  5
341
330
1F
100
AcDbEntity
  8
135
  6
Continuous
 62
     4
370
    15
100
AcDbLine
 10
35.69559150000009
 20
136.379206
 30
0.0
 11
35.30736250000012
 21
137.828095
 31
0.0
  0
LINE
  5
342
330
1F
100
AcDbEntity
  8
135
  6
Continuous
 62
     4
370
    15
100
AcDbLine
 10
35.19559150000009
 20
164.7092060000001
 30
0.0
 11
45.4955915000001
 21
164.7092060000001
 31
0.0
  0
LINE
  5
343
330
1F
100
AcDbEntity
  8
135
  6
Continuous
 62
     4
370
    15
100
AcDbLine
 10
35.69559150000009
 20
164.7092060000001
 30
0.0
 11
36.08382050000012
 21
163.260318
 31
0.0
  0
LINE
  5
344
330
1F
100
AcDbEntity
  8
135
  6
Continuous
 62
     4
370
    15
100
AcDbLine
 10
35.69559150000009
 20
164.7092060000001
 30
0.0
 11
35.30736250000012
 21
163.260318
 31
0.0
  0
LINE
  5
345
330
1F
100
AcDbEntity
  8
135
  6
Continuous
 62
     4
370
    15
100
AcDbLine
 10
35.19559150000009
 20
161.379206
 30
0.0
 11
45.4955915000001
 21
161.379206
 31
0.0
  0
LINE
  5
346
330
1F
100
AcDbEntity
  8
135
  6
Continuous
 62
     4
370
    15
100
AcDbLine
 10
35.69559150000009
 20
161.379206
 30
0.0
 11
36.08382050000012
 21
162.828095
 31
0.0
  0
LINE
  5
347
330
1F
100
AcDbEntity
  8
135
  6
Continuous
 62
     4
370
    15
100
AcDbLine
 10
35.69559150000009
 20
161.379206
 30
0.0
 11
35.30736250000012
 21
162.828095
 31
0.0
  0
LINE
  5
348
330
1F
100
AcDbEntity
  8
135
  6
Continuous
 62
     4
370
    15
100
AcDbLine
 10
35.69559150000009
 20
161.379206
 30
0.0
 11
36.08382050000012
 21
159.930318
 31
0.0
  0
LINE
  5
349
330
1F
100
AcDbEntity
  8
135
  6
Continuous
 62
     4
370
    15
100
AcDbLine
 10
35.69559150000009
 20
161.379206
 30
0.0
 11
35.30736250000012
 21
159.930318
 31
0.0
  0
TEXT
  5
34A
330
1F
100
AcDbEntity
  8
136
  6
Continuous
 62
     7
370
    15
100
AcDbText
 10
35.19956476119501
 20
161.0268555917827
 30
0.0
 40
2.499996250002255
  1
10
 50
89.99999999999991
100
AcDbText
  0
LINE
  5
34B
330
1F
100
AcDbEntity
  8
141
  6
Continuous
 62
     7
370
    15
100
AcDbLine
 10
48.97578157642681
 20
162.47138
 30
0.0
 11
44.31484857642684
 21
166.567351
 31
0.0
  0
LINE
  5
34C
330
1F
100
AcDbEntity
  8
141
  6
Continuous
 62
     7
370
    15
100
AcDbLine
 10
44.31484857642684
 20
166.567351
 30
0.0
 11
30.79127574787242
 21
166.567351
 31
0.0
  0
TEXT
  5
34D
330
1F
100
AcDbEntity
  8
136
  6
Continuous
 62
     7
370
    15
100
AcDbText
 10
30.93907425095543
 20
167.3638070627113
 30
0.0
 40
2.5
  1
マグネット
 41
0.96
100
AcDbText
  0
LINE
  5
34E
330
1F
100
AcDbEntity
  8
141
  6
Continuous
 62
     7
370
    15
100
AcDbLine
 10
48.97578157642681
 20
162.47138
 30
0.0
 11
47.63115157642684
 21
163.136189
 31
0.0
  0
LINE
  5
34F
330
1F
100
AcDbEntity
  8
141
  6
Continuous
 62
     7
370
    15
100
AcDbLine
 10
48.97578157642681
 20
162.47138
 30
0.0
 11
48.14370257642685
 21
163.719436
 31
0.0
  0
LINE
  5
350
330
1F
100
AcDbEntity
  8
138
  6
HIDDEN
 62
     7
370
    15
100
AcDbLine
 10
227.592718982996
 20
163.7125160000001
 30
0.0
 11
225.926068982996
 21
163.7125160000001
 31
0.0
  0
LINE
  5
351
330
1F
100
AcDbEntity
  8
138
  6
HIDDEN
 62
     7
370
    15
100
AcDbLine
 10
227.592718982996
 20
163.35796321223
 30
0.0
 11
226.259398982996
 21
163.35796321223
 31
0.0
  0
LINE
  5
352
330
1F
100
AcDbEntity
  8
138
  6
HIDDEN
 62
     7
370
    15
100
AcDbLine
 10
227.592718982996
 20
164.045846
 30
0.0
 11
226.259398982996
 21
164.045846
 31
0.0
  0
LINE
  5
353
330
1F
100
AcDbEntity
  8
138
  6
HIDDEN
 62
     7
370
    15
100
AcDbLine
 10
227.592718982996
 20
158.712566
 30
0.0
 11
226.259398982996
 21
158.712566
 31
0.0
  0
LINE
  5
354
330
1F
100
AcDbEntity
  8
138
  6
HIDDEN
 62
     7
370
    15
100
AcDbLine
 10
227.592718982996
 20
159.0458960000001
 30
0.0
 11
225.926068982996
 21
159.0458960000001
 31
0.0
  0
LINE
  5
355
330
1F
100
AcDbEntity
  8
138
  6
HIDDEN
 62
     7
370
    15
100
AcDbLine
 10
227.592718982996
 20
159.40044845444
 30
0.0
 11
226.259398982996
 21
159.40044845444
 31
0.0
  0
LINE
  5
356
330
1F
100
AcDbEntity
  8
138
  6
HIDDEN
 62
     7
370
    15
100
AcDbLine
 10
226.259398982996
 20
159.0458960000001
 30
0.0
 11
226.259398982996
 21
163.7125160000001
 31
0.0
  0
LINE
  5
357
330
1F
100
AcDbEntity
  8
138
  6
HIDDEN
 62
     7
370
    15
100
AcDbLine
 10
225.926068982996
 20
159.0458960000001
 30
0.0
 11
225.926068982996
 21
163.7125160000001
 31
0.0
  0
ARC
  5
358
330
1F
100
AcDbEntity
  8
138
  6
HIDDEN
 62
     7
370
    15
100
AcDbCircle
 10
226.259398982996
 20
159.0458960000001
 30
0.0
 40
0.3333299999999895
100
AcDbArc
 50
179.9999999999998
 51
269.9999999999998
  0
LINE
  5
359
330
1F
100
AcDbEntity
  8
138
  6
HIDDEN
 62
     7
370
    15
100
AcDbLine
 10
226.259398982996
 20
159.22452688034
 30
0.0
 11
225.926068982996
 21
159.22452688034
 31
0.0
  0
LINE
  5
35A
330
1F
100
AcDbEntity
  8
138
  6
HIDDEN
 62
     7
370
    15
100
AcDbLine
 10
226.259398982996
 20
161.045876
 30
0.0
 11
225.926068982996
 21
161.045876
 31
0.0
  0
ARC
  5
35B
330
1F
100
AcDbEntity
  8
138
  6
HIDDEN
 62
     7
370
    15
100
AcDbCircle
 10
226.259398982996
 20
163.7125160000001
 30
0.0
 40
0.3333299999999895
100
AcDbArc
 50
89.99999999999991
 51
179.9999999999998
  0
LINE
  5
35C
330
1F
100
AcDbEntity
  8
138
  6
HIDDEN
 62
     7
370
    15
100
AcDbLine
 10
226.259398982996
 20
163.53388478633
 30
0.0
 11
225.926068982996
 21
163.53388478633
 31
0.0
  0
LINE
  5
35D
330
1F
100
AcDbEntity
  8
138
  6
HIDDEN
 62
     7
370
    15
100
AcDbLine
 10
226.259398982996
 20
161.712536
 30
0.0
 11
225.926068982996
 21
161.712536
 31
0.0
  0
LINE
  5
35E
330
1F
100
AcDbEntity
  8
138
  6
Continuous
 62
     7
370
    15
100
AcDbLine
 10
227.592718982996
 20
159.40044845444
 30
0.0
 11
227.592718982996
 21
163.35796321223
 31
0.0
  0
LINE
  5
35F
330
1F
100
AcDbEntity
  8
138
  6
Continuous
 62
     7
370
    15
100
AcDbLine
 10
227.592718982996
 20
158.712566
 30
0.0
 11
227.592718982996
 21
159.0458960000001
 31
0.0
  0
LINE
  5
360
330
1F
100
AcDbEntity
  8
138
  6
Continuous
 62
     7
370
    15
100
AcDbLine
 10
227.592718982996
 20
163.7125160000001
 30
0.0
 11
227.592718982996
 21
164.045846
 31
0.0
  0
LINE
  5
361
330
1F
100
AcDbEntity
  8
138
  6
HIDDEN
 62
     7
370
    15
100
AcDbLine
 10
227.592718982996
 20
138.7125160000001
 30
0.0
 11
225.926068982996
 21
138.7125160000001
 31
0.0
  0
LINE
  5
362
330
1F
100
AcDbEntity
  8
138
  6
HIDDEN
 62
     7
370
    15
100
AcDbLine
 10
227.592718982996
 20
138.35796321223
 30
0.0
 11
226.259398982996
 21
138.35796321223
 31
0.0
  0
LINE
  5
363
330
1F
100
AcDbEntity
  8
138
  6
HIDDEN
 62
     7
370
    15
100
AcDbLine
 10
227.592718982996
 20
139.045846
 30
0.0
 11
226.259398982996
 21
139.045846
 31
0.0
  0
LINE
  5
364
330
1F
100
AcDbEntity
  8
138
  6
HIDDEN
 62
     7
370
    15
100
AcDbLine
 10
227.592718982996
 20
133.712566
 30
0.0
 11
226.259398982996
 21
133.712566
 31
0.0
  0
LINE
  5
365
330
1F
100
AcDbEntity
  8
138
  6
HIDDEN
 62
     7
370
    15
100
AcDbLine
 10
227.592718982996
 20
134.0458960000001
 30
0.0
 11
225.926068982996
 21
134.0458960000001
 31
0.0
  0
LINE
  5
366
330
1F
100
AcDbEntity
  8
138
  6
HIDDEN
 62
     7
370
    15
100
AcDbLine
 10
227.592718982996
 20
134.40044845444
 30
0.0
 11
226.259398982996
 21
134.40044845444
 31
0.0
  0
LINE
  5
367
330
1F
100
AcDbEntity
  8
138
  6
HIDDEN
 62
     7
370
    15
100
AcDbLine
 10
226.259398982996
 20
134.0458960000001
 30
0.0
 11
226.259398982996
 21
138.7125160000001
 31
0.0
  0
LINE
  5
368
330
1F
100
AcDbEntity
  8
138
  6
HIDDEN
 62
     7
370
    15
100
AcDbLine
 10
225.926068982996
 20
134.0458960000001
 30
0.0
 11
225.926068982996
 21
138.7125160000001
 31
0.0
  0
ARC
  5
369
330
1F
100
AcDbEntity
  8
138
  6
HIDDEN
 62
     7
370
    15
100
AcDbCircle
 10
226.259398982996
 20
134.0458960000001
 30
0.0
 40
0.3333299999999895
100
AcDbArc
 50
179.9999999999998
 51
269.9999999999998
  0
LINE
  5
36A
330
1F
100
AcDbEntity
  8
138
  6
HIDDEN
 62
     7
370
    15
100
AcDbLine
 10
226.259398982996
 20
134.22452688034
 30
0.0
 11
225.926068982996
 21
134.22452688034
 31
0.0
  0
LINE
  5
36B
330
1F
100
AcDbEntity
  8
138
  6
Continuous
 62
     7
370
    15
100
AcDbLine
 10
226.259398982996
 20
136.045876
 30
0.0
 11
225.926068982996
 21
136.045876
 31
0.0
  0
ARC
  5
36C
330
1F
100
AcDbEntity
  8
138
  6
HIDDEN
 62
     7
370
    15
100
AcDbCircle
 10
226.259398982996
 20
138.7125160000001
 30
0.0
 40
0.3333299999999895
100
AcDbArc
 50
89.99999999999991
 51
179.9999999999998
  0
LINE
  5
36D
330
1F
100
AcDbEntity
  8
138
  6
HIDDEN
 62
     7
370
    15
100
AcDbLine
 10
226.259398982996
 20
138.53388478633
 30
0.0
 11
225.926068982996
 21
138.53388478633
 31
0.0
  0
LINE
  5
36E
330
1F
100
AcDbEntity
  8
138
  6
Continuous
 62
     7
370
    15
100
AcDbLine
 10
226.259398982996
 20
136.712536
 30
0.0
 11
225.926068982996
 21
136.712536
 31
0.0
  0
LINE
  5
36F
330
1F
100
AcDbEntity
  8
138
  6
Continuous
 62
     7
370
    15
100
AcDbLine
 10
227.592718982996
 20
134.40044845444
 30
0.0
 11
227.592718982996
 21
138.35796321223
 31
0.0
  0
LINE
  5
370
330
1F
100
AcDbEntity
  8
138
  6
Continuous
 62
     7
370
    15
100
AcDbLine
 10
227.592718982996
 20
133.712566
 30
0.0
 11
227.592718982996
 21
134.0458960000001
 31
0.0
  0
LINE
  5
371
330
1F
100
AcDbEntity
  8
138
  6
Continuous
 62
     7
370
    15
100
AcDbLine
 10
227.592718982996
 20
138.7125160000001
 30
0.0
 11
227.592718982996
 21
139.045846
 31
0.0
  0
LINE
  5
372
330
1F
100
AcDbEntity
  8
135
  6
Continuous
 62
     4
370
    15
100
AcDbLine
 10
230.0636452439511
 20
161.379206
 30
0.0
 11
245.0927359829961
 21
161.379206
 31
0.0
  0
LINE
  5
373
330
1F
100
AcDbEntity
  8
135
  6
Continuous
 62
     4
370
    15
100
AcDbLine
 10
230.51266480371
 20
136.379206
 30
0.0
 11
245.0927359829961
 21
136.379206
 31
0.0
  0
TEXT
  5
374
330
1F
100
AcDbEntity
  8
143
  6
Continuous
 62
   171
370
    15
100
AcDbText
 10
251.0
 20
19.19999999999999
 30
0.0
 40
3.6
  1
隠塚
100
AcDbText
  0
LINE
  5
375
330
1F
100
AcDbEntity
  8
138
  6
Continuous
 62
     7
370
    15
100
AcDbLine
 10
87.86225850000008
 20
117.2092060000001
 30
0.0
 11
88.5289255000001
 21
117.2092060000001
 31
0.0
  0
TEXT
  5
376
330
1F
100
AcDbEntity
  8
133
  6
Continuous
 62
     4
370
    15
100
AcDbText
 10
235.9468543973057
 20
191.0927013999436
 30
0.0
 40
2.5
  1
訂 正 年 月 日
 41
0.9599999999999997
100
AcDbText
  0
TEXT
  5
377
330
1F
100
AcDbEntity
  8
133
  6
Continuous
 62
     4
370
    15
100
AcDbText
 10
235.0078476093249
 20
187.5927013999437
 30
0.0
 40
2.5
  1
２０１３年０３月１３日
 41
0.6599999999999998
100
AcDbText
  0
LINE
  5
378
330
1F
100
AcDbEntity
  8
134
  6
Continuous
 62
     7
370
    15
100
AcDbLine
 10
285.0000000000002
 20
190.5
 30
0.0
 11
178.0000000000002
 21
190.5
 31
0.0
  0
LINE
  5
379
330
1F
100
AcDbEntity
  8
134
  6
Continuous
 62
     7
370
    15
100
AcDbLine
 10
285.0000000000003
 20
187.0000000000001
 30
0.0
 11
178.0000000000003
 21
187.0000000000001
 31
0.0
  0
TEXT
  5
37A
330
1F
100
AcDbEntity
  8
133
  6
Continuous
 62
     4
370
    15
100
AcDbText
 10
186.7582012915752
 20
187.5927013999437
 30
0.0
 40
2.5
  1
品番・色記号変更
 41
0.96
100
AcDbText
  0
LINE
  5
37B
330
1F
100
AcDbEntity
  8
134
  6
Continuous
 62
     7
370
    15
100
AcDbLine
 10
178.0000000000002
 20
187.0000000000001
 30
0.0
 11
178.0000000000002
 21
193.9999999999999
 31
0.0
  0
LINE
  5
37C
330
1F
100
AcDbEntity
  8
134
  6
Continuous
 62
     7
370
    15
100
AcDbLine
 10
185.0000000000003
 20
187.0000000000001
 30
0.0
 11
185.0000000000002
 21
193.9999999999999
 31
0.0
  0
TEXT
  5
37D
330
1F
100
AcDbEntity
  8
133
  6
Continuous
 62
     4
370
    15
100
AcDbText
 10
178.8682101454912
 20
191.0927013999436
 30
0.0
 40
2.5
  1
記号
 41
0.96
100
AcDbText
  0
TEXT
  5
37E
330
1F
100
AcDbEntity
  8
133
  6
Continuous
 62
     4
370
    15
100
AcDbText
 10
198.868276682086
 20
191.0927013999436
 30
0.0
 40
2.5
  1
訂　 正　 記　 事
 41
0.96
100
AcDbText
  0
LINE
  5
37F
330
1F
100
AcDbEntity
  8
134
  6
Continuous
 62
     7
370
    15
100
AcDbLine
 10
235.0000000000001
 20
187.0000000000001
 30
0.0
 11
235.0000000000002
 21
193.9999999999999
 31
0.0
  0
TEXT
  5
380
330
1F
100
AcDbEntity
  8
133
  6
Continuous
 62
     4
370
    15
100
AcDbText
 10
261.0335588819851
 20
191.1531610554545
 30
0.0
 40
2.5
  1
備　　　　　考
 41
0.96
100
AcDbText
  0
LINE
  5
381
330
1F
100
AcDbEntity
  8
134
  6
Continuous
 62
     7
370
    15
100
AcDbLine
 10
255.0000000000001
 20
187.0000000000001
 30
0.0
 11
255.0000000000002
 21
193.9999999999999
 31
0.0
  0
TEXT
  5
382
330
1F
100
AcDbEntity
  8
143
  6
Continuous
 62
   171
370
    15
100
AcDbText
 10
185.6160452521722
 20
32.65467822253623
 30
0.0
 40
3.0
  1
品
 41
1.2
100
AcDbText
  0
TEXT
  5
383
330
1F
100
AcDbEntity
  8
143
  6
Continuous
 62
   171
370
    15
100
AcDbText
 10
185.6160452521722
 20
24.65467822253623
 30
0.0
 40
3.0
  1
品
 41
1.2
100
AcDbText
  0
TEXT
  5
384
330
1F
100
AcDbEntity
  8
143
  6
Continuous
 62
   171
370
    15
100
AcDbText
 10
185.6160452521722
 20
28.81731009514055
 30
0.0
 40
3.0
  1
名
 41
1.2
100
AcDbText
  0
TEXT
  5
385
330
1F
100
AcDbEntity
  8
143
  6
Continuous
 62
   171
370
    15
100
AcDbText
 10
185.6160452521722
 20
16.65467822253623
 30
0.0
 40
3.0
  1
備
 41
1.2
100
AcDbText
  0
TEXT
  5
386
330
1F
100
AcDbEntity
  8
143
  6
Continuous
 62
   171
370
    15
100
AcDbText
 10
185.6160452521722
 20
20.81731009514055
 30
0.0
 40
3.0
  1
番
 41
1.2
100
AcDbText
  0
TEXT
  5
387
330
1F
100
AcDbEntity
  8
143
  6
Continuous
 62
   171
370
    15
100
AcDbText
 10
185.6160452521722
 20
12.81731009514055
 30
0.0
 40
3.0
  1
考
 41
1.2
100
AcDbText
  0
VIEWPORT
  5
2A
330
1B
100
AcDbEntity
 67
     1
  8
0
100
AcDbViewport
 10
148.5
 20
105.0
 30
0.0
 40
297.0
 41
210.0
 68
     1
 69
     1
 12
148.5
 22
105.0
 13
0.0
 23
0.0
 14
0.5
 24
0.5
 15
0.5
 25
0.5
 16
0.0
 26
0.0
 36
1.0
 17
0.0
 27
0.0
 37
0.0
 42
50.0
 43
0.0
 44
0.0
 45
9.0
 50
0.0
 51
0.0
 72
   100
 90
    32800
  1

281
     0
 71
     1
 74
     0
110
0.0
120
0.0
130
0.0
111
1.0
121
0.0
131
0.0
112
0.0
122
1.0
132
0.0
 79
     0
146
0.0
170
     0
  0
ENDSEC
  0
SECTION
  2
OBJECTS
  0
DICTIONARY
  5
C
330
0
100
AcDbDictionary
281
     1
  3
ACAD_GROUP
350
D
  3
ACAD_LAYOUT
350
1A
  3
ACAD_MLINESTYLE
350
17
  3
ACAD_PLOTSETTINGS
350
19
  3
ACAD_PLOTSTYLENAME
350
E
  0
DICTIONARY
  5
D
102
{ACAD_REACTORS
330
C
102
}
330
C
100
AcDbDictionary
281
     1
  0
DICTIONARY
  5
1A
102
{ACAD_REACTORS
330
C
102
}
330
C
100
AcDbDictionary
281
     1
  3
Layout1
350
1E
  3
Layout2
350
26
  3
Model
350
22
  0
DICTIONARY
  5
17
102
{ACAD_REACTORS
330
C
102
}
330
C
100
AcDbDictionary
281
     1
  3
Standard
350
18
  0
DICTIONARY
  5
19
102
{ACAD_REACTORS
330
C
102
}
330
C
100
AcDbDictionary
281
     1
  0
ACDBDICTIONARYWDFLT
  5
E
102
{ACAD_REACTORS
330
C
102
}
330
C
100
AcDbDictionary
281
     1
  3
Normal
350
F
100
AcDbDictionaryWithDefault
340
F
  0
LAYOUT
  5
1E
102
{ACAD_REACTORS
330
1A
102
}
330
1A
100
AcDbPlotSettings
  1

  2

  4

  6

 40
0.0
 41
0.0
 42
0.0
 43
0.0
 44
0.0
 45
0.0
 46
0.0
 47
0.0
 48
0.0
 49
0.0
140
0.0
141
0.0
142
1.0
143
1.0
 70
   688
 72
     0
 73
     0
 74
     5
  7

 75
    16
 76
     0
 77
     2
 78
   300
147
1.0
148
0.0
149
0.0
100
AcDbLayout
  1
Layout1
 70
     1
 71
     1
 10
0.0
 20
0.0
 11
297.0
 21
210.0
 12
0.0
 22
0.0
 32
0.0
 14
0.0
 24
0.0
 34
0.0
 15
297.0
 25
210.0
 35
0.0
146
0.0
 13
0.0
 23
0.0
 33
0.0
 16
1.0
 26
0.0
 36
0.0
 17
0.0
 27
1.0
 37
0.0
 76
     0
330
1B
331
2A
  0
LAYOUT
  5
26
102
{ACAD_REACTORS
330
1A
102
}
330
1A
100
AcDbPlotSettings
  1

  2

  4

  6

 40
0.0
 41
0.0
 42
0.0
 43
0.0
 44
0.0
 45
0.0
 46
0.0
 47
0.0
 48
0.0
 49
0.0
140
0.0
141
0.0
142
1.0
143
1.0
 70
   688
 72
     0
 73
     0
 74
     5
  7

 75
    16
 76
     0
 77
     2
 78
   300
147
1.0
148
0.0
149
0.0
100
AcDbLayout
  1
Layout2
 70
     1
 71
     2
 10
0.0
 20
0.0
 11
0.0
 21
0.0
 12
0.0
 22
0.0
 32
0.0
 14
0.0
 24
0.0
 34
0.0
 15
0.0
 25
0.0
 35
0.0
146
0.0
 13
0.0
 23
0.0
 33
0.0
 16
1.0
 26
0.0
 36
0.0
 17
0.0
 27
1.0
 37
0.0
 76
     0
330
23
  0
LAYOUT
  5
22
102
{ACAD_REACTORS
330
1A
102
}
330
1A
100
AcDbPlotSettings
  1

  2

  4

  6

 40
0.0
 41
0.0
 42
0.0
 43
0.0
 44
0.0
 45
0.0
 46
0.0
 47
0.0
 48
0.0
 49
0.0
140
0.0
141
0.0
142
1.0
143
1.0
 70
  1712
 72
     0
 73
     0
 74
     0
  7

 75
     0
 76
     0
 77
     2
 78
   300
147
1.0
148
0.0
149
0.0
100
AcDbLayout
  1
Model
 70
     1
 71
     0
 10
0.0
 20
0.0
 11
297.0
 21
210.0
 12
0.0
 22
0.0
 32
0.0
 14
0.0
 24
0.0
 34
0.0
 15
297.0
 25
210.0
 35
0.0
146
0.0
 13
0.0
 23
0.0
 33
0.0
 16
1.0
 26
0.0
 36
0.0
 17
0.0
 27
1.0
 37
0.0
 76
     0
330
1F
  0
MLINESTYLE
  5
18
102
{ACAD_REACTORS
330
17
102
}
330
17
100
AcDbMlineStyle
  2
Standard
 70
     0
  3

 62
   256
 51
90.0
 52
90.0
 71
     2
 49
0.5
 62
   256
  6
BYLAYER
 49
-0.5
 62
   256
  6
BYLAYER
  0
ACDBPLACEHOLDER
  5
F
102
{ACAD_REACTORS
330
E
102
}
330
E
  0
ENDSEC
  0
EOF
