  0
SECTION
  2
HEADER
  9
$ACADVER
  1
AC1015
  9
$ACADMAINTVER
 70
    20
  9
$DWGCODEPAGE
  3
ANSI_932
  9
$INSBASE
 10
0.0
 20
0.0
 30
0.0
  9
$EXTMIN
 10
72.0
 20
70.8
 30
0.0
  9
$EXTMAX
 10
1710.0
 20
1152.0
 30
0.0
  9
$LIMMIN
 10
0.0
 20
0.0
  9
$LIMMAX
 10
1782.0
 20
1260.0
  9
$ORTHOMODE
 70
     0
  9
$REGENMODE
 70
     1
  9
$FILLMODE
 70
     1
  9
$QTEXTMODE
 70
     0
  9
$MIRRTEXT
 70
     0
  9
$LTSCALE
 40
6.0
  9
$ATTMODE
 70
     1
  9
$TEXTSIZE
 40
0.2
  9
$TRACEWID
 40
0.05
  9
$TEXTSTYLE
  7
STANDARD
  9
$CLAYER
  8
0
  9
$CELTYPE
  6
CONTINUOUS
  9
$CECOLOR
 62
   256
  9
$CELTSCALE
 40
1.0
  9
$DISPSILH
 70
     0
  9
$DIMSCALE
 40
1.0
  9
$DIMASZ
 40
0.18
  9
$DIMEXO
 40
0.0625
  9
$DIMDLI
 40
0.38
  9
$DIMRND
 40
0.0
  9
$DIMDLE
 40
0.0
  9
$DIMEXE
 40
0.18
  9
$DIMTP
 40
0.0
  9
$DIMTM
 40
0.0
  9
$DIMTXT
 40
0.18
  9
$DIMCEN
 40
0.09
  9
$DIMTSZ
 40
0.0
  9
$DIMTOL
 70
     0
  9
$DIMLIM
 70
     0
  9
$DIMTIH
 70
     1
  9
$DIMTOH
 70
     1
  9
$DIMSE1
 70
     0
  9
$DIMSE2
 70
     0
  9
$DIMTAD
 70
     0
  9
$DIMZIN
 70
     0
  9
$DIMBLK
  1

  9
$DIMASO
 70
     1
  9
$DIMSHO
 70
     1
  9
$DIMPOST
  1

  9
$DIMAPOST
  1

  9
$DIMALT
 70
     0
  9
$DIMALTD
 70
     2
  9
$DIMALTF
 40
25.4
  9
$DIMLFAC
 40
1.0
  9
$DIMTOFL
 70
     0
  9
$DIMTVP
 40
0.0
  9
$DIMTIX
 70
     0
  9
$DIMSOXD
 70
     0
  9
$DIMSAH
 70
     0
  9
$DIMBLK1
  1

  9
$DIMBLK2
  1

  9
$DIMSTYLE
  2
Standard
  9
$DIMCLRD
 70
     0
  9
$DIMCLRE
 70
     0
  9
$DIMCLRT
 70
     0
  9
$DIMTFAC
 40
1.0
  9
$DIMGAP
 40
0.09
  9
$DIMJUST
 70
     0
  9
$DIMSD1
 70
     0
  9
$DIMSD2
 70
     0
  9
$DIMTOLJ
 70
     1
  9
$DIMTZIN
 70
     0
  9
$DIMALTZ
 70
     0
  9
$DIMALTTZ
 70
     0
  9
$DIMUPT
 70
     0
  9
$DIMDEC
 70
     4
  9
$DIMTDEC
 70
     4
  9
$DIMALTU
 70
     2
  9
$DIMALTTD
 70
     2
  9
$DIMTXSTY
  7
STANDARD
  9
$DIMAUNIT
 70
     0
  9
$DIMADEC
 70
     0
  9
$DIMALTRND
 40
0.0
  9
$DIMAZIN
 70
     0
  9
$DIMDSEP
 70
    46
  9
$DIMATFIT
 70
     3
  9
$DIMFRAC
 70
     0
  9
$DIMLDRBLK
  1

  9
$DIMLUNIT
 70
     2
  9
$DIMLWD
 70
    -2
  9
$DIMLWE
 70
    -2
  9
$DIMTMOVE
 70
     0
  9
$LUNITS
 70
     2
  9
$LUPREC
 70
     4
  9
$SKETCHINC
 40
0.1
  9
$FILLETRAD
 40
0.0
  9
$AUNITS
 70
     0
  9
$AUPREC
 70
     0
  9
$MENU
  1
.
  9
$ELEVATION
 40
0.0
  9
$PELEVATION
 40
0.0
  9
$THICKNESS
 40
0.0
  9
$LIMCHECK
 70
     0
  9
$CHAMFERA
 40
0.0
  9
$CHAMFERB
 40
0.0
  9
$CHAMFERC
 40
0.0
  9
$CHAMFERD
 40
0.0
  9
$SKPOLY
 70
     0
  9
$TDCREATE
 40
2457255.459059723
  9
$TDUCREATE
 40
2457255.084059723
  9
$TDUPDATE
 40
2457255.461035833
  9
$TDUUPDATE
 40
2457255.086035833
  9
$TDINDWG
 40
0.0012332060
  9
$TDUSRTIMER
 40
0.0012332060
  9
$USRTIMER
 70
     1
  9
$ANGBASE
 50
0.0
  9
$ANGDIR
 70
     0
  9
$PDMODE
 70
     0
  9
$PDSIZE
 40
0.0
  9
$PLINEWID
 40
0.0
  9
$SPLFRAME
 70
     0
  9
$SPLINETYPE
 70
     6
  9
$SPLINESEGS
 70
     8
  9
$HANDSEED
  5
413
  9
$SURFTAB1
 70
     6
  9
$SURFTAB2
 70
     6
  9
$SURFTYPE
 70
     6
  9
$SURFU
 70
     6
  9
$SURFV
 70
     6
  9
$UCSBASE
  2

  9
$UCSNAME
  2

  9
$UCSORG
 10
0.0
 20
0.0
 30
0.0
  9
$UCSXDIR
 10
1.0
 20
0.0
 30
0.0
  9
$UCSYDIR
 10
0.0
 20
1.0
 30
0.0
  9
$UCSORTHOREF
  2

  9
$UCSORTHOVIEW
 70
     0
  9
$UCSORGTOP
 10
0.0
 20
0.0
 30
0.0
  9
$UCSORGBOTTOM
 10
0.0
 20
0.0
 30
0.0
  9
$UCSORGLEFT
 10
0.0
 20
0.0
 30
0.0
  9
$UCSORGRIGHT
 10
0.0
 20
0.0
 30
0.0
  9
$UCSORGFRONT
 10
0.0
 20
0.0
 30
0.0
  9
$UCSORGBACK
 10
0.0
 20
0.0
 30
0.0
  9
$PUCSBASE
  2

  9
$PUCSNAME
  2

  9
$PUCSORG
 10
0.0
 20
0.0
 30
0.0
  9
$PUCSXDIR
 10
1.0
 20
0.0
 30
0.0
  9
$PUCSYDIR
 10
0.0
 20
1.0
 30
0.0
  9
$PUCSORTHOREF
  2

  9
$PUCSORTHOVIEW
 70
     0
  9
$PUCSORGTOP
 10
0.0
 20
0.0
 30
0.0
  9
$PUCSORGBOTTOM
 10
0.0
 20
0.0
 30
0.0
  9
$PUCSORGLEFT
 10
0.0
 20
0.0
 30
0.0
  9
$PUCSORGRIGHT
 10
0.0
 20
0.0
 30
0.0
  9
$PUCSORGFRONT
 10
0.0
 20
0.0
 30
0.0
  9
$PUCSORGBACK
 10
0.0
 20
0.0
 30
0.0
  9
$USERI1
 70
     0
  9
$USERI2
 70
     0
  9
$USERI3
 70
     0
  9
$USERI4
 70
     0
  9
$USERI5
 70
     0
  9
$USERR1
 40
0.0
  9
$USERR2
 40
0.0
  9
$USERR3
 40
0.0
  9
$USERR4
 40
0.0
  9
$USERR5
 40
0.0
  9
$WORLDVIEW
 70
     1
  9
$SHADEDGE
 70
     3
  9
$SHADEDIF
 70
    70
  9
$TILEMODE
 70
     1
  9
$MAXACTVP
 70
    64
  9
$PINSBASE
 10
0.0
 20
0.0
 30
0.0
  9
$PLIMCHECK
 70
     0
  9
$PEXTMIN
 10
1.000000000000000E+20
 20
1.000000000000000E+20
 30
1.000000000000000E+20
  9
$PEXTMAX
 10
-1.000000000000000E+20
 20
-1.000000000000000E+20
 30
-1.000000000000000E+20
  9
$PLIMMIN
 10
0.0
 20
0.0
  9
$PLIMMAX
 10
12.0
 20
9.0
  9
$UNITMODE
 70
     0
  9
$VISRETAIN
 70
     1
  9
$PLINEGEN
 70
     0
  9
$PSLTSCALE
 70
     1
  9
$TREEDEPTH
 70
  3020
  9
$CMLSTYLE
  2
Standard
  9
$CMLJUST
 70
     0
  9
$CMLSCALE
 40
1.0
  9
$PROXYGRAPHICS
 70
     1
  9
$MEASUREMENT
 70
     0
  9
$CELWEIGHT
370
    -1
  9
$ENDCAPS
280
     0
  9
$JOINSTYLE
280
     0
  9
$LWDISPLAY
290
     0
  9
$INSUNITS
 70
     0
  9
$HYPERLINKBASE
  1

  9
$STYLESHEET
  1

  9
$XEDIT
290
     1
  9
$CEPSNTYPE
380
     0
  9
$PSTYLEMODE
290
     1
  9
$FINGERPRINTGUID
  2
{1EC8D898-7A43-4FF7-9C01-7382CE05E311}
  9
$VERSIONGUID
  2
{0DD13895-A4C8-43D4-AD5B-266F70788ACF}
  9
$EXTNAMES
290
     1
  9
$PSVPSCALE
 40
0.0
  9
$OLESTARTUP
290
     0
  0
ENDSEC
  0
SECTION
  2
CLASSES
  0
CLASS
  1
ACDBDICTIONARYWDFLT
  2
AcDbDictionaryWithDefault
  3
ObjectDBX Classes
 90
        0
280
     0
281
     0
  0
CLASS
  1
MATERIAL
  2
AcDbMaterial
  3
ObjectDBX Classes
 90
     1153
280
     0
281
     0
  0
CLASS
  1
VISUALSTYLE
  2
AcDbVisualStyle
  3
ObjectDBX Classes
 90
     4095
280
     0
281
     0
  0
CLASS
  1
SCALE
  2
AcDbScale
  3
ObjectDBX Classes
 90
     1153
280
     0
281
     0
  0
CLASS
  1
TABLESTYLE
  2
AcDbTableStyle
  3
ObjectDBX Classes
 90
     4095
280
     0
281
     0
  0
CLASS
  1
MLEADERSTYLE
  2
AcDbMLeaderStyle
  3
ACDB_MLEADERSTYLE_CLASS
 90
     4095
280
     0
281
     0
  0
CLASS
  1
ACDBSECTIONVIEWSTYLE
  2
AcDbSectionViewStyle
  3
ObjectDBX Classes
 90
     1025
280
     0
281
     0
  0
CLASS
  1
ACDBDETAILVIEWSTYLE
  2
AcDbDetailViewStyle
  3
ObjectDBX Classes
 90
     1025
280
     0
281
     0
  0
CLASS
  1
DICTIONARYVAR
  2
AcDbDictionaryVar
  3
ObjectDBX Classes
 90
        0
280
     0
281
     0
  0
CLASS
  1
CELLSTYLEMAP
  2
AcDbCellStyleMap
  3
ObjectDBX Classes
 90
     1152
280
     0
281
     0
  0
CLASS
  1
ACDBPLACEHOLDER
  2
AcDbPlaceHolder
  3
ObjectDBX Classes
 90
        0
280
     0
281
     0
  0
CLASS
  1
LAYOUT
  2
AcDbLayout
  3
ObjectDBX Classes
 90
        0
280
     0
281
     0
  0
ENDSEC
  0
SECTION
  2
TABLES
  0
TABLE
  2
VPORT
  5
8
330
0
100
AcDbSymbolTable
 70
     1
  0
VPORT
  5
9E
330
8
100
AcDbSymbolTableRecord
100
AcDbViewportTableRecord
  2
*Active
 70
     0
 10
0.0
 20
0.0
 11
1.0
 21
1.0
 12
891.000004149042
 22
611.3987761053707
 13
0.0
 23
0.0
 14
1.0
 24
1.0
 15
0.0
 25
0.0
 16
0.0
 26
0.0
 36
1.0
 17
0.0
 27
0.0
 37
0.0
 40
1090.419670118743
 41
1.78072625698324
 42
50.0
 43
0.0
 44
0.0
 50
0.0
 51
0.0
 71
     0
 72
   100
 73
     1
 74
     1
 75
     0
 76
     0
 77
     0
 78
     0
281
     0
 65
     1
110
0.0
120
0.0
130
0.0
111
1.0
121
0.0
131
0.0
112
0.0
122
1.0
132
0.0
 79
     0
146
0.0
1001
ACAD_NAV_VCDISPLAY
1070
     3
  0
ENDTAB
  0
TABLE
  2
LTYPE
  5
5
330
0
100
AcDbSymbolTable
 70
    35
  0
LTYPE
  5
5A
330
5
100
AcDbSymbolTableRecord
100
AcDbLinetypeTableRecord
  2
ByBlock
 70
     0
  3

 72
    65
 73
     0
 40
0.0
  0
LTYPE
  5
5B
330
5
100
AcDbSymbolTableRecord
100
AcDbLinetypeTableRecord
  2
ByLayer
 70
     0
  3

 72
    65
 73
     0
 40
0.0
  0
LTYPE
  5
5C
330
5
100
AcDbSymbolTableRecord
100
AcDbLinetypeTableRecord
  2
CONTINUOUS
 70
     0
  3
実線
 72
    65
 73
     0
 40
0.0
  0
LTYPE
  5
73
330
5
100
AcDbSymbolTableRecord
100
AcDbLinetypeTableRecord
  2
DASHED1
 70
     0
  3
--  --  --  --  --  --  --  --  
 72
    65
 73
     2
 40
2.5
 49
1.25
 74
     0
 49
-1.25
 74
     0
  0
LTYPE
  5
74
330
5
100
AcDbSymbolTableRecord
100
AcDbLinetypeTableRecord
  2
DASHED2
 70
     0
  3
----    ----    ----    ----    
 72
    65
 73
     2
 40
5.0
 49
2.5
 74
     0
 49
-2.5
 74
     0
  0
LTYPE
  5
75
330
5
100
AcDbSymbolTableRecord
100
AcDbLinetypeTableRecord
  2
DASHED3
 70
     0
  3
------  ------  ------  ------  
 72
    65
 73
     2
 40
5.0
 49
3.75
 74
     0
 49
-1.25
 74
     0
  0
LTYPE
  5
76
330
5
100
AcDbSymbolTableRecord
100
AcDbLinetypeTableRecord
  2
CENTER1
 70
     0
  3
----- - ----- - ----- - ----- - 
 72
    65
 73
     4
 40
10.0
 49
6.25
 74
     0
 49
-1.25
 74
     0
 49
1.25
 74
     0
 49
-1.25
 74
     0
  0
LTYPE
  5
77
330
5
100
AcDbSymbolTableRecord
100
AcDbLinetypeTableRecord
  2
CENTER2
 70
     0
  3
----------  --  ----------  --  
 72
    65
 73
     4
 40
20.0
 49
12.5
 74
     0
 49
-2.5
 74
     0
 49
2.5
 74
     0
 49
-2.5
 74
     0
  0
LTYPE
  5
78
330
5
100
AcDbSymbolTableRecord
100
AcDbLinetypeTableRecord
  2
PHANTOM1
 70
     0
  3
--- - - --- - - --- - - --- - - 
 72
    65
 73
     6
 40
10.0
 49
3.25
 74
     0
 49
-1.25
 74
     0
 49
1.25
 74
     0
 49
-1.25
 74
     0
 49
1.25
 74
     0
 49
-1.25
 74
     0
  0
LTYPE
  5
79
330
5
100
AcDbSymbolTableRecord
100
AcDbLinetypeTableRecord
  2
PHANTOM2
 70
     0
  3
--------  -  -  --------  -  -  
 72
    65
 73
     6
 40
20.0
 49
10.0
 74
     0
 49
-2.5
 74
     0
 49
1.25
 74
     0
 49
-2.5
 74
     0
 49
1.25
 74
     0
 49
-2.5
 74
     0
  0
LTYPE
  5
7A
330
5
100
AcDbSymbolTableRecord
100
AcDbLinetypeTableRecord
  2
DOT
 70
     0
  3
-   -   -   -   -   -   -   -   
 72
    65
 73
     2
 40
2.5
 49
0.625
 74
     0
 49
-1.875
 74
     0
  0
LTYPE
  5
7B
330
5
100
AcDbSymbolTableRecord
100
AcDbLinetypeTableRecord
  2
DUMMY
 70
     0
  3
ダミー
 72
    65
 73
     0
 40
0.0
  0
LTYPE
  5
7C
330
5
100
AcDbSymbolTableRecord
100
AcDbLinetypeTableRecord
  2
RAND1
 70
     0
  3
ランダム線1
 72
    65
 73
     4
 40
10.0
 49
1.0
 74
     0
 49
-2.0
 74
     0
 49
3.0
 74
     0
 49
-4.0
 74
     0
  0
LTYPE
  5
7D
330
5
100
AcDbSymbolTableRecord
100
AcDbLinetypeTableRecord
  2
RAND2
 70
     0
  3
ランダム線2
 72
    65
 73
     4
 40
14.0
 49
2.0
 74
     0
 49
-3.0
 74
     0
 49
4.0
 74
     0
 49
-5.0
 74
     0
  0
LTYPE
  5
7E
330
5
100
AcDbSymbolTableRecord
100
AcDbLinetypeTableRecord
  2
RAND3
 70
     0
  3
ランダム線3
 72
    65
 73
     4
 40
18.0
 49
3.0
 74
     0
 49
-4.0
 74
     0
 49
5.0
 74
     0
 49
-6.0
 74
     0
  0
LTYPE
  5
7F
330
5
100
AcDbSymbolTableRecord
100
AcDbLinetypeTableRecord
  2
RAND4
 70
     0
  3
ランダム線4
 72
    65
 73
     4
 40
22.0
 49
4.0
 74
     0
 49
-5.0
 74
     0
 49
6.0
 74
     0
 49
-7.0
 74
     0
  0
LTYPE
  5
80
330
5
100
AcDbSymbolTableRecord
100
AcDbLinetypeTableRecord
  2
RAND5
 70
     0
  3
ランダム線5
 72
    65
 73
     4
 40
26.0
 49
5.0
 74
     0
 49
-6.0
 74
     0
 49
7.0
 74
     0
 49
-8.0
 74
     0
  0
LTYPE
  5
81
330
5
100
AcDbSymbolTableRecord
100
AcDbLinetypeTableRecord
  2
LONG1
 70
     0
  3
----------  --  ----------  --  
 72
    65
 73
     4
 40
40.0
 49
32.5
 74
     0
 49
-2.5
 74
     0
 49
2.5
 74
     0
 49
-2.5
 74
     0
  0
LTYPE
  5
82
330
5
100
AcDbSymbolTableRecord
100
AcDbLinetypeTableRecord
  2
LONG2
 70
     0
  3
--------  -  -  --------  -  -  
 72
    65
 73
     6
 40
40.0
 49
30.0
 74
     0
 49
-2.5
 74
     0
 49
1.25
 74
     0
 49
-2.5
 74
     0
 49
1.25
 74
     0
 49
-2.5
 74
     0
  0
LTYPE
  5
83
330
5
100
AcDbSymbolTableRecord
100
AcDbLinetypeTableRecord
  2
LONG3
 70
     0
  3
+++++++++++++++..+++++++++++++++
 72
    65
 73
     2
 40
40.0
 49
37.5
 74
     0
 49
-2.5
 74
     0
  0
LTYPE
  5
84
330
5
100
AcDbSymbolTableRecord
100
AcDbLinetypeTableRecord
  2
LONG4
 70
     0
  3
+++++++++++++++..+++++++++++++++
 72
    65
 73
     2
 40
80.0
 49
75.0
 74
     0
 49
-5.0
 74
     0
  0
LTYPE
  5
85
330
5
100
AcDbSymbolTableRecord
100
AcDbLinetypeTableRecord
  2
LONG5
 70
     0
  3
----------  --  ----------  --  
 72
    65
 73
     4
 40
60.0
 49
37.5
 74
     0
 49
-7.5
 74
     0
 49
7.5
 74
     0
 49
-7.5
 74
     0
  0
LTYPE
  5
86
330
5
100
AcDbSymbolTableRecord
100
AcDbLinetypeTableRecord
  2
DASHED
 70
     0
  3
-------   -------------   ------
 72
    65
 73
     2
 40
7.5
 49
6.0
 74
     0
 49
-1.5
 74
     0
  0
LTYPE
  5
87
330
5
100
AcDbSymbolTableRecord
100
AcDbLinetypeTableRecord
  2
DASHED_SPACED
 70
     0
  3
----        --------        ----
 72
    65
 73
     2
 40
12.0
 49
6.0
 74
     0
 49
-6.0
 74
     0
  0
LTYPE
  5
88
330
5
100
AcDbSymbolTableRecord
100
AcDbLinetypeTableRecord
  2
LONG_DASHED_DOTTED
 70
     0
  3
------------- --- --------------
 72
    65
 73
     4
 40
15.25
 49
12.0
 74
     0
 49
-1.5
 74
     0
 49
0.25
 74
     0
 49
-1.5
 74
     0
  0
LTYPE
  5
89
330
5
100
AcDbSymbolTableRecord
100
AcDbLinetypeTableRecord
  2
LONG_DASHED_DOUBLE-DOTTED
 70
     0
  3
----------- --- --- ------------
 72
    65
 73
     6
 40
17.0
 49
12.0
 74
     0
 49
-1.5
 74
     0
 49
0.25
 74
     0
 49
-1.5
 74
     0
 49
0.25
 74
     0
 49
-1.5
 74
     0
  0
LTYPE
  5
8A
330
5
100
AcDbSymbolTableRecord
100
AcDbLinetypeTableRecord
  2
LONG_DASHED_TRIPLICATE-DOTTED
 70
     0
  3
--------- --- --- --- ----------
 72
    65
 73
     8
 40
18.75
 49
12.0
 74
     0
 49
-1.5
 74
     0
 49
0.25
 74
     0
 49
-1.5
 74
     0
 49
0.25
 74
     0
 49
-1.5
 74
     0
 49
0.25
 74
     0
 49
-1.5
 74
     0
  0
LTYPE
  5
8B
330
5
100
AcDbSymbolTableRecord
100
AcDbLinetypeTableRecord
  2
DOTTED
 70
     0
  3
   -       -       -       -    
 72
    65
 73
     2
 40
1.75
 49
0.25
 74
     0
 49
-1.5
 74
     0
  0
LTYPE
  5
8C
330
5
100
AcDbSymbolTableRecord
100
AcDbLinetypeTableRecord
  2
CHAIN
 70
     0
  3
-------------- -- --------------
 72
    65
 73
     4
 40
18.5
 49
12.0
 74
     0
 49
-1.5
 74
     0
 49
3.5
 74
     0
 49
-1.5
 74
     0
  0
LTYPE
  5
8D
330
5
100
AcDbSymbolTableRecord
100
AcDbLinetypeTableRecord
  2
CHAIN_DOUBLE_DASH
 70
     0
  3
------------ -- -- -------------
 72
    65
 73
     6
 40
23.5
 49
12.0
 74
     0
 49
-1.5
 74
     0
 49
3.5
 74
     0
 49
-1.5
 74
     0
 49
3.5
 74
     0
 49
-1.5
 74
     0
  0
LTYPE
  5
8E
330
5
100
AcDbSymbolTableRecord
100
AcDbLinetypeTableRecord
  2
DASHED_DOTTED
 70
     0
  3
-----------     -     ----------
 72
    65
 73
     4
 40
9.25
 49
6.0
 74
     0
 49
-1.5
 74
     0
 49
0.25
 74
     0
 49
-1.5
 74
     0
  0
LTYPE
  5
8F
330
5
100
AcDbSymbolTableRecord
100
AcDbLinetypeTableRecord
  2
DOUBLE-DASHED_DOTTED
 70
     0
  3
------   -----------   -   -----
 72
    65
 73
     6
 40
16.75
 49
6.0
 74
     0
 49
-1.5
 74
     0
 49
6.0
 74
     0
 49
-1.5
 74
     0
 49
0.25
 74
     0
 49
-1.5
 74
     0
  0
LTYPE
  5
90
330
5
100
AcDbSymbolTableRecord
100
AcDbLinetypeTableRecord
  2
DASHED_DOUBLE-DOTTED
 70
     0
  3
---------    -    -    ---------
 72
    65
 73
     6
 40
11.0
 49
6.0
 74
     0
 49
-1.5
 74
     0
 49
0.25
 74
     0
 49
-1.5
 74
     0
 49
0.25
 74
     0
 49
-1.5
 74
     0
  0
LTYPE
  5
91
330
5
100
AcDbSymbolTableRecord
100
AcDbLinetypeTableRecord
  2
DOUBLE-DASHED_DOUBLE-DOTTED
 70
     0
  3
-----   ---------   -   -   ----
 72
    65
 73
     8
 40
18.5
 49
6.0
 74
     0
 49
-1.5
 74
     0
 49
6.0
 74
     0
 49
-1.5
 74
     0
 49
0.25
 74
     0
 49
-1.5
 74
     0
 49
0.25
 74
     0
 49
-1.5
 74
     0
  0
LTYPE
  5
92
330
5
100
AcDbSymbolTableRecord
100
AcDbLinetypeTableRecord
  2
DASHED_TRIPLICATE-DOTTED
 70
     0
  3
-------    -    -    -    ------
 72
    65
 73
     8
 40
12.75
 49
6.0
 74
     0
 49
-1.5
 74
     0
 49
0.25
 74
     0
 49
-1.5
 74
     0
 49
0.25
 74
     0
 49
-1.5
 74
     0
 49
0.25
 74
     0
 49
-1.5
 74
     0
  0
LTYPE
  5
93
330
5
100
AcDbSymbolTableRecord
100
AcDbLinetypeTableRecord
  2
DOUBLE-DASHED_TRIPLICATE-DOTTED
 70
     0
  3
-----  ---------  -  -  -  -----
 72
    65
 73
    10
 40
20.25
 49
6.0
 74
     0
 49
-1.5
 74
     0
 49
6.0
 74
     0
 49
-1.5
 74
     0
 49
0.25
 74
     0
 49
-1.5
 74
     0
 49
0.25
 74
     0
 49
-1.5
 74
     0
 49
0.25
 74
     0
 49
-1.5
 74
     0
  0
LTYPE
  5
94
330
5
100
AcDbSymbolTableRecord
100
AcDbLinetypeTableRecord
  2
UNDEFINED
 70
     0
  3
--------------------------------
 72
    65
 73
     0
 40
0.0
  0
ENDTAB
  0
TABLE
  2
LAYER
  5
2
102
{ACAD_XDICTIONARY
360
3BA
102
}
330
0
100
AcDbSymbolTable
 70
     7
  0
LAYER
  5
54
102
{ACAD_XDICTIONARY
360
3A9
102
}
330
2
100
AcDbSymbolTableRecord
100
AcDbLayerTableRecord
  2
0
 70
     0
 62
     7
  6
CONTINUOUS
370
    -3
390
F
  0
LAYER
  5
96
102
{ACAD_XDICTIONARY
360
3AB
102
}
330
2
100
AcDbSymbolTableRecord
100
AcDbLayerTableRecord
  2
_0-0_計極細
 70
     0
 62
     7
  6
CONTINUOUS
370
    -3
390
F
  0
LAYER
  5
97
102
{ACAD_XDICTIONARY
360
3AD
102
}
330
2
100
AcDbSymbolTableRecord
100
AcDbLayerTableRecord
  2
_0-1_計細線
 70
     0
 62
     7
  6
CONTINUOUS
370
    -3
390
F
  0
LAYER
  5
98
102
{ACAD_XDICTIONARY
360
3AF
102
}
330
2
100
AcDbSymbolTableRecord
100
AcDbLayerTableRecord
  2
_0-5_寸法線
 70
     0
 62
     7
  6
CONTINUOUS
370
    -3
390
F
  0
LAYER
  5
99
102
{ACAD_XDICTIONARY
360
3B1
102
}
330
2
100
AcDbSymbolTableRecord
100
AcDbLayerTableRecord
  2
_0-7_枠細線
 70
     0
 62
     7
  6
CONTINUOUS
370
    -3
390
F
  0
LAYER
  5
9A
102
{ACAD_XDICTIONARY
360
3B3
102
}
330
2
100
AcDbSymbolTableRecord
100
AcDbLayerTableRecord
  2
_0-8_枠中線
 70
     0
 62
     7
  6
CONTINUOUS
370
    -3
390
F
  0
LAYER
  5
9B
102
{ACAD_XDICTIONARY
360
3B5
102
}
330
2
100
AcDbSymbolTableRecord
100
AcDbLayerTableRecord
  2
ADD_LINE
 70
     0
 62
     7
  6
CONTINUOUS
370
    -3
390
F
  0
ENDTAB
  0
TABLE
  2
STYLE
  5
3
330
0
100
AcDbSymbolTable
 70
     3
  0
STYLE
  5
55
330
3
100
AcDbSymbolTableRecord
100
AcDbTextStyleTableRecord
  2
STANDARD
 70
     0
 40
0.0
 41
1.0
 50
0.0
 71
     0
 42
0.2
  3
txt
  4
bigfont.shx
  0
STYLE
  5
59
330
3
100
AcDbSymbolTableRecord
100
AcDbTextStyleTableRecord
  2
Annotative
 70
     0
 40
0.0
 41
1.0
 50
0.0
 71
     0
 42
0.2
  3
txt
  4

1001
AcadAnnotative
1000
AnnotativeData
1002
{
1070
     1
1070
     1
1002
}
  0
STYLE
  5
95
330
3
100
AcDbSymbolTableRecord
100
AcDbTextStyleTableRecord
  2
TATEGAKI
 70
     4
 40
0.0
 41
1.0
 50
0.0
 71
     0
 42
1.0
  3
txt
  4
bigfont.shx
  0
ENDTAB
  0
TABLE
  2
VIEW
  5
6
330
0
100
AcDbSymbolTable
 70
     0
  0
ENDTAB
  0
TABLE
  2
UCS
  5
7
330
0
100
AcDbSymbolTable
 70
     0
  0
ENDTAB
  0
TABLE
  2
APPID
  5
9
330
0
100
AcDbSymbolTable
 70
     5
  0
APPID
  5
56
330
9
100
AcDbSymbolTableRecord
100
AcDbRegAppTableRecord
  2
ACAD
 70
     0
  0
APPID
  5
5D
330
9
100
AcDbSymbolTableRecord
100
AcDbRegAppTableRecord
  2
AcadAnnotative
 70
     0
  0
APPID
  5
392
330
9
100
AcDbSymbolTableRecord
100
AcDbRegAppTableRecord
  2
ACAD_EXEMPT_FROM_CAD_STANDARDS
 70
     0
  0
APPID
  5
394
330
9
100
AcDbSymbolTableRecord
100
AcDbRegAppTableRecord
  2
ACAD_NAV_VCDISPLAY
 70
     0
  0
APPID
  5
40C
330
9
100
AcDbSymbolTableRecord
100
AcDbRegAppTableRecord
  2
ACAD_MLEADERVER
 70
     0
  0
ENDTAB
  0
TABLE
  2
DIMSTYLE
  5
A
330
0
100
AcDbSymbolTable
 70
     2
100
AcDbDimStyleTable
 71
     0
  0
DIMSTYLE
105
57
330
A
100
AcDbSymbolTableRecord
100
AcDbDimStyleTableRecord
  2
Standard
 70
     0
340
55
  0
DIMSTYLE
105
58
330
A
100
AcDbSymbolTableRecord
100
AcDbDimStyleTableRecord
  2
Annotative
 70
     0
340
55
1001
AcadAnnotative
1000
AnnotativeData
1002
{
1070
     1
1070
     1
1002
}
  0
ENDTAB
  0
TABLE
  2
BLOCK_RECORD
  5
1
330
0
100
AcDbSymbolTable
 70
     0
  0
BLOCK_RECORD
  5
6F
330
1
100
AcDbSymbolTableRecord
100
AcDbBlockTableRecord
  2
*Model_Space
340
72
  0
BLOCK_RECORD
  5
6B
330
1
100
AcDbSymbolTableRecord
100
AcDbBlockTableRecord
  2
*Paper_Space
340
6E
  0
ENDTAB
  0
ENDSEC
  0
SECTION
  2
BLOCKS
  0
BLOCK
  5
70
330
6F
100
AcDbEntity
  8
0
100
AcDbBlockBegin
  2
*Model_Space
 70
     0
 10
0.0
 20
0.0
 30
0.0
  3
*Model_Space
  1

  0
ENDBLK
  5
71
330
6F
100
AcDbEntity
  8
0
100
AcDbBlockEnd
  0
BLOCK
  5
6C
330
6B
100
AcDbEntity
 67
     1
  8
0
100
AcDbBlockBegin
  2
*Paper_Space
 70
     0
 10
0.0
 20
0.0
 30
0.0
  3
*Paper_Space
  1

  0
ENDBLK
  5
6D
330
6B
100
AcDbEntity
 67
     1
  8
0
100
AcDbBlockEnd
  0
ENDSEC
  0
SECTION
  2
ENTITIES
  0
LINE
  5
9F
330
6F
100
AcDbEntity
  8
_0-8_枠中線
  6
Continuous
 62
     5
100
AcDbLine
 10
72.0
 20
72.0
 30
0.0
 11
72.0
 21
1152.0
 31
0.0
  0
LINE
  5
A0
330
6F
100
AcDbEntity
  8
_0-8_枠中線
  6
Continuous
 62
     5
100
AcDbLine
 10
72.0
 20
1152.0
 30
0.0
 11
1710.0
 21
1152.0
 31
0.0
  0
LINE
  5
A1
330
6F
100
AcDbEntity
  8
_0-8_枠中線
  6
Continuous
 62
     5
100
AcDbLine
 10
1710.0
 20
1152.0
 30
0.0
 11
1710.0
 21
72.0
 31
0.0
  0
LINE
  5
A2
330
6F
100
AcDbEntity
  8
_0-8_枠中線
  6
Continuous
 62
     5
100
AcDbLine
 10
1710.0
 20
72.0
 30
0.0
 11
72.0
 21
72.0
 31
0.0
  0
LINE
  5
A3
330
6F
100
AcDbEntity
  8
_0-7_枠細線
  6
Continuous
 62
     5
100
AcDbLine
 10
1422.0
 20
216.0
 30
0.0
 11
1422.0
 21
120.0
 31
0.0
  0
TEXT
  5
A4
330
6F
100
AcDbEntity
  8
_0-7_枠細線
 62
     5
100
AcDbText
 10
1125.0
 20
117.0
 30
0.0
 40
21.0
  1
備考
  7
TATEGAKI
100
AcDbText
  0
TEXT
  5
A5
330
6F
100
AcDbEntity
  8
_0-7_枠細線
 62
     5
100
AcDbText
 10
1125.0
 20
165.0
 30
0.0
 40
21.0
  1
品番
  7
TATEGAKI
100
AcDbText
  0
TEXT
  5
A6
330
6F
100
AcDbEntity
  8
_0-7_枠細線
 62
     5
100
AcDbText
 10
1125.0
 20
213.0
 30
0.0
 40
21.0
  1
品名
  7
TATEGAKI
100
AcDbText
  0
LINE
  5
A7
330
6F
100
AcDbEntity
  8
_0-7_枠細線
  6
Continuous
 62
     5
100
AcDbLine
 10
1422.0
 20
168.0
 30
0.0
 11
1110.0
 21
168.0
 31
0.0
  0
LINE
  5
A8
330
6F
100
AcDbEntity
  8
_0-7_枠細線
  6
Continuous
 62
     5
100
AcDbLine
 10
1140.0
 20
216.0
 30
0.0
 11
1140.0
 21
72.0
 31
0.0
  0
LINE
  5
A9
330
6F
100
AcDbEntity
  8
_0-8_枠中線
  6
Continuous
 62
     5
100
AcDbLine
 10
1710.0
 20
216.0
 30
0.0
 11
1110.0
 21
216.0
 31
0.0
  0
LINE
  5
AA
330
6F
100
AcDbEntity
  8
_0-8_枠中線
  6
Continuous
 62
     5
100
AcDbLine
 10
1110.0
 20
216.0
 30
0.0
 11
1110.0
 21
72.0
 31
0.0
  0
LINE
  5
AB
330
6F
100
AcDbEntity
  8
_0-7_枠細線
  6
Continuous
 62
     5
100
AcDbLine
 10
1494.0
 20
216.0
 30
0.0
 11
1494.0
 21
72.0
 31
0.0
  0
TEXT
  5
AC
330
6F
100
AcDbEntity
  8
_0-7_枠細線
 62
     5
100
AcDbText
 10
1431.0
 20
192.0
 30
0.0
 40
18.0
  1
縮　尺
100
AcDbText
  0
LINE
  5
AD
330
6F
100
AcDbEntity
  8
_0-7_枠細線
  6
Continuous
 62
     5
100
AcDbLine
 10
1422.0
 20
186.0
 30
0.0
 11
1494.0
 21
186.0
 31
0.0
  0
LINE
  5
AE
330
6F
100
AcDbEntity
  8
_0-7_枠細線
  6
Continuous
 62
     5
100
AcDbLine
 10
1494.0
 20
120.0
 30
0.0
 11
1110.0
 21
120.0
 31
0.0
  0
LINE
  5
AF
330
6F
100
AcDbEntity
  8
_0-7_枠細線
  6
Continuous
 62
     5
100
AcDbLine
 10
1710.0
 20
108.0
 30
0.0
 11
1494.0
 21
108.0
 31
0.0
  0
LINE
  5
B0
330
6F
100
AcDbEntity
  8
_0-7_枠細線
  6
Continuous
 62
     5
100
AcDbLine
 10
1494.0
 20
144.0
 30
0.0
 11
1710.0
 21
144.0
 31
0.0
  0
LINE
  5
B1
330
6F
100
AcDbEntity
  8
_0-7_枠細線
  6
Continuous
 62
     5
100
AcDbLine
 10
1710.0
 20
168.0
 30
0.0
 11
1494.0
 21
168.0
 31
0.0
  0
TEXT
  5
B2
330
6F
100
AcDbEntity
  8
_0-7_枠細線
 62
     5
100
AcDbText
 10
1505.999999999999
 20
177.0
 30
0.0
 40
30.0
  1
株式会社シマブン
 41
0.7
100
AcDbText
  0
TEXT
  5
B3
330
6F
100
AcDbEntity
  8
_0-7_枠細線
 62
     5
100
AcDbText
 10
1503.0
 20
72.0
 30
0.0
 40
18.0
  1
年月日
100
AcDbText
  0
TEXT
  5
B4
330
6F
100
AcDbEntity
  8
_0-7_枠細線
 62
     5
100
AcDbText
 10
1503.0
 20
90.0
 30
0.0
 40
18.0
  1
作　成
100
AcDbText
  0
TEXT
  5
B5
330
6F
100
AcDbEntity
  8
_0-7_枠細線
 62
     5
100
AcDbText
 10
1507.5
 20
147.0
 30
0.0
 40
18.0
  1
承 認
100
AcDbText
  0
LINE
  5
B6
330
6F
100
AcDbEntity
  8
_0-7_枠細線
  6
Continuous
 62
     5
100
AcDbLine
 10
1566.0
 20
168.0
 30
0.0
 11
1566.0
 21
72.0
 31
0.0
  0
TEXT
  5
B7
330
6F
100
AcDbEntity
  8
_0-7_枠細線
 62
     5
100
AcDbText
 10
1579.5
 20
147.0
 30
0.0
 40
18.0
  1
検 図
100
AcDbText
  0
LINE
  5
B8
330
6F
100
AcDbEntity
  8
_0-7_枠細線
  6
Continuous
 62
     5
100
AcDbLine
 10
1638.0
 20
168.0
 30
0.0
 11
1638.0
 21
108.0
 31
0.0
  0
TEXT
  5
B9
330
6F
100
AcDbEntity
  8
_0-7_枠細線
 62
     5
100
AcDbText
 10
1650.0
 20
114.0
 30
0.0
 40
24.0
  1
藤戸
100
AcDbText
  0
TEXT
  5
BA
330
6F
100
AcDbEntity
  8
_0-7_枠細線
 62
     5
100
AcDbText
 10
1651.5
 20
147.0
 30
0.0
 40
18.0
  1
設 計
100
AcDbText
  0
LINE
  5
BB
330
6F
100
AcDbEntity
  8
_0-7_枠細線
  6
Continuous
 62
     5
100
AcDbLine
 10
1530.0
 20
1131.0
 30
0.0
 11
1530.0
 21
1151.999999999999
 31
0.0
  0
LINE
  5
BC
330
6F
100
AcDbEntity
  8
_0-7_枠細線
  6
Continuous
 62
     5
100
AcDbLine
 10
1410.0
 20
1131.0
 30
0.0
 11
1410.0
 21
1151.999999999999
 31
0.0
  0
LINE
  5
BD
330
6F
100
AcDbEntity
  8
_0-7_枠細線
  6
Continuous
 62
     5
100
AcDbLine
 10
1110.0
 20
1131.0
 30
0.0
 11
1110.0
 21
1151.999999999999
 31
0.0
  0
LINE
  5
BE
330
6F
100
AcDbEntity
  8
_0-7_枠細線
  6
Continuous
 62
     5
100
AcDbLine
 10
1068.0
 20
1131.0
 30
0.0
 11
1068.0
 21
1151.999999999999
 31
0.0
  0
LINE
  5
BF
330
6F
100
AcDbEntity
  8
_0-7_枠細線
  6
Continuous
 62
     5
100
AcDbLine
 10
1710.0
 20
1131.0
 30
0.0
 11
1068.0
 21
1131.0
 31
0.0
  0
TEXT
  5
C0
330
6F
100
AcDbEntity
  8
_0-7_枠細線
 62
     5
100
AcDbText
 10
1074.0
 20
1133.999999999999
 30
0.0
 40
15.0
  1
記号
100
AcDbText
  0
TEXT
  5
C1
330
6F
100
AcDbEntity
  8
_0-7_枠細線
 62
     5
100
AcDbText
 10
1196.25
 20
1134.0
 30
0.0
 40
15.0
  1
訂　 正　 記　 事
100
AcDbText
  0
TEXT
  5
C2
330
6F
100
AcDbEntity
  8
_0-7_枠細線
 62
     5
100
AcDbText
 10
1417.5
 20
1134.0
 30
0.0
 40
15.0
  1
訂 正 年 月 日
 41
0.9
100
AcDbText
  0
TEXT
  5
C3
330
6F
100
AcDbEntity
  8
_0-7_枠細線
 62
     5
100
AcDbText
 10
1567.5
 20
1134.0
 30
0.0
 40
15.0
  1
備　　　　　考
100
AcDbText
  0
TEXT
  5
C4
330
6F
100
AcDbEntity
  8
_0-7_枠細線
 62
     5
100
AcDbText
 10
1158.599999999999
 20
84.0
 30
0.0
 40
24.0
  1
色については品番表参照のこと
 41
0.5999999999999997
100
AcDbText
  0
TEXT
  5
C5
330
6F
100
AcDbEntity
  8
_0-7_枠細線
 62
     5
100
AcDbText
 10
1158.6
 20
192.0
 30
0.0
 40
24.0
  1
木製ライフサポートバー
 41
0.6999999999999999
100
AcDbText
  0
TEXT
  5
C6
330
6F
100
AcDbEntity
  8
_0-7_枠細線
 62
     5
100
AcDbText
 10
1506.0
 20
114.0
 30
0.0
 40
24.0
  1
大野
100
AcDbText
  0
TEXT
  5
C7
330
6F
100
AcDbEntity
  8
_0-7_枠細線
 62
     5
100
AcDbText
 10
1578.0
 20
114.0
 30
0.0
 40
24.0
  1
深川
100
AcDbText
  0
LINE
  5
C8
330
6F
100
AcDbEntity
  8
_0-1_計細線
  6
Continuous
 62
     3
100
AcDbLine
 10
488.0702579999933
 20
423.6676170000144
 30
0.0
 11
488.0702579999933
 21
962.6676170000145
 31
0.0
  0
LINE
  5
C9
330
6F
100
AcDbEntity
  8
_0-1_計細線
  6
Continuous
 62
     3
100
AcDbLine
 10
453.0702579999932
 20
423.6676170000144
 30
0.0
 11
453.0702579999932
 21
962.6676170000145
 31
0.0
  0
LINE
  5
CA
330
6F
100
AcDbEntity
  8
_0-1_計細線
  6
Continuous
 62
     3
100
AcDbLine
 10
451.0702579999933
 20
965.6676170000144
 30
0.0
 11
451.0702579999933
 21
966.5000370000143
 31
0.0
  0
LINE
  5
CB
330
6F
100
AcDbEntity
  8
_0-1_計細線
  6
Continuous
 62
     3
100
AcDbLine
 10
477.8514099999933
 20
985.9576830000143
 30
0.0
 11
478.7096019999933
 21
985.1574070000143
 31
0.0
  0
LINE
  5
CC
330
6F
100
AcDbEntity
  8
_0-1_計細線
  6
Continuous
 62
     3
100
AcDbLine
 10
459.1701379999933
 20
381.8471490000143
 30
0.0
 11
415.5702579999932
 21
381.8471490000143
 31
0.0
  0
LINE
  5
CD
330
6F
100
AcDbEntity
  8
_0-1_計細線
  6
Continuous
 62
     3
100
AcDbLine
 10
451.0702579999933
 20
417.5018310000143
 30
0.0
 11
415.5702579999932
 21
417.5018310000143
 31
0.0
  0
LINE
  5
CE
330
6F
100
AcDbEntity
  8
_0-1_計細線
  6
Continuous
 62
     3
100
AcDbLine
 10
415.5702579999932
 20
381.8471490000143
 30
0.0
 11
415.5702579999932
 21
417.5018310000143
 31
0.0
  0
LINE
  5
CF
330
6F
100
AcDbEntity
  8
_0-1_計細線
  6
Continuous
 62
     3
100
AcDbLine
 10
490.0702579999934
 20
969.4092870000146
 30
0.0
 11
489.9250739999932
 21
969.7206350000143
 31
0.0
  0
LINE
  5
D0
330
6F
100
AcDbEntity
  8
_0-1_計細線
  6
Continuous
 62
     3
100
AcDbLine
 10
490.0702579999934
 20
965.6676170000144
 30
0.0
 11
490.0702579999934
 21
969.4092870000146
 31
0.0
  0
LINE
  5
D1
330
6F
100
AcDbEntity
  8
_0-1_計細線
  6
Continuous
 62
     3
100
AcDbLine
 10
415.5702579999932
 20
1014.667617000014
 30
0.0
 11
419.4376319999933
 21
1013.985693000014
 31
0.0
  0
ARC
  5
D2
330
6F
100
AcDbEntity
  8
_0-1_計細線
  6
Continuous
 62
     3
100
AcDbCircle
 10
398.5998499999934
 20
895.8087630000143
 30
0.0
 40
120.0
100
AcDbArc
 50
48.68070799999998
 51
79.99999999999997
  0
ARC
  5
D3
330
6F
100
AcDbEntity
  8
_0-1_計細線
  6
Continuous
 62
     3
100
AcDbCircle
 10
485.0702579999933
 20
965.6676170000144
 30
0.0
 40
5.0
100
AcDbArc
 50
329.9999999999997
 51
359.9999999999997
  0
ARC
  5
D4
330
6F
100
AcDbEntity
  8
_0-1_計細線
  6
Continuous
 62
     3
100
AcDbCircle
 10
488.5343599999933
 20
963.6676170000141
 30
0.0
 40
1.0
100
AcDbArc
 50
269.9999999999997
 51
330.0000000000024
  0
ARC
  5
D5
330
6F
100
AcDbEntity
  8
_0-1_計細線
  6
Continuous
 62
     3
100
AcDbCircle
 10
444.6096839999933
 20
948.5897230000144
 30
0.0
 40
50.0
100
AcDbArc
 50
24.99999999999996
 51
47.00000000000001
  0
LINE
  5
D6
330
6F
100
AcDbEntity
  8
_0-1_計細線
  6
Continuous
 62
     3
100
AcDbLine
 10
415.5702579999932
 20
1014.667617000014
 30
0.0
 11
415.5702579999932
 21
982.6676170000144
 31
0.0
  0
LINE
  5
D7
330
6F
100
AcDbEntity
  8
_0-1_計細線
  6
Continuous
 62
     3
100
AcDbLine
 10
452.6061559999933
 20
962.6676170000145
 30
0.0
 11
488.5343599999933
 21
962.6676170000145
 31
0.0
  0
LINE
  5
D8
330
6F
100
AcDbEntity
  8
_0-1_計細線
  6
Continuous
 62
     3
100
AcDbLine
 10
415.5702579999932
 20
982.6676170000144
 30
0.0
 11
422.7929679999934
 21
982.0357110000143
 31
0.0
  0
ARC
  5
D9
330
6F
100
AcDbEntity
  8
_0-1_計細線
  6
Continuous
 62
     3
100
AcDbCircle
 10
456.0702579999932
 20
965.6676170000144
 30
0.0
 40
5.0
100
AcDbArc
 50
179.9999999999998
 51
209.9999999999996
  0
ARC
  5
DA
330
6F
100
AcDbEntity
  8
_0-1_計細線
  6
Continuous
 62
     3
100
AcDbCircle
 10
452.6061559999933
 20
963.6676170000141
 30
0.0
 40
1.0
100
AcDbArc
 50
210.0000000000001
 51
269.9999999999997
  0
ARC
  5
DB
330
6F
100
AcDbEntity
  8
_0-1_計細線
  6
Continuous
 62
     3
100
AcDbCircle
 10
419.3067399999932
 20
942.1879230000143
 30
0.0
 40
40.0
100
AcDbArc
 50
37.43080399999993
 51
85.00000000000003
  0
LINE
  5
DC
330
6F
100
AcDbEntity
  8
_0-1_計細線
  6
Continuous
 62
     3
100
AcDbLine
 10
451.0702579999933
 20
420.6676170000145
 30
0.0
 11
451.0702579999933
 21
417.5018310000143
 31
0.0
  0
LINE
  5
DD
330
6F
100
AcDbEntity
  8
_0-1_計細線
  6
Continuous
 62
     3
100
AcDbLine
 10
488.5343599999933
 20
423.6676170000144
 30
0.0
 11
452.6061559999933
 21
423.6676170000144
 31
0.0
  0
LINE
  5
DE
330
6F
100
AcDbEntity
  8
_0-1_計細線
  6
Continuous
 62
     3
100
AcDbLine
 10
490.0702579999934
 20
420.9489330000143
 30
0.0
 11
490.0702579999934
 21
397.6676210000143
 31
0.0
  0
ARC
  5
DF
330
6F
100
AcDbEntity
  8
_0-1_計細線
  6
Continuous
 62
     3
100
AcDbCircle
 10
470.5702579999933
 20
397.6676170000144
 30
0.0
 40
19.5
100
AcDbArc
 50
234.2237399999996
 51
0.000007999999828
  0
ARC
  5
E0
330
6F
100
AcDbEntity
  8
_0-1_計細線
  6
Continuous
 62
     3
100
AcDbCircle
 10
452.6061559999933
 20
422.6676170000143
 30
0.0
 40
1.0
100
AcDbArc
 50
89.99999999999991
 51
149.9999999999994
  0
ARC
  5
E1
330
6F
100
AcDbEntity
  8
_0-1_計細線
  6
Continuous
 62
     3
100
AcDbCircle
 10
456.0702579999932
 20
420.6676170000145
 30
0.0
 40
5.0
100
AcDbArc
 50
150.0000000000001
 51
179.9999999999998
  0
ARC
  5
E2
330
6F
100
AcDbEntity
  8
_0-1_計細線
  6
Continuous
 62
     3
100
AcDbCircle
 10
488.5343599999933
 20
422.6676170000143
 30
0.0
 40
1.0
100
AcDbArc
 50
29.99999999999729
 51
89.99999999999994
  0
ARC
  5
E3
330
6F
100
AcDbEntity
  8
_0-1_計細線
  6
Continuous
 62
     3
100
AcDbCircle
 10
485.0702579999933
 20
420.6676170000145
 30
0.0
 40
5.0
100
AcDbArc
 50
0.0
 51
29.99999999999989
  0
LINE
  5
E4
330
6F
100
AcDbEntity
  8
_0-0_計極細
  6
CENTER2
 62
     2
100
AcDbLine
 10
470.5702579999933
 20
376.2340590000143
 30
0.0
 11
470.5702579999933
 21
970.6676170000145
 31
0.0
  0
LINE
  5
E5
330
6F
100
AcDbEntity
  8
_0-0_計極細
  6
Continuous
 62
     2
100
AcDbLine
 10
451.0702579999933
 20
966.5000370000143
 30
0.0
 11
470.5702579999933
 21
980.6676170000145
 31
0.0
  0
LINE
  5
E6
330
6F
100
AcDbEntity
  8
_0-0_計極細
  6
Continuous
 62
     2
100
AcDbLine
 10
470.5702579999933
 20
980.6676170000145
 30
0.0
 11
490.0702579999934
 21
969.4092870000146
 31
0.0
  0
LINE
  5
E7
330
6F
100
AcDbEntity
  8
_0-0_計極細
  6
DASHED2
 62
     2
100
AcDbLine
 10
488.0702579999933
 20
970.6676170000145
 30
0.0
 11
453.0702579999932
 21
970.6676170000145
 31
0.0
  0
LINE
  5
E8
330
6F
100
AcDbEntity
  8
_0-0_計極細
  6
DASHED2
 62
     2
100
AcDbLine
 10
488.0702579999933
 20
962.6676170000145
 30
0.0
 11
488.0702579999933
 21
970.6676170000145
 31
0.0
  0
LINE
  5
E9
330
6F
100
AcDbEntity
  8
_0-0_計極細
  6
DASHED2
 62
     2
100
AcDbLine
 10
453.0702579999932
 20
962.6676170000145
 30
0.0
 11
453.0702579999932
 21
970.6676170000145
 31
0.0
  0
LINE
  5
EA
330
6F
100
AcDbEntity
  8
_0-0_計極細
  6
Continuous
 62
     2
100
AcDbLine
 10
466.6873019999933
 20
982.9094430000143
 30
0.0
 11
470.5702579999933
 21
980.6676170000145
 31
0.0
  0
LINE
  5
EB
330
6F
100
AcDbEntity
  8
_0-0_計極細
  6
Continuous
 62
     2
100
AcDbLine
 10
470.5702579999933
 20
980.6676170000145
 30
0.0
 11
477.8514099999933
 21
985.9576830000143
 31
0.0
  0
LINE
  5
EC
330
6F
100
AcDbEntity
  8
_0-0_計極細
  6
Continuous
 62
     2
100
AcDbLine
 10
415.5702579999932
 20
998.6676170000144
 30
0.0
 11
417.1459899999933
 21
998.5297570000144
 31
0.0
  0
ARC
  5
ED
330
6F
100
AcDbEntity
  8
_0-0_計極細
  6
Continuous
 62
     2
100
AcDbCircle
 10
406.6873019999932
 20
878.9863930000143
 30
0.0
 40
120.0
100
AcDbArc
 50
60.0
 51
84.99999999999998
  0
ARC
  5
EE
330
6F
100
AcDbEntity
  8
_0-0_計極細
  6
Continuous
 62
     2
100
AcDbCircle
 10
419.5702579999934
 20
407.1676170000144
 30
0.0
 40
1.0
100
AcDbArc
 50
89.99999999999991
 51
179.9999999999998
  0
ARC
  5
EF
330
6F
100
AcDbEntity
  8
_0-0_計極細
  6
Continuous
 62
     2
100
AcDbCircle
 10
485.2042959999932
 20
409.1676170000143
 30
0.0
 40
1.0
100
AcDbArc
 50
269.9999999999997
 51
342.2365000000028
  0
ARC
  5
F0
330
6F
100
AcDbEntity
  8
_0-0_計極細
  6
Continuous
 62
     2
100
AcDbCircle
 10
494.2444679999932
 20
406.2714870000143
 30
0.0
 40
8.492748000000005
100
AcDbArc
 50
119.4394050000003
 51
162.2365000000003
  0
LINE
  5
F1
330
6F
100
AcDbEntity
  8
_0-0_計極細
  6
Continuous
 62
     2
100
AcDbLine
 10
485.2042959999932
 20
408.1676170000143
 30
0.0
 11
419.5702579999934
 21
408.1676170000143
 31
0.0
  0
LINE
  5
F2
330
6F
100
AcDbEntity
  8
_0-0_計極細
  6
Continuous
 62
     2
100
AcDbLine
 10
418.5702579999932
 20
381.8471490000143
 30
0.0
 11
418.5702579999932
 21
407.1676170000144
 31
0.0
  0
LINE
  5
F3
330
6F
100
AcDbEntity
  8
_0-0_計極細
  6
DASHED2
 62
     2
100
AcDbLine
 10
453.0702579999932
 20
423.6676170000144
 30
0.0
 11
453.0702579999932
 21
415.1676170000142
 31
0.0
  0
LINE
  5
F4
330
6F
100
AcDbEntity
  8
_0-0_計極細
  6
DASHED2
 62
     2
100
AcDbLine
 10
488.0702579999933
 20
423.6676170000144
 30
0.0
 11
488.0702579999933
 21
415.1676170000142
 31
0.0
  0
LINE
  5
F5
330
6F
100
AcDbEntity
  8
_0-0_計極細
  6
DASHED2
 62
     2
100
AcDbLine
 10
488.0702579999933
 20
415.1676170000142
 30
0.0
 11
453.0702579999932
 21
415.1676170000142
 31
0.0
  0
ARC
  5
F6
330
6F
100
AcDbEntity
  8
_0-0_計極細
  6
Continuous
 62
     2
100
AcDbCircle
 10
410.8810999999933
 20
388.0438730000144
 30
0.0
 40
50.322642
100
AcDbArc
 50
0.4931900000000307
 51
22.45881100000008
  0
ARC
  5
F7
330
6F
100
AcDbEntity
  8
_0-0_計極細
  6
Continuous
 62
     2
100
AcDbCircle
 10
450.7994179999933
 20
388.0386290000144
 30
0.0
 40
10.411696
100
AcDbArc
 50
323.5111749999995
 51
2.413259999999915
  0
ARC
  5
F8
330
6F
100
AcDbEntity
  8
_0-0_計極細
  6
Continuous
 62
     2
100
AcDbCircle
 10
435.8517299999932
 20
401.2621030000143
 30
0.0
 40
22.25606400000001
100
AcDbArc
 50
18.07584200000019
 51
46.85928400000002
  0
LINE
  5
F9
330
6F
100
AcDbEntity
  8
_0-5_寸法線
  6
Continuous
 62
     7
100
AcDbLine
 10
403.5460048614427
 20
982.667617612312
 30
0.0
 11
377.5702579999933
 21
982.6676176123116
 31
0.0
  0
LINE
  5
FA
330
6F
100
AcDbEntity
  8
_0-5_寸法線
  6
Continuous
 62
     7
100
AcDbLine
 10
383.5702579999932
 20
982.6676176123116
 30
0.0
 11
380.464429458763
 21
994.2587275277805
 31
0.0
  0
LINE
  5
FB
330
6F
100
AcDbEntity
  8
_0-5_寸法線
  6
Continuous
 62
     7
100
AcDbLine
 10
383.5702579999932
 20
982.6676176123116
 30
0.0
 11
386.6760865412235
 21
994.2587275277805
 31
0.0
  0
LINE
  5
FC
330
6F
100
AcDbEntity
  8
_0-5_寸法線
  6
Continuous
 62
     7
100
AcDbLine
 10
403.5460048614427
 20
1013.667616693862
 30
0.0
 11
377.570257999993
 21
1013.667616693862
 31
0.0
  0
LINE
  5
FD
330
6F
100
AcDbEntity
  8
_0-5_寸法線
  6
Continuous
 62
     7
100
AcDbLine
 10
383.570257999993
 20
1013.667616693862
 30
0.0
 11
386.6760865412233
 21
1002.076506778394
 31
0.0
  0
LINE
  5
FE
330
6F
100
AcDbEntity
  8
_0-5_寸法線
  6
Continuous
 62
     7
100
AcDbLine
 10
383.570257999993
 20
1013.667616693862
 30
0.0
 11
380.4644294587629
 21
1002.076506778394
 31
0.0
  0
LINE
  5
FF
330
6F
100
AcDbEntity
  8
_0-5_寸法線
  6
Continuous
 62
     7
100
AcDbLine
 10
383.5702579999932
 20
982.6676176123116
 30
0.0
 11
383.570257999993
 21
1013.667616693862
 31
0.0
  0
TEXT
  5
100
330
6F
100
AcDbEntity
  8
_0-5_寸法線
 62
     7
100
AcDbText
 10
383.570257999993
 20
987.6676171530871
 30
0.0
 40
21.0
  1
31
 50
90.0
100
AcDbText
  0
LINE
  5
101
330
6F
100
AcDbEntity
  8
_0-5_寸法線
  6
Continuous
 62
     7
100
AcDbLine
 10
440.6061559999932
 20
962.6676170000143
 30
0.0
 11
349.5702579999933
 21
962.6676170000131
 31
0.0
  0
LINE
  5
102
330
6F
100
AcDbEntity
  8
_0-5_寸法線
  6
Continuous
 62
     7
100
AcDbLine
 10
355.5702579999933
 20
962.6676170000134
 30
0.0
 11
352.464429458763
 21
974.2587269154821
 31
0.0
  0
LINE
  5
103
330
6F
100
AcDbEntity
  8
_0-5_寸法線
  6
Continuous
 62
     7
100
AcDbLine
 10
355.5702579999933
 20
962.6676170000134
 30
0.0
 11
358.6760865412235
 21
974.2587269154821
 31
0.0
  0
LINE
  5
104
330
6F
100
AcDbEntity
  8
_0-5_寸法線
  6
Continuous
 62
     7
100
AcDbLine
 10
403.5702579999932
 20
1013.667617000014
 30
0.0
 11
349.5702579999932
 21
1013.667617000014
 31
0.0
  0
LINE
  5
105
330
6F
100
AcDbEntity
  8
_0-5_寸法線
  6
Continuous
 62
     7
100
AcDbLine
 10
355.5702579999932
 20
1013.667617000014
 30
0.0
 11
358.6760865412234
 21
1002.076507084545
 31
0.0
  0
LINE
  5
106
330
6F
100
AcDbEntity
  8
_0-5_寸法線
  6
Continuous
 62
     7
100
AcDbLine
 10
355.5702579999932
 20
1013.667617000014
 30
0.0
 11
352.4644294587629
 21
1002.076507084545
 31
0.0
  0
LINE
  5
107
330
6F
100
AcDbEntity
  8
_0-5_寸法線
  6
Continuous
 62
     7
100
AcDbLine
 10
355.5702579999933
 20
962.6676170000134
 30
0.0
 11
355.5702579999932
 21
1013.667617000014
 31
0.0
  0
TEXT
  5
108
330
6F
100
AcDbEntity
  8
_0-5_寸法線
 62
     7
100
AcDbText
 10
355.5702579999932
 20
977.6676170000135
 30
0.0
 40
21.0
  1
51
 50
90.0
100
AcDbText
  0
LINE
  5
109
330
6F
100
AcDbEntity
  8
_0-0_計極細
  6
DASHED2
 62
     2
100
AcDbLine
 10
290.3585423717773
 20
962.6676170000145
 30
0.0
 11
290.3585423717773
 21
970.6676170000145
 31
0.0
  0
LINE
  5
10A
330
6F
100
AcDbEntity
  8
_0-0_計極細
  6
DASHED2
 62
     2
100
AcDbLine
 10
290.3585423717773
 20
970.6676170000145
 30
0.0
 11
255.3585423717659
 21
970.6676170000145
 31
0.0
  0
LINE
  5
10B
330
6F
100
AcDbEntity
  8
_0-0_計極細
  6
DASHED2
 62
     2
100
AcDbLine
 10
255.3585423717659
 20
970.6676170000145
 30
0.0
 11
255.3585423717659
 21
962.6676170000145
 31
0.0
  0
LINE
  5
10C
330
6F
100
AcDbEntity
  8
_0-0_計極細
  6
CENTER1
 62
     2
100
AcDbLine
 10
272.8585423717793
 20
1027.936386276514
 30
0.0
 11
272.8585423717802
 21
369.4088320148931
 31
0.0
  0
LINE
  5
10D
330
6F
100
AcDbEntity
  8
_0-0_計極細
  6
DASHED2
 62
     2
100
AcDbLine
 10
255.3585423717823
 20
415.1676170000146
 30
0.0
 11
290.3585423717938
 21
415.1676170000142
 31
0.0
  0
LINE
  5
10E
330
6F
100
AcDbEntity
  8
_0-0_計極細
  6
DASHED2
 62
     2
100
AcDbLine
 10
255.3585423717823
 20
423.6676170000144
 30
0.0
 11
255.3585423717823
 21
415.1676170000146
 31
0.0
  0
LINE
  5
10F
330
6F
100
AcDbEntity
  8
_0-0_計極細
  6
DASHED2
 62
     2
100
AcDbLine
 10
290.3585423717938
 20
415.1676170000142
 30
0.0
 11
290.3585423717938
 21
423.6676170000144
 31
0.0
  0
LINE
  5
110
330
6F
100
AcDbEntity
  8
_0-1_計細線
  6
Continuous
 62
     3
100
AcDbLine
 10
255.3585423717656
 20
962.6676170000141
 30
0.0
 11
255.3585423717812
 21
423.6676176123256
 31
0.0
  0
LINE
  5
111
330
6F
100
AcDbEntity
  8
_0-1_計細線
  6
Continuous
 62
     3
100
AcDbLine
 10
290.3585423717753
 20
423.6676176123256
 30
0.0
 11
290.3585423717796
 21
962.6676170000143
 31
0.0
  0
LINE
  5
112
330
6F
100
AcDbEntity
  8
_0-1_計細線
  6
Continuous
 62
     3
100
AcDbLine
 10
253.3585423717793
 20
998.6676170000141
 30
0.0
 11
253.3771023717792
 21
997.9697070000142
 31
0.0
  0
LINE
  5
113
330
6F
100
AcDbEntity
  8
_0-1_計細線
  6
Continuous
 62
     3
100
AcDbLine
 10
253.3771023717792
 20
997.9697070000142
 30
0.0
 11
253.4327453717795
 21
997.2731250000141
 31
0.0
  0
LINE
  5
114
330
6F
100
AcDbEntity
  8
_0-1_計細線
  6
Continuous
 62
     3
100
AcDbLine
 10
253.4327453717795
 20
997.2731250000141
 30
0.0
 11
253.5253673717793
 21
996.579198000014
 31
0.0
  0
LINE
  5
115
330
6F
100
AcDbEntity
  8
_0-1_計細線
  6
Continuous
 62
     3
100
AcDbLine
 10
253.5253673717793
 20
996.579198000014
 30
0.0
 11
253.6547913717793
 21
995.8892460000141
 31
0.0
  0
LINE
  5
116
330
6F
100
AcDbEntity
  8
_0-1_計細線
  6
Continuous
 62
     3
100
AcDbLine
 10
253.6547913717793
 20
995.8892460000141
 30
0.0
 11
253.8207703717791
 21
995.2045830000141
 31
0.0
  0
LINE
  5
117
330
6F
100
AcDbEntity
  8
_0-1_計細線
  6
Continuous
 62
     3
100
AcDbLine
 10
253.8207703717791
 20
995.2045830000141
 30
0.0
 11
254.0229883717793
 21
994.5265120000138
 31
0.0
  0
LINE
  5
118
330
6F
100
AcDbEntity
  8
_0-1_計細線
  6
Continuous
 62
     3
100
AcDbLine
 10
254.0229883717793
 20
994.5265120000138
 30
0.0
 11
254.2610613717793
 21
993.8563240000142
 31
0.0
  0
LINE
  5
119
330
6F
100
AcDbEntity
  8
_0-1_計細線
  6
Continuous
 62
     3
100
AcDbLine
 10
254.2610613717793
 20
993.8563240000142
 30
0.0
 11
254.5345363717792
 21
993.1952950000141
 31
0.0
  0
LINE
  5
11A
330
6F
100
AcDbEntity
  8
_0-1_計細線
  6
Continuous
 62
     3
100
AcDbLine
 10
254.5345363717792
 20
993.1952950000141
 30
0.0
 11
254.8428913717793
 21
992.5446820000141
 31
0.0
  0
LINE
  5
11B
330
6F
100
AcDbEntity
  8
_0-1_計細線
  6
Continuous
 62
     3
100
AcDbLine
 10
254.8428913717793
 20
992.5446820000141
 30
0.0
 11
255.1855403717793
 21
991.9057250000136
 31
0.0
  0
LINE
  5
11C
330
6F
100
AcDbEntity
  8
_0-1_計細線
  6
Continuous
 62
     3
100
AcDbLine
 10
255.1855403717793
 20
991.9057250000136
 30
0.0
 11
255.5618313717793
 21
991.2796390000142
 31
0.0
  0
LINE
  5
11D
330
6F
100
AcDbEntity
  8
_0-1_計細線
  6
Continuous
 62
     3
100
AcDbLine
 10
255.5618313717793
 20
991.2796390000142
 30
0.0
 11
255.9710473717794
 21
990.6676170000141
 31
0.0
  0
LINE
  5
11E
330
6F
100
AcDbEntity
  8
_0-1_計細線
  6
Continuous
 62
     3
100
AcDbLine
 10
255.9710473717794
 20
990.6676170000141
 30
0.0
 11
256.4124093717794
 21
990.0708230000143
 31
0.0
  0
LINE
  5
11F
330
6F
100
AcDbEntity
  8
_0-1_計細線
  6
Continuous
 62
     3
100
AcDbLine
 10
256.4124093717794
 20
990.0708230000143
 30
0.0
 11
256.8850773717793
 21
989.4903940000141
 31
0.0
  0
LINE
  5
120
330
6F
100
AcDbEntity
  8
_0-1_計細線
  6
Continuous
 62
     3
100
AcDbLine
 10
256.8850773717793
 20
989.4903940000141
 30
0.0
 11
257.3881523717794
 21
988.9274340000142
 31
0.0
  0
LINE
  5
121
330
6F
100
AcDbEntity
  8
_0-1_計細線
  6
Continuous
 62
     3
100
AcDbLine
 10
257.3881523717794
 20
988.9274340000142
 30
0.0
 11
257.9206753717792
 21
988.3830150000141
 31
0.0
  0
LINE
  5
122
330
6F
100
AcDbEntity
  8
_0-1_計細線
  6
Continuous
 62
     3
100
AcDbLine
 10
257.9206753717792
 20
988.3830150000141
 30
0.0
 11
258.4816343717794
 21
987.8581740000141
 31
0.0
  0
LINE
  5
123
330
6F
100
AcDbEntity
  8
_0-1_計細線
  6
Continuous
 62
     3
100
AcDbLine
 10
258.4816343717794
 20
987.8581740000141
 30
0.0
 11
259.0699603717792
 21
987.3539090000141
 31
0.0
  0
LINE
  5
124
330
6F
100
AcDbEntity
  8
_0-1_計細線
  6
Continuous
 62
     3
100
AcDbLine
 10
259.0699603717792
 20
987.3539090000141
 30
0.0
 11
259.6845333717793
 21
986.8711800000138
 31
0.0
  0
LINE
  5
125
330
6F
100
AcDbEntity
  8
_0-1_計細線
  6
Continuous
 62
     3
100
AcDbLine
 10
259.6845333717793
 20
986.8711800000138
 30
0.0
 11
260.3241833717793
 21
986.4109060000142
 31
0.0
  0
LINE
  5
126
330
6F
100
AcDbEntity
  8
_0-1_計細線
  6
Continuous
 62
     3
100
AcDbLine
 10
260.3241833717793
 20
986.4109060000142
 30
0.0
 11
260.9876943717793
 21
985.9739640000142
 31
0.0
  0
LINE
  5
127
330
6F
100
AcDbEntity
  8
_0-1_計細線
  6
Continuous
 62
     3
100
AcDbLine
 10
260.9876943717793
 20
985.9739640000142
 30
0.0
 11
261.6738013717793
 21
985.5611840000142
 31
0.0
  0
LINE
  5
128
330
6F
100
AcDbEntity
  8
_0-1_計細線
  6
Continuous
 62
     3
100
AcDbLine
 10
261.6738013717793
 20
985.5611840000142
 30
0.0
 11
262.3812003717792
 21
985.173354000014
 31
0.0
  0
LINE
  5
129
330
6F
100
AcDbEntity
  8
_0-1_計細線
  6
Continuous
 62
     3
100
AcDbLine
 10
262.3812003717792
 20
985.173354000014
 30
0.0
 11
263.1085423717792
 21
984.8112110000142
 31
0.0
  0
LINE
  5
12A
330
6F
100
AcDbEntity
  8
_0-1_計細線
  6
Continuous
 62
     3
100
AcDbLine
 10
263.1085423717792
 20
984.8112110000142
 30
0.0
 11
263.8544443717794
 21
984.4754440000141
 31
0.0
  0
LINE
  5
12B
330
6F
100
AcDbEntity
  8
_0-1_計細線
  6
Continuous
 62
     3
100
AcDbLine
 10
263.8544443717794
 20
984.4754440000141
 30
0.0
 11
264.6174863717793
 21
984.1666930000142
 31
0.0
  0
LINE
  5
12C
330
6F
100
AcDbEntity
  8
_0-1_計細線
  6
Continuous
 62
     3
100
AcDbLine
 10
264.6174863717793
 20
984.1666930000142
 30
0.0
 11
265.3962153717793
 21
983.8855450000142
 31
0.0
  0
LINE
  5
12D
330
6F
100
AcDbEntity
  8
_0-1_計細線
  6
Continuous
 62
     3
100
AcDbLine
 10
265.3962153717793
 20
983.8855450000142
 30
0.0
 11
266.1891493717792
 21
983.6325350000141
 31
0.0
  0
LINE
  5
12E
330
6F
100
AcDbEntity
  8
_0-1_計細線
  6
Continuous
 62
     3
100
AcDbLine
 10
266.1891493717792
 20
983.6325350000141
 30
0.0
 11
266.9947793717792
 21
983.4081460000142
 31
0.0
  0
LINE
  5
12F
330
6F
100
AcDbEntity
  8
_0-1_計細線
  6
Continuous
 62
     3
100
AcDbLine
 10
266.9947793717792
 20
983.4081460000142
 30
0.0
 11
267.8115713717793
 21
983.212804000014
 31
0.0
  0
LINE
  5
130
330
6F
100
AcDbEntity
  8
_0-1_計細線
  6
Continuous
 62
     3
100
AcDbLine
 10
267.8115713717793
 20
983.212804000014
 30
0.0
 11
268.6379693717792
 21
983.0468810000141
 31
0.0
  0
LINE
  5
131
330
6F
100
AcDbEntity
  8
_0-1_計細線
  6
Continuous
 62
     3
100
AcDbLine
 10
268.6379693717792
 20
983.0468810000141
 30
0.0
 11
269.4724023717792
 21
982.9106930000142
 31
0.0
  0
LINE
  5
132
330
6F
100
AcDbEntity
  8
_0-1_計細線
  6
Continuous
 62
     3
100
AcDbLine
 10
269.4724023717792
 20
982.9106930000142
 30
0.0
 11
270.3132813717793
 21
982.8044990000142
 31
0.0
  0
LINE
  5
133
330
6F
100
AcDbEntity
  8
_0-1_計細線
  6
Continuous
 62
     3
100
AcDbLine
 10
270.3132813717793
 20
982.8044990000142
 30
0.0
 11
271.1590053717793
 21
982.7285020000141
 31
0.0
  0
LINE
  5
134
330
6F
100
AcDbEntity
  8
_0-1_計細線
  6
Continuous
 62
     3
100
AcDbLine
 10
271.1590053717793
 20
982.7285020000141
 30
0.0
 11
272.0079643717792
 21
982.6828460000141
 31
0.0
  0
LINE
  5
135
330
6F
100
AcDbEntity
  8
_0-1_計細線
  6
Continuous
 62
     3
100
AcDbLine
 10
272.0079643717792
 20
982.6828460000141
 30
0.0
 11
272.8585423717793
 21
982.6676170000141
 31
0.0
  0
LINE
  5
136
330
6F
100
AcDbEntity
  8
_0-1_計細線
  6
Continuous
 62
     3
100
AcDbLine
 10
272.8585423717793
 20
982.6676170000141
 30
0.0
 11
273.7091203717794
 21
982.6828460000141
 31
0.0
  0
LINE
  5
137
330
6F
100
AcDbEntity
  8
_0-1_計細線
  6
Continuous
 62
     3
100
AcDbLine
 10
273.7091203717794
 20
982.6828460000141
 30
0.0
 11
274.5580793717793
 21
982.7285020000141
 31
0.0
  0
LINE
  5
138
330
6F
100
AcDbEntity
  8
_0-1_計細線
  6
Continuous
 62
     3
100
AcDbLine
 10
274.5580793717793
 20
982.7285020000141
 30
0.0
 11
275.4038033717793
 21
982.8044990000142
 31
0.0
  0
LINE
  5
139
330
6F
100
AcDbEntity
  8
_0-1_計細線
  6
Continuous
 62
     3
100
AcDbLine
 10
275.4038033717793
 20
982.8044990000142
 30
0.0
 11
276.2446813717791
 21
982.9106930000142
 31
0.0
  0
LINE
  5
13A
330
6F
100
AcDbEntity
  8
_0-1_計細線
  6
Continuous
 62
     3
100
AcDbLine
 10
276.2446813717791
 20
982.9106930000142
 30
0.0
 11
277.0791143717791
 21
983.0468810000141
 31
0.0
  0
LINE
  5
13B
330
6F
100
AcDbEntity
  8
_0-1_計細線
  6
Continuous
 62
     3
100
AcDbLine
 10
277.0791143717791
 20
983.0468810000141
 30
0.0
 11
277.9055133717793
 21
983.2128040000142
 31
0.0
  0
LINE
  5
13C
330
6F
100
AcDbEntity
  8
_0-1_計細線
  6
Continuous
 62
     3
100
AcDbLine
 10
277.9055133717793
 20
983.2128040000142
 30
0.0
 11
278.7223053717794
 21
983.4081460000144
 31
0.0
  0
LINE
  5
13D
330
6F
100
AcDbEntity
  8
_0-1_計細線
  6
Continuous
 62
     3
100
AcDbLine
 10
278.7223053717794
 20
983.4081460000144
 30
0.0
 11
279.5279353717794
 21
983.6325350000144
 31
0.0
  0
LINE
  5
13E
330
6F
100
AcDbEntity
  8
_0-1_計細線
  6
Continuous
 62
     3
100
AcDbLine
 10
279.5279353717794
 20
983.6325350000144
 30
0.0
 11
280.3208693717793
 21
983.8855450000142
 31
0.0
  0
LINE
  5
13F
330
6F
100
AcDbEntity
  8
_0-1_計細線
  6
Continuous
 62
     3
100
AcDbLine
 10
280.3208693717793
 20
983.8855450000142
 30
0.0
 11
281.0995983717794
 21
984.1666930000142
 31
0.0
  0
LINE
  5
140
330
6F
100
AcDbEntity
  8
_0-1_計細線
  6
Continuous
 62
     3
100
AcDbLine
 10
281.0995983717794
 20
984.1666930000142
 30
0.0
 11
281.8626403717792
 21
984.4754440000141
 31
0.0
  0
LINE
  5
141
330
6F
100
AcDbEntity
  8
_0-1_計細線
  6
Continuous
 62
     3
100
AcDbLine
 10
281.8626403717792
 20
984.4754440000141
 30
0.0
 11
282.6085423717793
 21
984.8112110000144
 31
0.0
  0
LINE
  5
142
330
6F
100
AcDbEntity
  8
_0-1_計細線
  6
Continuous
 62
     3
100
AcDbLine
 10
282.6085423717793
 20
984.8112110000144
 30
0.0
 11
283.3358843717795
 21
985.1733540000143
 31
0.0
  0
LINE
  5
143
330
6F
100
AcDbEntity
  8
_0-1_計細線
  6
Continuous
 62
     3
100
AcDbLine
 10
283.3358843717795
 20
985.1733540000143
 30
0.0
 11
284.0432823717792
 21
985.5611840000142
 31
0.0
  0
LINE
  5
144
330
6F
100
AcDbEntity
  8
_0-1_計細線
  6
Continuous
 62
     3
100
AcDbLine
 10
284.0432823717792
 20
985.5611840000142
 30
0.0
 11
284.7293903717794
 21
985.9739640000142
 31
0.0
  0
LINE
  5
145
330
6F
100
AcDbEntity
  8
_0-1_計細線
  6
Continuous
 62
     3
100
AcDbLine
 10
284.7293903717794
 20
985.9739640000142
 30
0.0
 11
285.3929003717791
 21
986.4109060000144
 31
0.0
  0
LINE
  5
146
330
6F
100
AcDbEntity
  8
_0-1_計細線
  6
Continuous
 62
     3
100
AcDbLine
 10
285.3929003717791
 20
986.4109060000144
 30
0.0
 11
286.0325513717794
 21
986.8711800000141
 31
0.0
  0
LINE
  5
147
330
6F
100
AcDbEntity
  8
_0-1_計細線
  6
Continuous
 62
     3
100
AcDbLine
 10
286.0325513717794
 20
986.8711800000141
 30
0.0
 11
286.6471243717792
 21
987.3539090000141
 31
0.0
  0
LINE
  5
148
330
6F
100
AcDbEntity
  8
_0-1_計細線
  6
Continuous
 62
     3
100
AcDbLine
 10
286.6471243717792
 20
987.3539090000141
 30
0.0
 11
287.2354503717792
 21
987.8581740000143
 31
0.0
  0
LINE
  5
149
330
6F
100
AcDbEntity
  8
_0-1_計細線
  6
Continuous
 62
     3
100
AcDbLine
 10
287.2354503717792
 20
987.8581740000143
 30
0.0
 11
287.7964093717793
 21
988.3830150000141
 31
0.0
  0
LINE
  5
14A
330
6F
100
AcDbEntity
  8
_0-1_計細線
  6
Continuous
 62
     3
100
AcDbLine
 10
287.7964093717793
 20
988.3830150000141
 30
0.0
 11
288.3289323717793
 21
988.9274340000142
 31
0.0
  0
LINE
  5
14B
330
6F
100
AcDbEntity
  8
_0-1_計細線
  6
Continuous
 62
     3
100
AcDbLine
 10
288.3289323717793
 20
988.9274340000142
 30
0.0
 11
288.8320073717793
 21
989.4903940000141
 31
0.0
  0
LINE
  5
14C
330
6F
100
AcDbEntity
  8
_0-1_計細線
  6
Continuous
 62
     3
100
AcDbLine
 10
288.8320073717793
 20
989.4903940000141
 30
0.0
 11
289.3046753717793
 21
990.0708230000143
 31
0.0
  0
LINE
  5
14D
330
6F
100
AcDbEntity
  8
_0-1_計細線
  6
Continuous
 62
     3
100
AcDbLine
 10
289.3046753717793
 20
990.0708230000143
 30
0.0
 11
289.7460373717791
 21
990.6676170000141
 31
0.0
  0
LINE
  5
14E
330
6F
100
AcDbEntity
  8
_0-1_計細線
  6
Continuous
 62
     3
100
AcDbLine
 10
289.7460373717791
 20
990.6676170000141
 30
0.0
 11
290.1552533717792
 21
991.2796390000142
 31
0.0
  0
LINE
  5
14F
330
6F
100
AcDbEntity
  8
_0-1_計細線
  6
Continuous
 62
     3
100
AcDbLine
 10
290.1552533717792
 20
991.2796390000142
 30
0.0
 11
290.5315443717793
 21
991.9057250000141
 31
0.0
  0
LINE
  5
150
330
6F
100
AcDbEntity
  8
_0-1_計細線
  6
Continuous
 62
     3
100
AcDbLine
 10
290.5315443717793
 20
991.9057250000141
 30
0.0
 11
290.8741933717792
 21
992.5446820000141
 31
0.0
  0
LINE
  5
151
330
6F
100
AcDbEntity
  8
_0-1_計細線
  6
Continuous
 62
     3
100
AcDbLine
 10
290.8741933717792
 20
992.5446820000141
 30
0.0
 11
291.1825483717794
 21
993.1952950000143
 31
0.0
  0
LINE
  5
152
330
6F
100
AcDbEntity
  8
_0-1_計細線
  6
Continuous
 62
     3
100
AcDbLine
 10
291.1825483717794
 20
993.1952950000143
 30
0.0
 11
291.4560223717793
 21
993.8563240000142
 31
0.0
  0
LINE
  5
153
330
6F
100
AcDbEntity
  8
_0-1_計細線
  6
Continuous
 62
     3
100
AcDbLine
 10
291.4560223717793
 20
993.8563240000142
 30
0.0
 11
291.6940953717793
 21
994.5265120000142
 31
0.0
  0
LINE
  5
154
330
6F
100
AcDbEntity
  8
_0-1_計細線
  6
Continuous
 62
     3
100
AcDbLine
 10
291.6940953717793
 20
994.5265120000142
 30
0.0
 11
291.8963143717792
 21
995.2045830000143
 31
0.0
  0
LINE
  5
155
330
6F
100
AcDbEntity
  8
_0-1_計細線
  6
Continuous
 62
     3
100
AcDbLine
 10
291.8963143717792
 20
995.2045830000143
 30
0.0
 11
292.0622933717794
 21
995.8892460000143
 31
0.0
  0
LINE
  5
156
330
6F
100
AcDbEntity
  8
_0-1_計細線
  6
Continuous
 62
     3
100
AcDbLine
 10
292.0622933717794
 20
995.8892460000143
 30
0.0
 11
292.1917173717793
 21
996.5791980000142
 31
0.0
  0
LINE
  5
157
330
6F
100
AcDbEntity
  8
_0-1_計細線
  6
Continuous
 62
     3
100
AcDbLine
 10
292.1917173717793
 20
996.5791980000142
 30
0.0
 11
292.2843383717792
 21
997.2731250000141
 31
0.0
  0
LINE
  5
158
330
6F
100
AcDbEntity
  8
_0-1_計細線
  6
Continuous
 62
     3
100
AcDbLine
 10
292.2843383717792
 20
997.2731250000141
 30
0.0
 11
292.3399823717793
 21
997.9697070000142
 31
0.0
  0
LINE
  5
159
330
6F
100
AcDbEntity
  8
_0-1_計細線
  6
Continuous
 62
     3
100
AcDbLine
 10
292.3399823717793
 20
997.9697070000142
 30
0.0
 11
292.3585423717792
 21
998.6676170000144
 31
0.0
  0
ARC
  5
15A
330
6F
100
AcDbEntity
  8
_0-1_計細線
  6
Continuous
 62
     3
100
AcDbCircle
 10
290.8226433717792
 20
963.6676170000141
 30
0.0
 40
1.0
100
AcDbArc
 50
269.9999999999997
 51
330.0000000000024
  0
LINE
  5
15B
330
6F
100
AcDbEntity
  8
_0-1_計細線
  6
Continuous
 62
     3
100
AcDbLine
 10
254.8944403717793
 20
962.6676170000141
 30
0.0
 11
290.8226433717792
 21
962.6676170000145
 31
0.0
  0
ARC
  5
15C
330
6F
100
AcDbEntity
  8
_0-1_計細線
  6
Continuous
 62
     3
100
AcDbCircle
 10
254.8944403717793
 20
963.6676170000141
 30
0.0
 40
1.0
100
AcDbArc
 50
209.9999999999969
 51
269.9999999999997
  0
LINE
  5
15D
330
6F
100
AcDbEntity
  8
_0-1_計細線
  6
Continuous
 62
     3
100
AcDbLine
 10
292.3585423717792
 20
965.6676170000144
 30
0.0
 11
292.3585423717792
 21
998.6676170000144
 31
0.0
  0
ARC
  5
15E
330
6F
100
AcDbEntity
  8
_0-1_計細線
  6
Continuous
 62
     3
100
AcDbCircle
 10
287.3585423717793
 20
965.6676170000144
 30
0.0
 40
5.0
100
AcDbArc
 50
329.9999999999997
 51
359.9999999999997
  0
LINE
  5
15F
330
6F
100
AcDbEntity
  8
_0-1_計細線
  6
Continuous
 62
     3
100
AcDbLine
 10
253.3585423717793
 20
965.6676170000141
 30
0.0
 11
253.3585423717793
 21
998.6676170000141
 31
0.0
  0
ARC
  5
160
330
6F
100
AcDbEntity
  8
_0-1_計細線
  6
Continuous
 62
     3
100
AcDbCircle
 10
258.3585423717793
 20
965.6676170000141
 30
0.0
 40
5.0
100
AcDbArc
 50
179.9999999999998
 51
209.9999999999996
  0
ARC
  5
161
330
6F
100
AcDbEntity
  8
_0-1_計細線
  6
Continuous
 62
     3
100
AcDbCircle
 10
261.8585423717793
 20
1006.267617000014
 30
0.0
 40
1.0
100
AcDbArc
 50
89.99999999999991
 51
179.9999999999998
  0
ARC
  5
162
330
6F
100
AcDbEntity
  8
_0-1_計細線
  6
Continuous
 62
     3
100
AcDbCircle
 10
283.8585423717793
 20
1006.267617000014
 30
0.0
 40
1.0
100
AcDbArc
 50
0.0
 51
89.99999999999991
  0
LINE
  5
163
330
6F
100
AcDbEntity
  8
_0-1_計細線
  6
Continuous
 62
     3
100
AcDbLine
 10
284.8585423717793
 20
1006.267617000014
 30
0.0
 11
284.8585423717793
 21
1005.267617000014
 31
0.0
  0
ARC
  5
164
330
6F
100
AcDbEntity
  8
_0-1_計細線
  6
Continuous
 62
     3
100
AcDbCircle
 10
283.8585423717793
 20
1005.267617000014
 30
0.0
 40
1.0
100
AcDbArc
 50
269.9999999999997
 51
359.9999999999997
  0
LINE
  5
165
330
6F
100
AcDbEntity
  8
_0-1_計細線
  6
Continuous
 62
     3
100
AcDbLine
 10
260.8585423717793
 20
1006.267617000014
 30
0.0
 11
260.8585423717793
 21
1005.267617000014
 31
0.0
  0
ARC
  5
166
330
6F
100
AcDbEntity
  8
_0-1_計細線
  6
Continuous
 62
     3
100
AcDbCircle
 10
261.8585423717793
 20
1005.267617000014
 30
0.0
 40
1.0
100
AcDbArc
 50
179.9999999999998
 51
269.9999999999997
  0
CIRCLE
  5
167
330
6F
100
AcDbEntity
  8
_0-1_計細線
  6
Continuous
 62
     3
100
AcDbCircle
 10
272.8585423717793
 20
1007.167617000014
 30
0.0
 40
2.199999999999988
  0
CIRCLE
  5
168
330
6F
100
AcDbEntity
  8
_0-1_計細線
  6
Continuous
 62
     3
100
AcDbCircle
 10
282.5585423717793
 20
991.5676170000141
 30
0.0
 40
2.199999999999988
  0
CIRCLE
  5
169
330
6F
100
AcDbEntity
  8
_0-1_計細線
  6
Continuous
 62
     3
100
AcDbCircle
 10
263.1585423717793
 20
991.5676170000141
 30
0.0
 40
2.199999999999988
  0
ARC
  5
16A
330
6F
100
AcDbEntity
  8
_0-1_計細線
  6
Continuous
 62
     3
100
AcDbCircle
 10
272.8585423717793
 20
1001.203151000014
 30
0.0
 40
1.0
100
AcDbArc
 50
45.00000000000921
 51
135.0
  0
ARC
  5
16B
330
6F
100
AcDbEntity
  8
_0-1_計細線
  6
Continuous
 62
     3
100
AcDbCircle
 10
272.8585423717793
 20
994.1320830000142
 30
0.0
 40
1.0
100
AcDbArc
 50
224.9999999999904
 51
315.000000000018
  0
LINE
  5
16C
330
6F
100
AcDbEntity
  8
_0-1_計細線
  6
Continuous
 62
     3
100
AcDbLine
 10
273.5656493717792
 20
993.4249760000144
 30
0.0
 11
277.1011833717794
 21
996.9605100000142
 31
0.0
  0
LINE
  5
16D
330
6F
100
AcDbEntity
  8
_0-1_計細線
  6
Continuous
 62
     3
100
AcDbLine
 10
277.1011833717794
 20
998.3747240000141
 30
0.0
 11
273.5656493717792
 21
1001.910258000014
 31
0.0
  0
ARC
  5
16E
330
6F
100
AcDbEntity
  8
_0-1_計細線
  6
Continuous
 62
     3
100
AcDbCircle
 10
276.3940763717794
 20
997.6676170000144
 30
0.0
 40
1.0
100
AcDbArc
 50
314.9999999999904
 51
44.99999999999964
  0
LINE
  5
16F
330
6F
100
AcDbEntity
  8
_0-1_計細線
  6
Continuous
 62
     3
100
AcDbLine
 10
272.1514353717794
 20
1001.910258000014
 30
0.0
 11
268.6159013717793
 21
998.3747240000141
 31
0.0
  0
LINE
  5
170
330
6F
100
AcDbEntity
  8
_0-1_計細線
  6
Continuous
 62
     3
100
AcDbLine
 10
268.6159013717793
 20
996.9605100000137
 30
0.0
 11
272.1514353717794
 21
993.424976000014
 31
0.0
  0
ARC
  5
171
330
6F
100
AcDbEntity
  8
_0-1_計細線
  6
Continuous
 62
     3
100
AcDbCircle
 10
269.3230083717792
 20
997.6676170000141
 30
0.0
 40
1.0
100
AcDbArc
 50
135.0
 51
225.0000000000089
  0
LINE
  5
172
330
6F
100
AcDbEntity
  8
_0-1_計細線
  6
Continuous
 62
     3
100
AcDbLine
 10
280.6585423717793
 20
1004.267617000014
 30
0.0
 11
283.8585423717793
 21
1004.267617000014
 31
0.0
  0
LINE
  5
173
330
6F
100
AcDbEntity
  8
_0-1_計細線
  6
Continuous
 62
     3
100
AcDbLine
 10
280.6585423717793
 20
1007.267617000014
 30
0.0
 11
280.6585423717793
 21
1004.267617000014
 31
0.0
  0
LINE
  5
174
330
6F
100
AcDbEntity
  8
_0-1_計細線
  6
Continuous
 62
     3
100
AcDbLine
 10
283.8585423717793
 20
1007.267617000014
 30
0.0
 11
280.6585423717793
 21
1007.267617000014
 31
0.0
  0
LINE
  5
175
330
6F
100
AcDbEntity
  8
_0-1_計細線
  6
Continuous
 62
     3
100
AcDbLine
 10
265.0585423717793
 20
1004.267617000014
 30
0.0
 11
261.8585423717793
 21
1004.267617000014
 31
0.0
  0
LINE
  5
176
330
6F
100
AcDbEntity
  8
_0-1_計細線
  6
Continuous
 62
     3
100
AcDbLine
 10
265.0585423717793
 20
1007.267617000014
 30
0.0
 11
265.0585423717793
 21
1004.267617000014
 31
0.0
  0
LINE
  5
177
330
6F
100
AcDbEntity
  8
_0-1_計細線
  6
Continuous
 62
     3
100
AcDbLine
 10
261.8585423717793
 20
1007.267617000014
 30
0.0
 11
265.0585423717793
 21
1007.267617000014
 31
0.0
  0
LINE
  5
178
330
6F
100
AcDbEntity
  8
_0-1_計細線
  6
Continuous
 62
     3
100
AcDbLine
 10
292.3585423717792
 20
998.6676170000141
 30
0.0
 11
292.3585423717792
 21
998.6676170000141
 31
0.0
  0
LINE
  5
179
330
6F
100
AcDbEntity
  8
_0-1_計細線
  6
Continuous
 62
     3
100
AcDbLine
 10
292.3585423717792
 20
998.6676170000141
 30
0.0
 11
292.0622935555174
 21
1001.272339665018
 31
0.0
  0
LINE
  5
17A
330
6F
100
AcDbEntity
  8
_0-1_計細線
  6
Continuous
 62
     3
100
AcDbLine
 10
292.0622935555174
 20
1001.272339665018
 30
0.0
 11
291.1825484771045
 21
1003.797919149899
 31
0.0
  0
LINE
  5
17B
330
6F
100
AcDbEntity
  8
_0-1_計細線
  6
Continuous
 62
     3
100
AcDbLine
 10
291.1825484771045
 20
1003.797919149899
 30
0.0
 11
289.7460377455758
 21
1006.167617000014
 31
0.0
  0
LINE
  5
17C
330
6F
100
AcDbEntity
  8
_0-1_計細線
  6
Continuous
 62
     3
100
AcDbLine
 10
289.7460377455758
 20
1006.167617000014
 30
0.0
 11
287.7964090125994
 21
1008.309431145312
 31
0.0
  0
LINE
  5
17D
330
6F
100
AcDbEntity
  8
_0-1_計細線
  6
Continuous
 62
     3
100
AcDbLine
 10
287.7964090125994
 20
1008.309431145312
 30
0.0
 11
285.3929007606669
 21
1010.158283646799
 31
0.0
  0
LINE
  5
17E
330
6F
100
AcDbEntity
  8
_0-1_計細線
  6
Continuous
 62
     3
100
AcDbLine
 10
285.3929007606669
 20
1010.158283646799
 30
0.0
 11
282.6085423717793
 21
1011.65799805678
 31
0.0
  0
LINE
  5
17F
330
6F
100
AcDbEntity
  8
_0-1_計細線
  6
Continuous
 62
     3
100
AcDbLine
 10
282.6085423717793
 20
1011.65799805678
 30
0.0
 11
279.5279351666299
 21
1012.763006311803
 31
0.0
  0
LINE
  5
180
330
6F
100
AcDbEntity
  8
_0-1_計細線
  6
Continuous
 62
     3
100
AcDbLine
 10
279.5279351666299
 20
1012.763006311803
 30
0.0
 11
276.2446818362845
 21
1013.439733295197
 31
0.0
  0
LINE
  5
181
330
6F
100
AcDbEntity
  8
_0-1_計細線
  6
Continuous
 62
     3
100
AcDbLine
 10
276.2446818362845
 20
1013.439733295197
 30
0.0
 11
272.8585423717793
 21
1013.667617000014
 31
0.0
  0
LINE
  5
182
330
6F
100
AcDbEntity
  8
_0-1_計細線
  6
Continuous
 62
     3
100
AcDbLine
 10
272.8585423717793
 20
1013.667617000014
 30
0.0
 11
269.4724029072741
 21
1013.439733295197
 31
0.0
  0
LINE
  5
183
330
6F
100
AcDbEntity
  8
_0-1_計細線
  6
Continuous
 62
     3
100
AcDbLine
 10
269.4724029072741
 20
1013.439733295197
 30
0.0
 11
266.1891495769288
 21
1012.763006311803
 31
0.0
  0
LINE
  5
184
330
6F
100
AcDbEntity
  8
_0-1_計細線
  6
Continuous
 62
     3
100
AcDbLine
 10
266.1891495769288
 20
1012.763006311803
 30
0.0
 11
263.1085423717792
 21
1011.65799805678
 31
0.0
  0
LINE
  5
185
330
6F
100
AcDbEntity
  8
_0-1_計細線
  6
Continuous
 62
     3
100
AcDbLine
 10
263.1085423717792
 20
1011.65799805678
 30
0.0
 11
260.3241839828917
 21
1010.158283646799
 31
0.0
  0
LINE
  5
186
330
6F
100
AcDbEntity
  8
_0-1_計細線
  6
Continuous
 62
     3
100
AcDbLine
 10
260.3241839828917
 20
1010.158283646799
 30
0.0
 11
257.9206757309592
 21
1008.309431145312
 31
0.0
  0
LINE
  5
187
330
6F
100
AcDbEntity
  8
_0-1_計細線
  6
Continuous
 62
     3
100
AcDbLine
 10
257.9206757309592
 20
1008.309431145312
 30
0.0
 11
255.9710469979828
 21
1006.167617000014
 31
0.0
  0
LINE
  5
188
330
6F
100
AcDbEntity
  8
_0-1_計細線
  6
Continuous
 62
     3
100
AcDbLine
 10
255.9710469979828
 20
1006.167617000014
 30
0.0
 11
254.5345362664541
 21
1003.797919149899
 31
0.0
  0
LINE
  5
189
330
6F
100
AcDbEntity
  8
_0-1_計細線
  6
Continuous
 62
     3
100
AcDbLine
 10
254.5345362664541
 20
1003.797919149899
 30
0.0
 11
253.6547911880413
 21
1001.272339665018
 31
0.0
  0
LINE
  5
18A
330
6F
100
AcDbEntity
  8
_0-1_計細線
  6
Continuous
 62
     3
100
AcDbLine
 10
253.6547911880413
 20
1001.272339665018
 30
0.0
 11
253.3585423717793
 21
998.6676170000141
 31
0.0
  0
LINE
  5
18B
330
6F
100
AcDbEntity
  8
_0-0_計極細
  6
Continuous
 62
     2
100
AcDbLine
 10
290.7561592954362
 20
998.6676170000141
 30
0.0
 11
290.7561592954362
 21
998.6676170000141
 31
0.0
  0
LINE
  5
18C
330
6F
100
AcDbEntity
  8
_0-0_計極細
  6
Continuous
 62
     2
100
AcDbLine
 10
290.7561592954362
 20
998.6676170000141
 30
0.0
 11
290.4842542786392
 21
1001.011867398517
 31
0.0
  0
LINE
  5
18D
330
6F
100
AcDbEntity
  8
_0-0_計極細
  6
Continuous
 62
     2
100
AcDbLine
 10
290.4842542786392
 20
1001.011867398517
 30
0.0
 11
289.6768009245927
 21
1003.284888934911
 31
0.0
  0
LINE
  5
18E
330
6F
100
AcDbEntity
  8
_0-0_計極細
  6
Continuous
 62
     2
100
AcDbLine
 10
289.6768009245927
 20
1003.284888934911
 30
0.0
 11
288.3583332948685
 21
1005.417617000014
 31
0.0
  0
LINE
  5
18F
330
6F
100
AcDbEntity
  8
_0-0_計極細
  6
Continuous
 62
     2
100
AcDbLine
 10
288.3583332948685
 20
1005.417617000014
 30
0.0
 11
286.5689123612188
 21
1007.345249730782
 31
0.0
  0
LINE
  5
190
330
6F
100
AcDbEntity
  8
_0-0_計極細
  6
Continuous
 62
     2
100
AcDbLine
 10
286.5689123612188
 20
1007.345249730782
 30
0.0
 11
284.3629087732221
 21
1009.00921698212
 31
0.0
  0
LINE
  5
191
330
6F
100
AcDbEntity
  8
_0-0_計極細
  6
Continuous
 62
     2
100
AcDbLine
 10
284.3629087732221
 20
1009.00921698212
 30
0.0
 11
281.8073508336078
 21
1010.358959951104
 31
0.0
  0
LINE
  5
192
330
6F
100
AcDbEntity
  8
_0-0_計極細
  6
Continuous
 62
     2
100
AcDbLine
 10
281.8073508336078
 20
1010.358959951104
 30
0.0
 11
278.9798878771964
 21
1011.353467380624
 31
0.0
  0
LINE
  5
193
330
6F
100
AcDbEntity
  8
_0-0_計極細
  6
Continuous
 62
     2
100
AcDbLine
 10
278.9798878771964
 20
1011.353467380624
 30
0.0
 11
275.9664309351531
 21
1011.962521665679
 31
0.0
  0
LINE
  5
194
330
6F
100
AcDbEntity
  8
_0-0_計極細
  6
Continuous
 62
     2
100
AcDbLine
 10
275.9664309351531
 20
1011.962521665679
 30
0.0
 11
272.8585423717793
 21
1012.167617000014
 31
0.0
  0
LINE
  5
195
330
6F
100
AcDbEntity
  8
_0-0_計極細
  6
Continuous
 62
     2
100
AcDbLine
 10
272.8585423717793
 20
1012.167617000014
 30
0.0
 11
269.7506538084055
 21
1011.962521665679
 31
0.0
  0
LINE
  5
196
330
6F
100
AcDbEntity
  8
_0-0_計極細
  6
Continuous
 62
     2
100
AcDbLine
 10
269.7506538084055
 20
1011.962521665679
 30
0.0
 11
266.7371968663623
 21
1011.353467380624
 31
0.0
  0
LINE
  5
197
330
6F
100
AcDbEntity
  8
_0-0_計極細
  6
Continuous
 62
     2
100
AcDbLine
 10
266.7371968663623
 20
1011.353467380624
 30
0.0
 11
263.9097339099509
 21
1010.358959951104
 31
0.0
  0
LINE
  5
198
330
6F
100
AcDbEntity
  8
_0-0_計極細
  6
Continuous
 62
     2
100
AcDbLine
 10
263.9097339099509
 20
1010.358959951104
 30
0.0
 11
261.3541759703366
 21
1009.00921698212
 31
0.0
  0
LINE
  5
199
330
6F
100
AcDbEntity
  8
_0-0_計極細
  6
Continuous
 62
     2
100
AcDbLine
 10
261.3541759703366
 20
1009.00921698212
 30
0.0
 11
259.1481723823398
 21
1007.345249730782
 31
0.0
  0
LINE
  5
19A
330
6F
100
AcDbEntity
  8
_0-0_計極細
  6
Continuous
 62
     2
100
AcDbLine
 10
259.1481723823398
 20
1007.345249730782
 30
0.0
 11
257.3587514486902
 21
1005.417617000014
 31
0.0
  0
LINE
  5
19B
330
6F
100
AcDbEntity
  8
_0-0_計極細
  6
Continuous
 62
     2
100
AcDbLine
 10
257.3587514486902
 20
1005.417617000014
 30
0.0
 11
256.040283818966
 21
1003.284888934911
 31
0.0
  0
LINE
  5
19C
330
6F
100
AcDbEntity
  8
_0-0_計極細
  6
Continuous
 62
     2
100
AcDbLine
 10
256.040283818966
 20
1003.284888934911
 30
0.0
 11
255.2328304649195
 21
1001.011867398517
 31
0.0
  0
LINE
  5
19D
330
6F
100
AcDbEntity
  8
_0-0_計極細
  6
Continuous
 62
     2
100
AcDbLine
 10
255.2328304649195
 20
1001.011867398517
 30
0.0
 11
254.9609254481225
 21
998.6676170000141
 31
0.0
  0
LINE
  5
19E
330
6F
100
AcDbEntity
  8
_0-0_計極細
  6
Continuous
 62
     2
100
AcDbLine
 10
254.9529638156566
 20
998.6676170000141
 30
0.0
 11
253.3585423717793
 21
998.6676170000141
 31
0.0
  0
LINE
  5
19F
330
6F
100
AcDbEntity
  8
_0-0_計極細
  6
Continuous
 62
     2
100
AcDbLine
 10
292.3585423717792
 20
998.6676170000144
 30
0.0
 11
290.7535921274714
 21
998.6676170000144
 31
0.0
  0
ARC
  5
1A0
330
6F
100
AcDbEntity
  8
_0-1_計細線
  6
Continuous
 62
     3
100
AcDbCircle
 10
261.8585417962684
 20
397.6676170000146
 30
0.0
 40
1.5
100
AcDbArc
 50
269.9999999999997
 51
89.99999999999955
  0
LINE
  5
1A1
330
6F
100
AcDbEntity
  8
_0-1_計細線
  6
Continuous
 62
     3
100
AcDbLine
 10
258.3585414203039
 20
396.1676172429479
 30
0.0
 11
261.8585417962684
 21
396.1676172429479
 31
0.0
  0
LINE
  5
1A2
330
6F
100
AcDbEntity
  8
_0-1_計細線
  6
Continuous
 62
     3
100
AcDbLine
 10
258.3585414203039
 20
399.1676167570813
 30
0.0
 11
261.8585417962684
 21
399.1676167570811
 31
0.0
  0
ARC
  5
1A3
330
6F
100
AcDbEntity
  8
_0-1_計細線
  6
Continuous
 62
     3
100
AcDbCircle
 10
272.8585416646731
 20
408.667616868419
 30
0.0
 40
1.5
100
AcDbArc
 50
179.9999999999998
 51
359.9999999999997
  0
LINE
  5
1A4
330
6F
100
AcDbEntity
  8
_0-1_計細線
  6
Continuous
 62
     3
100
AcDbLine
 10
274.3585414217398
 20
412.1676172443835
 30
0.0
 11
274.3585414217398
 21
408.667616868419
 31
0.0
  0
LINE
  5
1A5
330
6F
100
AcDbEntity
  8
_0-1_計細線
  6
Continuous
 62
     3
100
AcDbLine
 10
271.3585419076064
 20
412.1676172443835
 30
0.0
 11
271.3585419076064
 21
408.667616868419
 31
0.0
  0
ARC
  5
1A6
330
6F
100
AcDbEntity
  8
_0-1_計細線
  6
Continuous
 62
     3
100
AcDbCircle
 10
272.8585416646731
 20
412.1676172443834
 30
0.0
 40
1.5
100
AcDbArc
 50
0.0
 51
179.9999999999957
  0
ARC
  5
1A7
330
6F
100
AcDbEntity
  8
_0-1_計細線
  6
Continuous
 62
     3
100
AcDbCircle
 10
258.3585414203039
 20
397.6676170000146
 30
0.0
 40
1.5
100
AcDbArc
 50
89.99999999999991
 51
269.9999999999997
  0
CIRCLE
  5
1A8
330
6F
100
AcDbEntity
  8
_0-1_計細線
  6
Continuous
 62
     3
100
AcDbCircle
 10
267.9087941963673
 20
402.617365175427
 30
0.0
 40
2.200000000000002
  0
LINE
  5
1A9
330
6F
100
AcDbEntity
  8
_0-1_計細線
  6
Continuous
 62
     3
100
AcDbLine
 10
274.9798620082326
 20
397.6676177071212
 30
0.0
 11
272.8585416646731
 21
395.5462973635615
 31
0.0
  0
LINE
  5
1AA
330
6F
100
AcDbEntity
  8
_0-1_計細線
  6
Continuous
 62
     3
100
AcDbLine
 10
272.8585416646731
 20
395.5462973635615
 30
0.0
 11
270.7372213211133
 21
397.6676177071212
 31
0.0
  0
LINE
  5
1AB
330
6F
100
AcDbEntity
  8
_0-1_計細線
  6
Continuous
 62
     3
100
AcDbLine
 10
272.8585416646731
 20
399.7889380506808
 30
0.0
 11
270.7372213211133
 21
397.6676177071212
 31
0.0
  0
LINE
  5
1AC
330
6F
100
AcDbEntity
  8
_0-1_計細線
  6
Continuous
 62
     3
100
AcDbLine
 10
274.9798620082326
 20
397.6676177071212
 30
0.0
 11
272.8585416646731
 21
399.7889380506808
 31
0.0
  0
ARC
  5
1AD
330
6F
100
AcDbEntity
  8
_0-1_計細線
  6
Continuous
 62
     3
100
AcDbCircle
 10
251.3585420825884
 20
419.1676172892059
 30
0.0
 40
2.0
100
AcDbArc
 50
269.9999999999997
 51
359.9999999999997
  0
LINE
  5
1AE
330
6F
100
AcDbEntity
  8
_0-1_計細線
  6
Continuous
 62
     3
100
AcDbLine
 10
253.3585412872728
 20
420.6676170462724
 30
0.0
 11
253.3585412872728
 21
419.1676172892059
 31
0.0
  0
LINE
  5
1AF
330
6F
100
AcDbEntity
  8
_0-1_計細線
  6
Continuous
 62
     3
100
AcDbLine
 10
249.858541618415
 20
417.1676173774147
 30
0.0
 11
251.3585413754816
 21
417.1676173774147
 31
0.0
  0
ARC
  5
1B0
330
6F
100
AcDbEntity
  8
_0-1_計細線
  6
Continuous
 62
     3
100
AcDbCircle
 10
287.3585419090422
 20
420.6676170462724
 30
0.0
 40
5.0
100
AcDbArc
 50
0.0
 51
29.99999999999989
  0
LINE
  5
1B1
330
6F
100
AcDbEntity
  8
_0-1_計細線
  6
Continuous
 62
     3
100
AcDbLine
 10
292.3585420420733
 20
420.6676170462724
 30
0.0
 11
292.3585413349666
 21
408.1676174208011
 31
0.0
  0
ARC
  5
1B2
330
6F
100
AcDbEntity
  8
_0-1_計細線
  6
Continuous
 62
     3
100
AcDbCircle
 10
258.3585414203039
 20
420.6676170462724
 30
0.0
 40
5.0
100
AcDbArc
 50
149.9999999999988
 51
179.9999999999998
  0
ARC
  5
1B3
330
6F
100
AcDbEntity
  8
_0-1_計細線
  6
Continuous
 62
     3
100
AcDbCircle
 10
290.8226431808328
 20
422.6676169580636
 30
0.0
 40
1.0
100
AcDbArc
 50
30.00000000000055
 51
89.99999999999994
  0
LINE
  5
1B4
330
6F
100
AcDbEntity
  8
_0-1_計細線
  6
Continuous
 62
     3
100
AcDbLine
 10
254.8944401485134
 20
423.6676172675125
 30
0.0
 11
290.8226431808328
 21
423.6676172675124
 31
0.0
  0
ARC
  5
1B5
330
6F
100
AcDbEntity
  8
_0-1_計細線
  6
Continuous
 62
     3
100
AcDbCircle
 10
254.8944401485134
 20
422.6676169580636
 30
0.0
 40
1.0
100
AcDbArc
 50
89.99999999999991
 51
149.9999999999905
  0
ARC
  5
1B6
330
6F
100
AcDbEntity
  8
_0-1_計細線
  6
Continuous
 62
     3
100
AcDbCircle
 10
249.8585416184148
 20
383.1676167556452
 30
0.0
 40
5.0
100
AcDbArc
 50
239.9999999999997
 51
269.9999999999997
  0
LINE
  5
1B7
330
6F
100
AcDbEntity
  8
_0-1_計細線
  6
Continuous
 62
     3
100
AcDbLine
 10
249.8585416184148
 20
378.1676166226143
 30
0.0
 11
262.3585412438861
 21
378.1676173297208
 31
0.0
  0
ARC
  5
1B8
330
6F
100
AcDbEntity
  8
_0-1_計細線
  6
Continuous
 62
     3
100
AcDbCircle
 10
249.858541618415
 20
412.1676172443836
 30
0.0
 40
5.0
100
AcDbArc
 50
89.99999999999991
 51
119.9999999999998
  0
ARC
  5
1B9
330
6F
100
AcDbEntity
  8
_0-1_計細線
  6
Continuous
 62
     3
100
AcDbCircle
 10
247.8585417066238
 20
379.7035154838549
 30
0.0
 40
1.0
100
AcDbArc
 50
179.9999999999998
 51
239.9999999999991
  0
LINE
  5
1BA
330
6F
100
AcDbEntity
  8
_0-1_計細線
  6
Continuous
 62
     3
100
AcDbLine
 10
246.858541397175
 20
415.6317185161741
 30
0.0
 11
246.8585413971748
 21
379.7035154838549
 31
0.0
  0
ARC
  5
1BB
330
6F
100
AcDbEntity
  8
_0-1_計細線
  6
Continuous
 62
     3
100
AcDbCircle
 10
247.858541706624
 20
415.6317185161741
 30
0.0
 40
0.9999999999999927
100
AcDbArc
 50
120.0000000000005
 51
179.9999999999998
  0
ARC
  5
1BC
330
6F
100
AcDbEntity
  8
_0-1_計細線
  6
Continuous
 62
     3
100
AcDbCircle
 10
283.3036211017652
 20
392.1722857383349
 30
0.0
 40
0.5
100
AcDbArc
 50
314.9999999999904
 51
45.00000000001805
  0
LINE
  5
1BD
330
6F
100
AcDbEntity
  8
_0-1_計細線
  6
Continuous
 62
     3
100
AcDbLine
 10
281.1115900800869
 20
395.0714235411997
 30
0.0
 11
283.6571744923583
 21
392.5258391289282
 31
0.0
  0
LINE
  5
1BE
330
6F
100
AcDbEntity
  8
_0-1_計細線
  6
Continuous
 62
     3
100
AcDbLine
 10
283.6571744923583
 20
391.8187323477416
 30
0.0
 11
278.7074270240526
 21
386.8689848794356
 31
0.0
  0
ARC
  5
1BF
330
6F
100
AcDbEntity
  8
_0-1_計細線
  6
Continuous
 62
     3
100
AcDbCircle
 10
278.3538736334592
 20
387.2225382700291
 30
0.0
 40
0.5
100
AcDbArc
 50
224.9999999999996
 51
314.9999999999997
  0
LINE
  5
1C0
330
6F
100
AcDbEntity
  8
_0-1_計細線
  6
Continuous
 62
     3
100
AcDbLine
 10
275.4547358305945
 20
389.4145692917074
 30
0.0
 11
278.0003202428659
 21
386.8689848794356
 31
0.0
  0
ARC
  5
1C1
330
6F
100
AcDbEntity
  8
_0-1_計細線
  6
Continuous
 62
     3
100
AcDbCircle
 10
275.8082892211875
 20
389.7681226823006
 30
0.0
 40
0.5
100
AcDbArc
 50
134.9999999999816
 51
225.0000000000089
  0
LINE
  5
1C2
330
6F
100
AcDbEntity
  8
_0-1_計細線
  6
Continuous
 62
     3
100
AcDbLine
 10
280.4044832989002
 20
395.0714235411997
 30
0.0
 11
275.4547358305945
 21
390.121676072894
 31
0.0
  0
ARC
  5
1C3
330
6F
100
AcDbEntity
  8
_0-1_計細線
  6
Continuous
 62
     3
100
AcDbCircle
 10
280.7580366894935
 20
394.7178701506065
 30
0.0
 40
0.5
100
AcDbArc
 50
44.99999999999078
 51
135.0000000000092
  0
CIRCLE
  5
1C4
330
6F
100
AcDbEntity
  8
_0-1_計細線
  6
Continuous
 62
     3
100
AcDbCircle
 10
268.1202120528741
 20
387.9809689827144
 30
0.0
 40
2.200000000000002
  0
CIRCLE
  5
1C5
330
6F
100
AcDbEntity
  8
_0-1_計細線
  6
Continuous
 62
     3
100
AcDbCircle
 10
282.5451903890798
 20
402.40594731892
 30
0.0
 40
2.200000000000002
  0
LINE
  5
1C6
330
6F
100
AcDbEntity
  8
_0-1_計細線
  6
Continuous
 62
     3
100
AcDbLine
 10
260.7896395878471
 20
412.1400280591021
 30
0.0
 11
259.5448332538972
 21
410.9813261178969
 31
0.0
  0
LINE
  5
1C7
330
6F
100
AcDbEntity
  8
_0-1_計細線
  6
Continuous
 62
     3
100
AcDbLine
 10
262.111075790781
 20
413.2038072788936
 30
0.0
 11
260.7896395878471
 21
412.1400280591021
 31
0.0
  0
LINE
  5
1C8
330
6F
100
AcDbEntity
  8
_0-1_計細線
  6
Continuous
 62
     3
100
AcDbLine
 10
263.4990860971639
 20
414.1645681117342
 30
0.0
 11
262.111075790781
 21
413.2038072788936
 31
0.0
  0
LINE
  5
1C9
330
6F
100
AcDbEntity
  8
_0-1_計細線
  6
Continuous
 62
     3
100
AcDbLine
 10
264.9431056245776
 20
415.0149983663995
 30
0.0
 11
263.4990860971639
 21
414.1645681117342
 31
0.0
  0
LINE
  5
1CA
330
6F
100
AcDbEntity
  8
_0-1_計細線
  6
Continuous
 62
     3
100
AcDbLine
 10
266.4321466407493
 20
415.7486258945212
 30
0.0
 11
264.9431056245776
 21
415.0149983663995
 31
0.0
  0
LINE
  5
1CB
330
6F
100
AcDbEntity
  8
_0-1_計細線
  6
Continuous
 62
     3
100
AcDbLine
 10
267.954874223977
 20
416.3598673809552
 30
0.0
 11
266.4321466407493
 21
415.7486258945212
 31
0.0
  0
LINE
  5
1CC
330
6F
100
AcDbEntity
  8
_0-1_計細線
  6
Continuous
 62
     3
100
AcDbLine
 10
269.4997003083301
 20
416.8440700630811
 30
0.0
 11
267.954874223977
 21
416.3598673809552
 31
0.0
  0
LINE
  5
1CD
330
6F
100
AcDbEntity
  8
_0-1_計細線
  6
Continuous
 62
     3
100
AcDbLine
 10
271.0548678293581
 20
417.197550621676
 30
0.0
 11
269.4997003083301
 21
416.8440700630811
 31
0.0
  0
LINE
  5
1CE
330
6F
100
AcDbEntity
  8
_0-1_計細線
  6
Continuous
 62
     3
100
AcDbLine
 10
272.6085419408643
 20
417.4176171012235
 30
0.0
 11
271.0548678293581
 21
417.197550621676
 31
0.0
  0
LINE
  5
1CF
330
6F
100
AcDbEntity
  8
_0-1_計細線
  6
Continuous
 62
     3
100
AcDbLine
 10
274.1488969890399
 20
417.5025950728663
 30
0.0
 11
272.6085419408643
 21
417.4176171012235
 31
0.0
  0
LINE
  5
1D0
330
6F
100
AcDbEntity
  8
_0-1_計細線
  6
Continuous
 62
     3
100
AcDbLine
 10
275.6642098505602
 20
417.4518389481127
 30
0.0
 11
274.1488969890399
 21
417.5025950728663
 31
0.0
  0
LINE
  5
1D1
330
6F
100
AcDbEntity
  8
_0-1_計細線
  6
Continuous
 62
     3
100
AcDbLine
 10
277.1429497351435
 20
417.2657341001586
 30
0.0
 11
275.6642098505602
 21
417.4518389481127
 31
0.0
  0
LINE
  5
1D2
330
6F
100
AcDbEntity
  8
_0-1_計細線
  6
Continuous
 62
     3
100
AcDbLine
 10
278.5738609170476
 20
416.9456961567799
 30
0.0
 11
277.1429497351435
 21
417.2657341001586
 31
0.0
  0
LINE
  5
1D3
330
6F
100
AcDbEntity
  8
_0-1_計細線
  6
Continuous
 62
     3
100
AcDbLine
 10
279.9460546589487
 20
416.4941625150516
 30
0.0
 11
278.5738609170476
 21
416.9456961567799
 31
0.0
  0
LINE
  5
1D4
330
6F
100
AcDbEntity
  8
_0-1_計細線
  6
Continuous
 62
     3
100
AcDbLine
 10
281.2490862865818
 20
415.9145675926096
 30
0.0
 11
279.9460546589487
 21
416.4941625150516
 31
0.0
  0
LINE
  5
1D5
330
6F
100
AcDbEntity
  8
_0-1_計細線
  6
Continuous
 62
     3
100
AcDbLine
 10
282.4730393344477
 20
415.2113251499823
 30
0.0
 11
281.2490862865818
 21
415.9145675926096
 31
0.0
  0
LINE
  5
1D6
330
6F
100
AcDbEntity
  8
_0-1_計細線
  6
Continuous
 62
     3
100
AcDbLine
 10
283.6085990849181
 20
414.3897844499691
 30
0.0
 11
282.4730393344477
 21
415.2113251499823
 31
0.0
  0
LINE
  5
1D7
330
6F
100
AcDbEntity
  8
_0-1_計細線
  6
Continuous
 62
     3
100
AcDbLine
 10
284.6471239860195
 20
413.45619985205
 30
0.0
 11
283.6085990849181
 21
414.3897844499691
 31
0.0
  0
LINE
  5
1D8
330
6F
100
AcDbEntity
  8
_0-1_計細線
  6
Continuous
 62
     3
100
AcDbLine
 10
285.5807085839389
 20
412.4176749509484
 30
0.0
 11
284.6471239860195
 21
413.45619985205
 31
0.0
  0
LINE
  5
1D9
330
6F
100
AcDbEntity
  8
_0-1_計細線
  6
Continuous
 62
     3
100
AcDbLine
 10
286.402249283952
 20
411.2821152004782
 30
0.0
 11
285.5807085839389
 21
412.4176749509484
 31
0.0
  0
LINE
  5
1DA
330
6F
100
AcDbEntity
  8
_0-1_計細線
  6
Continuous
 62
     3
100
AcDbLine
 10
287.105492433686
 20
410.0581614455053
 30
0.0
 11
286.402249283952
 21
411.2821152004782
 31
0.0
  0
LINE
  5
1DB
330
6F
100
AcDbEntity
  8
_0-1_計細線
  6
Continuous
 62
     3
100
AcDbLine
 10
287.6850873561281
 20
408.7551298178722
 30
0.0
 11
287.105492433686
 21
410.0581614455053
 31
0.0
  0
LINE
  5
1DC
330
6F
100
AcDbEntity
  8
_0-1_計細線
  6
Continuous
 62
     3
100
AcDbLine
 10
288.1366202907496
 20
407.3829367830777
 30
0.0
 11
287.6850873561281
 21
408.7551298178722
 31
0.0
  0
LINE
  5
1DD
330
6F
100
AcDbEntity
  8
_0-1_計細線
  6
Continuous
 62
     3
100
AcDbLine
 10
288.4566582341282
 20
405.9520256011738
 30
0.0
 11
288.1366202907496
 21
407.3829367830777
 31
0.0
  0
LINE
  5
1DE
330
6F
100
AcDbEntity
  8
_0-1_計細線
  6
Continuous
 62
     3
100
AcDbLine
 10
288.6427630820821
 20
404.4732857165903
 30
0.0
 11
288.4566582341282
 21
405.9520256011738
 31
0.0
  0
LINE
  5
1DF
330
6F
100
AcDbEntity
  8
_0-1_計細線
  6
Continuous
 62
     3
100
AcDbLine
 10
288.6935199139426
 20
402.9579721479634
 30
0.0
 11
288.6427630820821
 21
404.4732857165903
 31
0.0
  0
LINE
  5
1E0
330
6F
100
AcDbEntity
  8
_0-1_計細線
  6
Continuous
 62
     3
100
AcDbLine
 10
288.6085419422999
 20
401.4176170997878
 30
0.0
 11
288.6935199139426
 21
402.9579721479634
 31
0.0
  0
LINE
  5
1E1
330
6F
100
AcDbEntity
  8
_0-1_計細線
  6
Continuous
 62
     3
100
AcDbLine
 10
288.3884747556456
 20
399.8639436953883
 30
0.0
 11
288.6085419422999
 21
401.4176170997878
 31
0.0
  0
LINE
  5
1E2
330
6F
100
AcDbEntity
  8
_0-1_計細線
  6
Continuous
 62
     3
100
AcDbLine
 10
288.0349949041574
 20
398.3087754672535
 30
0.0
 11
288.3884747556456
 21
399.8639436953883
 31
0.0
  0
LINE
  5
1E3
330
6F
100
AcDbEntity
  8
_0-1_計細線
  6
Continuous
 62
     3
100
AcDbLine
 10
287.5507922220315
 20
396.7639493829004
 30
0.0
 11
288.0349949041574
 21
398.3087754672535
 31
0.0
  0
LINE
  5
1E4
330
6F
100
AcDbEntity
  8
_0-1_計細線
  6
Continuous
 62
     3
100
AcDbLine
 10
286.9395507355975
 20
395.2412217996729
 30
0.0
 11
287.5507922220315
 21
396.7639493829004
 31
0.0
  0
LINE
  5
1E5
330
6F
100
AcDbEntity
  8
_0-1_計細線
  6
Continuous
 62
     3
100
AcDbLine
 10
286.205922500369
 20
393.7521814906078
 30
0.0
 11
286.9395507355975
 21
395.2412217996729
 31
0.0
  0
LINE
  5
1E6
330
6F
100
AcDbEntity
  8
_0-1_計細線
  6
Continuous
 62
     3
100
AcDbLine
 10
285.3554922457037
 20
392.3081619631941
 30
0.0
 11
286.205922500369
 21
393.7521814906078
 31
0.0
  0
LINE
  5
1E7
330
6F
100
AcDbEntity
  8
_0-1_計細線
  6
Continuous
 62
     3
100
AcDbLine
 10
284.3947314128632
 20
390.9201516568116
 30
0.0
 11
285.3554922457037
 21
392.3081619631941
 31
0.0
  0
LINE
  5
1E8
330
6F
100
AcDbEntity
  8
_0-1_計細線
  6
Continuous
 62
     3
100
AcDbLine
 10
283.3309521930717
 20
389.5987154538776
 30
0.0
 11
284.3947314128632
 21
390.9201516568116
 31
0.0
  0
LINE
  5
1E9
330
6F
100
AcDbEntity
  8
_0-1_計細線
  6
Continuous
 62
     3
100
AcDbLine
 10
282.1722502518667
 20
388.3539091199275
 30
0.0
 11
283.3309521930717
 21
389.5987154538776
 31
0.0
  0
LINE
  5
1EA
330
6F
100
AcDbEntity
  8
_0-1_計細線
  6
Continuous
 62
     3
100
AcDbLine
 10
280.9274439179167
 20
387.1952071787226
 30
0.0
 11
282.1722502518667
 21
388.3539091199275
 31
0.0
  0
LINE
  5
1EB
330
6F
100
AcDbEntity
  8
_0-1_計細線
  6
Continuous
 62
     3
100
AcDbLine
 10
279.6060070078759
 20
386.1314272518242
 30
0.0
 11
280.9274439179167
 21
387.1952071787226
 31
0.0
  0
LINE
  5
1EC
330
6F
100
AcDbEntity
  8
_0-1_計細線
  6
Continuous
 62
     3
100
AcDbLine
 10
278.2179967014933
 20
385.1706664189836
 30
0.0
 11
279.6060070078759
 21
386.1314272518242
 31
0.0
  0
LINE
  5
1ED
330
6F
100
AcDbEntity
  8
_0-1_計細線
  6
Continuous
 62
     3
100
AcDbLine
 10
276.7739771740796
 20
384.3202361643185
 30
0.0
 11
278.2179967014933
 21
385.1706664189836
 31
0.0
  0
LINE
  5
1EE
330
6F
100
AcDbEntity
  8
_0-1_計細線
  6
Continuous
 62
     3
100
AcDbLine
 10
275.2849368650144
 20
383.5866079290898
 30
0.0
 11
276.7739771740796
 21
384.3202361643185
 31
0.0
  0
LINE
  5
1EF
330
6F
100
AcDbEntity
  8
_0-1_計細線
  6
Continuous
 62
     3
100
AcDbLine
 10
273.7622099888938
 20
382.9753671497628
 30
0.0
 11
275.2849368650144
 21
383.5866079290898
 31
0.0
  0
LINE
  5
1F0
330
6F
100
AcDbEntity
  8
_0-1_計細線
  6
Continuous
 62
     3
100
AcDbLine
 10
272.2173831974337
 20
382.49116376053
 30
0.0
 11
273.7622099888938
 21
382.9753671497628
 31
0.0
  0
LINE
  5
1F1
330
6F
100
AcDbEntity
  8
_0-1_計細線
  6
Continuous
 62
     3
100
AcDbLine
 10
270.6622149692989
 20
382.137683909042
 30
0.0
 11
272.2173831974337
 21
382.49116376053
 31
0.0
  0
LINE
  5
1F2
330
6F
100
AcDbEntity
  8
_0-1_計細線
  6
Continuous
 62
     3
100
AcDbLine
 10
269.1085415648994
 20
381.9176167223876
 30
0.0
 11
270.6622149692989
 21
382.137683909042
 31
0.0
  0
LINE
  5
1F3
330
6F
100
AcDbEntity
  8
_0-1_計細線
  6
Continuous
 62
     3
100
AcDbLine
 10
267.5681865167239
 20
381.8326387507449
 30
0.0
 11
269.1085415648994
 21
381.9176167223876
 31
0.0
  0
LINE
  5
1F4
330
6F
100
AcDbEntity
  8
_0-1_計細線
  6
Continuous
 62
     3
100
AcDbLine
 10
266.052872948097
 20
381.8833955826053
 30
0.0
 11
267.5681865167239
 21
381.8326387507449
 31
0.0
  0
LINE
  5
1F5
330
6F
100
AcDbEntity
  8
_0-1_計細線
  6
Continuous
 62
     3
100
AcDbLine
 10
264.5741330635134
 20
382.0695004305594
 30
0.0
 11
266.052872948097
 21
381.8833955826053
 31
0.0
  0
LINE
  5
1F6
330
6F
100
AcDbEntity
  8
_0-1_計細線
  6
Continuous
 62
     3
100
AcDbLine
 10
263.1432218816097
 20
382.3895383739379
 30
0.0
 11
264.5741330635134
 21
382.0695004305594
 31
0.0
  0
LINE
  5
1F7
330
6F
100
AcDbEntity
  8
_0-1_計細線
  6
Continuous
 62
     3
100
AcDbLine
 10
261.7710288468152
 20
382.8410713085593
 30
0.0
 11
263.1432218816097
 21
382.3895383739379
 31
0.0
  0
LINE
  5
1F8
330
6F
100
AcDbEntity
  8
_0-1_計細線
  6
Continuous
 62
     3
100
AcDbLine
 10
260.467997219182
 20
383.4206662310015
 30
0.0
 11
261.7710288468152
 21
382.8410713085593
 31
0.0
  0
LINE
  5
1F9
330
6F
100
AcDbEntity
  8
_0-1_計細線
  6
Continuous
 62
     3
100
AcDbLine
 10
259.2440434642092
 20
384.1239093807357
 30
0.0
 11
260.467997219182
 21
383.4206662310015
 31
0.0
  0
LINE
  5
1FA
330
6F
100
AcDbEntity
  8
_0-1_計細線
  6
Continuous
 62
     3
100
AcDbLine
 10
258.1084837137388
 20
384.9454500807487
 30
0.0
 11
259.2440434642092
 21
384.1239093807357
 31
0.0
  0
LINE
  5
1FB
330
6F
100
AcDbEntity
  8
_0-1_計細線
  6
Continuous
 62
     3
100
AcDbLine
 10
257.0699595197441
 20
385.8790353857748
 30
0.0
 11
258.1084837137388
 21
384.9454500807487
 31
0.0
  0
LINE
  5
1FC
330
6F
100
AcDbEntity
  8
_0-1_計細線
  6
Continuous
 62
     3
100
AcDbLine
 10
256.1363742147181
 20
386.9175595797696
 30
0.0
 11
257.0699595197441
 21
385.8790353857748
 31
0.0
  0
LINE
  5
1FD
330
6F
100
AcDbEntity
  8
_0-1_計細線
  6
Continuous
 62
     3
100
AcDbLine
 10
255.3148335147049
 20
388.0531193302397
 30
0.0
 11
256.1363742147181
 21
386.9175595797696
 31
0.0
  0
LINE
  5
1FE
330
6F
100
AcDbEntity
  8
_0-1_計細線
  6
Continuous
 62
     3
100
AcDbLine
 10
254.6115910720777
 20
389.2770723781057
 30
0.0
 11
255.3148335147049
 21
388.0531193302397
 31
0.0
  0
LINE
  5
1FF
330
6F
100
AcDbEntity
  8
_0-1_計細線
  6
Continuous
 62
     3
100
AcDbLine
 10
254.0319961496359
 20
390.5801040057389
 30
0.0
 11
254.6115910720777
 21
389.2770723781057
 31
0.0
  0
LINE
  5
200
330
6F
100
AcDbEntity
  8
_0-1_計細線
  6
Continuous
 62
     3
100
AcDbLine
 10
253.5804625079074
 20
391.9522977476401
 30
0.0
 11
254.0319961496359
 21
390.5801040057389
 31
0.0
  0
LINE
  5
201
330
6F
100
AcDbEntity
  8
_0-1_計細線
  6
Continuous
 62
     3
100
AcDbLine
 10
253.2604245645288
 20
393.3832089295442
 30
0.0
 11
253.5804625079074
 21
391.9522977476401
 31
0.0
  0
LINE
  5
202
330
6F
100
AcDbEntity
  8
_0-1_計細線
  6
Continuous
 62
     3
100
AcDbLine
 10
253.0743197165748
 20
394.8619488141276
 30
0.0
 11
253.2604245645288
 21
393.3832089295442
 31
0.0
  0
LINE
  5
203
330
6F
100
AcDbEntity
  8
_0-1_計細線
  6
Continuous
 62
     3
100
AcDbLine
 10
253.0235635918213
 20
396.3772616756477
 30
0.0
 11
253.0743197165748
 21
394.8619488141276
 31
0.0
  0
LINE
  5
204
330
6F
100
AcDbEntity
  8
_0-1_計細線
  6
Continuous
 62
     3
100
AcDbLine
 10
253.1085415634638
 20
397.9176167238234
 30
0.0
 11
253.0235635918213
 21
396.3772616756477
 31
0.0
  0
LINE
  5
205
330
6F
100
AcDbEntity
  8
_0-1_計細線
  6
Continuous
 62
     3
100
AcDbLine
 10
253.3286080430114
 20
399.4712908353296
 30
0.0
 11
253.1085415634638
 21
397.9176167238234
 31
0.0
  0
LINE
  5
206
330
6F
100
AcDbEntity
  8
_0-1_計細線
  6
Continuous
 62
     3
100
AcDbLine
 10
253.6820886016064
 20
401.0264583563575
 30
0.0
 11
253.3286080430114
 21
399.4712908353296
 31
0.0
  0
LINE
  5
207
330
6F
100
AcDbEntity
  8
_0-1_計細線
  6
Continuous
 62
     3
100
AcDbLine
 10
254.1662919908392
 20
402.5712851478176
 30
0.0
 11
253.6820886016064
 21
401.0264583563575
 31
0.0
  0
LINE
  5
208
330
6F
100
AcDbEntity
  8
_0-1_計細線
  6
Continuous
 62
     3
100
AcDbLine
 10
254.7775327701662
 20
404.0940120239382
 30
0.0
 11
254.1662919908392
 21
402.5712851478176
 31
0.0
  0
LINE
  5
209
330
6F
100
AcDbEntity
  8
_0-1_計細線
  6
Continuous
 62
     3
100
AcDbLine
 10
255.5111602982881
 20
405.58305304011
 30
0.0
 11
254.7775327701662
 21
404.0940120239382
 31
0.0
  0
LINE
  5
20A
330
6F
100
AcDbEntity
  8
_0-1_計細線
  6
Continuous
 62
     3
100
AcDbLine
 10
256.3615905529534
 20
407.0270725675237
 30
0.0
 11
255.5111602982881
 21
405.58305304011
 31
0.0
  0
LINE
  5
20B
330
6F
100
AcDbEntity
  8
_0-1_計細線
  6
Continuous
 62
     3
100
AcDbLine
 10
257.3223513857938
 20
408.4150828739064
 30
0.0
 11
256.3615905529534
 21
407.0270725675237
 31
0.0
  0
LINE
  5
20C
330
6F
100
AcDbEntity
  8
_0-1_計細線
  6
Continuous
 62
     3
100
AcDbLine
 10
258.3861313126921
 20
409.736519783947
 30
0.0
 11
257.3223513857938
 21
408.4150828739064
 31
0.0
  0
LINE
  5
20D
330
6F
100
AcDbEntity
  8
_0-1_計細線
  6
Continuous
 62
     3
100
AcDbLine
 10
259.5448332538972
 20
410.9813261178969
 30
0.0
 11
258.3861313126921
 21
409.736519783947
 31
0.0
  0
ARC
  5
20E
330
6F
100
AcDbEntity
  8
_0-1_計細線
  6
Continuous
 62
     3
100
AcDbCircle
 10
262.3585423717797
 20
408.1676170000145
 30
0.0
 40
30.0
100
AcDbArc
 50
269.9999999999997
 51
359.9999999999992
  0
LINE
  5
20F
330
6F
100
AcDbEntity
  8
_0-0_計極細
  6
Continuous
 62
     2
100
AcDbLine
 10
262.3585412438861
 20
378.1676173297208
 30
0.0
 11
262.3585419509929
 21
382.6477447790492
 31
0.0
  0
LINE
  5
210
330
6F
100
AcDbEntity
  8
_0-0_計極細
  6
Continuous
 62
     2
100
AcDbLine
 10
292.3585413349666
 20
408.1676174208011
 30
0.0
 11
287.8784138856384
 21
408.1676167136944
 31
0.0
  0
LINE
  5
211
330
6F
100
AcDbEntity
  8
_0-0_計極細
  6
Continuous
 62
     2
100
AcDbLine
 10
291.3140166328267
 20
420.6676170462724
 30
0.0
 11
254.3280256964728
 21
420.6676170462724
 31
0.0
  0
LINE
  5
212
330
6F
100
AcDbEntity
  8
_0-0_計極細
  6
Continuous
 62
     2
100
AcDbLine
 10
249.8585416184148
 20
379.2121420318609
 30
0.0
 11
249.858541618415
 21
416.1981329682147
 31
0.0
  0
LINE
  5
213
330
6F
100
AcDbEntity
  8
_0-0_計極細
  6
CENTER1
 62
     2
100
AcDbLine
 10
282.8310927525965
 20
387.6950666191977
 30
0.0
 11
250.2456910663962
 21
420.2804683053984
 31
0.0
  0
LINE
  5
214
330
6F
100
AcDbEntity
  8
_0-0_計極細
  6
CENTER1
 62
     2
100
AcDbLine
 10
289.2643092356384
 20
397.6676170000144
 30
0.0
 11
242.4831498971691
 21
397.6676170000146
 31
0.0
  0
LINE
  5
215
330
6F
100
AcDbEntity
  8
_0-0_計極細
  6
DASHED2
 62
     2
100
AcDbLine
 10
255.3585423717795
 20
380.167617000016
 30
0.0
 11
255.3585423717798
 21
415.1676170000274
 31
0.0
  0
LINE
  5
216
330
6F
100
AcDbEntity
  8
_0-0_計極細
  6
DASHED2
 62
     2
100
AcDbLine
 10
246.8585423717797
 20
380.167617000016
 30
0.0
 11
255.3585423717795
 21
380.167617000016
 31
0.0
  0
LINE
  5
217
330
6F
100
AcDbEntity
  8
_0-0_計極細
  6
DASHED2
 62
     2
100
AcDbLine
 10
255.3585423717798
 20
415.1676170000274
 30
0.0
 11
246.8585423717797
 21
415.1676170000274
 31
0.0
  0
ARC
  5
218
330
6F
100
AcDbEntity
  8
_0-0_計極細
  6
Continuous
 62
     2
100
AcDbCircle
 10
220.1344167863228
 20
408.2458175705141
 30
0.0
 40
20.20258265181037
100
AcDbArc
 50
148.4255292550338
 51
211.5744707449657
  0
ARC
  5
219
330
6F
100
AcDbEntity
  8
_0-0_計極細
  6
Continuous
 62
     2
100
AcDbCircle
 10
185.7108191536811
 20
387.0894164295143
 30
0.0
 40
20.20258265181037
100
AcDbArc
 50
328.4255292550332
 51
31.57447074496609
  0
LINE
  5
21A
330
6F
100
AcDbEntity
  8
_0-1_計細線
  6
Continuous
 62
     3
100
AcDbLine
 10
204.6906252238393
 20
380.1676170000005
 30
0.0
 11
246.8585417594686
 21
380.1676170000148
 31
0.0
  0
LINE
  5
21B
330
6F
100
AcDbEntity
  8
_0-1_計細線
  6
Continuous
 62
     3
100
AcDbLine
 10
246.8585417594688
 20
415.1676170000091
 30
0.0
 11
201.1546107161577
 21
415.1676170000091
 31
0.0
  0
LINE
  5
21C
330
6F
100
AcDbEntity
  8
_0-5_寸法線
  6
Continuous
 62
     7
100
AcDbLine
 10
470.5702579999933
 20
999.667617000014
 30
0.0
 11
470.570257999993
 21
1051.667617000014
 31
0.0
  0
LINE
  5
21D
330
6F
100
AcDbEntity
  8
_0-5_寸法線
  6
Continuous
 62
     7
100
AcDbLine
 10
470.570257999993
 20
1045.667617000014
 30
0.0
 11
458.9791480845242
 21
1042.561788458784
 31
0.0
  0
LINE
  5
21E
330
6F
100
AcDbEntity
  8
_0-5_寸法線
  6
Continuous
 62
     7
100
AcDbLine
 10
470.570257999993
 20
1045.667617000014
 30
0.0
 11
458.9791480845242
 21
1048.773445541245
 31
0.0
  0
LINE
  5
21F
330
6F
100
AcDbEntity
  8
_0-5_寸法線
  6
Continuous
 62
     7
100
AcDbLine
 10
415.5554560412496
 20
1026.535888369692
 30
0.0
 11
415.5554560412496
 21
1051.667617000014
 31
0.0
  0
LINE
  5
220
330
6F
100
AcDbEntity
  8
_0-5_寸法線
  6
Continuous
 62
     7
100
AcDbLine
 10
415.5554560412496
 20
1045.667617000014
 30
0.0
 11
427.1465659567184
 21
1048.773445541245
 31
0.0
  0
LINE
  5
221
330
6F
100
AcDbEntity
  8
_0-5_寸法線
  6
Continuous
 62
     7
100
AcDbLine
 10
415.5554560412496
 20
1045.667617000014
 30
0.0
 11
427.1465659567184
 21
1042.561788458784
 31
0.0
  0
LINE
  5
222
330
6F
100
AcDbEntity
  8
_0-5_寸法線
  6
Continuous
 62
     7
100
AcDbLine
 10
470.570257999993
 20
1045.667617000014
 30
0.0
 11
415.5554560412496
 21
1045.667617000014
 31
0.0
  0
TEXT
  5
223
330
6F
100
AcDbEntity
  8
_0-5_寸法線
 62
     7
100
AcDbText
 10
432.5628570206212
 20
1045.667617000014
 30
0.0
 40
21.0
  1
55
100
AcDbText
  0
LINE
  5
224
330
6F
100
AcDbEntity
  8
_0-5_寸法線
  6
Continuous
 62
     7
100
AcDbLine
 10
490.0460048614426
 20
999.667617000014
 30
0.0
 11
490.0460048614426
 21
1079.667617000015
 31
0.0
  0
LINE
  5
225
330
6F
100
AcDbEntity
  8
_0-5_寸法線
  6
Continuous
 62
     7
100
AcDbLine
 10
490.0460048614426
 20
1073.667617000015
 30
0.0
 11
478.454894945974
 21
1070.561788458784
 31
0.0
  0
LINE
  5
226
330
6F
100
AcDbEntity
  8
_0-5_寸法線
  6
Continuous
 62
     7
100
AcDbLine
 10
490.0460048614426
 20
1073.667617000015
 30
0.0
 11
478.4548949459737
 21
1076.773445541245
 31
0.0
  0
LINE
  5
227
330
6F
100
AcDbEntity
  8
_0-5_寸法線
  6
Continuous
 62
     7
100
AcDbLine
 10
415.5460048614427
 20
1026.535888369692
 30
0.0
 11
415.5460048614427
 21
1079.667617000014
 31
0.0
  0
LINE
  5
228
330
6F
100
AcDbEntity
  8
_0-5_寸法線
  6
Continuous
 62
     7
100
AcDbLine
 10
415.5460048614427
 20
1073.667617000014
 30
0.0
 11
427.1371147769114
 21
1076.773445541245
 31
0.0
  0
LINE
  5
229
330
6F
100
AcDbEntity
  8
_0-5_寸法線
  6
Continuous
 62
     7
100
AcDbLine
 10
415.5460048614427
 20
1073.667617000014
 30
0.0
 11
427.1371147769116
 21
1070.561788458784
 31
0.0
  0
LINE
  5
22A
330
6F
100
AcDbEntity
  8
_0-5_寸法線
  6
Continuous
 62
     7
100
AcDbLine
 10
490.0460048614426
 20
1073.667617000015
 30
0.0
 11
415.5460048614427
 21
1073.667617000014
 31
0.0
  0
TEXT
  5
22B
330
6F
100
AcDbEntity
  8
_0-5_寸法線
 62
     7
100
AcDbText
 10
442.2960048614426
 20
1073.667617000015
 30
0.0
 40
21.0
  1
75
100
AcDbText
  0
LINE
  5
22C
330
6F
100
AcDbEntity
  8
_0-5_寸法線
  6
Continuous
 62
     7
100
AcDbLine
 10
458.5702579999929
 20
378.1676170000145
 30
0.0
 11
349.5702579999933
 21
378.1676170000149
 31
0.0
  0
LINE
  5
22D
330
6F
100
AcDbEntity
  8
_0-5_寸法線
  6
Continuous
 62
     7
100
AcDbLine
 10
355.5702579999933
 20
378.1676170000149
 30
0.0
 11
352.464429458763
 21
389.7587269154837
 31
0.0
  0
LINE
  5
22E
330
6F
100
AcDbEntity
  8
_0-5_寸法線
  6
Continuous
 62
     7
100
AcDbLine
 10
355.5702579999933
 20
378.1676170000149
 30
0.0
 11
358.6760865412235
 21
389.7587269154836
 31
0.0
  0
LINE
  5
22F
330
6F
100
AcDbEntity
  8
_0-5_寸法線
  6
Continuous
 62
     7
100
AcDbLine
 10
441.0702579999933
 20
423.6676170000144
 30
0.0
 11
349.5702579999933
 21
423.6676170000148
 31
0.0
  0
LINE
  5
230
330
6F
100
AcDbEntity
  8
_0-5_寸法線
  6
Continuous
 62
     7
100
AcDbLine
 10
355.5702579999933
 20
423.6676170000148
 30
0.0
 11
358.6760865412235
 21
412.0765070845459
 31
0.0
  0
LINE
  5
231
330
6F
100
AcDbEntity
  8
_0-5_寸法線
  6
Continuous
 62
     7
100
AcDbLine
 10
355.5702579999933
 20
423.6676170000148
 30
0.0
 11
352.464429458763
 21
412.0765070845459
 31
0.0
  0
LINE
  5
232
330
6F
100
AcDbEntity
  8
_0-5_寸法線
  6
Continuous
 62
     7
100
AcDbLine
 10
355.5702579999933
 20
378.1676170000149
 30
0.0
 11
355.5702579999933
 21
423.6676170000148
 31
0.0
  0
TEXT
  5
233
330
6F
100
AcDbEntity
  8
_0-5_寸法線
 62
     7
100
AcDbText
 10
355.5702579999933
 20
390.4176170000147
 30
0.0
 40
21.0
  1
46
 50
90.0
100
AcDbText
  0
ARC
  5
234
330
6F
100
AcDbEntity
  8
_0-0_計極細
  6
Continuous
 62
     2
100
AcDbCircle
 10
277.6467668522727
 20
387.9296450512156
 30
0.0
 40
0.5
100
AcDbArc
 50
224.9999999999996
 51
314.9999999999812
  0
LINE
  5
235
330
6F
100
AcDbEntity
  8
_0-0_計極細
  6
Continuous
 62
     2
100
AcDbLine
 10
282.9500677111719
 20
392.5258391289282
 30
0.0
 11
278.0003202428659
 21
387.5760916606223
 31
0.0
  0
ARC
  5
236
330
6F
100
AcDbEntity
  8
_0-0_計極細
  6
Continuous
 62
     2
100
AcDbCircle
 10
282.5965143205785
 20
392.8793925195214
 30
0.0
 40
0.5
100
AcDbArc
 50
315.0000000000089
 51
44.99999999999964
  0
LINE
  5
237
330
6F
100
AcDbEntity
  8
_0-5_寸法線
  6
Continuous
 62
     7
100
AcDbLine
 10
490.0460048614426
 20
368.5804823333453
 30
0.0
 11
490.0460048614426
 21
316.8471490000144
 31
0.0
  0
LINE
  5
238
330
6F
100
AcDbEntity
  8
_0-5_寸法線
  6
Continuous
 62
     7
100
AcDbLine
 10
490.0460048614426
 20
322.8471490000144
 30
0.0
 11
478.4548949459737
 21
319.7413204587842
 31
0.0
  0
LINE
  5
239
330
6F
100
AcDbEntity
  8
_0-5_寸法線
  6
Continuous
 62
     7
100
AcDbLine
 10
490.0460048614426
 20
322.8471490000144
 30
0.0
 11
478.454894945974
 21
325.9529775412448
 31
0.0
  0
LINE
  5
23A
330
6F
100
AcDbEntity
  8
_0-5_寸法線
  6
Continuous
 62
     7
100
AcDbLine
 10
415.5460048614427
 20
369.9788776303368
 30
0.0
 11
415.5460048614427
 21
316.8471490000145
 31
0.0
  0
LINE
  5
23B
330
6F
100
AcDbEntity
  8
_0-5_寸法線
  6
Continuous
 62
     7
100
AcDbLine
 10
415.5460048614427
 20
322.8471490000145
 30
0.0
 11
427.1371147769116
 21
325.9529775412448
 31
0.0
  0
LINE
  5
23C
330
6F
100
AcDbEntity
  8
_0-5_寸法線
  6
Continuous
 62
     7
100
AcDbLine
 10
415.5460048614427
 20
322.8471490000145
 30
0.0
 11
427.1371147769114
 21
319.7413204587842
 31
0.0
  0
LINE
  5
23D
330
6F
100
AcDbEntity
  8
_0-5_寸法線
  6
Continuous
 62
     7
100
AcDbLine
 10
490.0460048614426
 20
322.8471490000144
 30
0.0
 11
415.5460048614427
 21
322.8471490000145
 31
0.0
  0
TEXT
  5
23E
330
6F
100
AcDbEntity
  8
_0-5_寸法線
 62
     7
100
AcDbText
 10
442.2960048614425
 20
322.8471490000146
 30
0.0
 40
21.0
  1
75
100
AcDbText
  0
LINE
  5
23F
330
6F
100
AcDbEntity
  8
_0-1_計細線
  6
Continuous
 62
     3
100
AcDbLine
 10
746.7210600000036
 20
380.1676170000145
 30
0.0
 11
1285.721060000003
 21
380.1676170000145
 31
0.0
  0
LINE
  5
240
330
6F
100
AcDbEntity
  8
_0-1_計細線
  6
Continuous
 62
     3
100
AcDbLine
 10
746.7210600000036
 20
415.1676170000142
 30
0.0
 11
1285.721060000003
 21
415.1676170000142
 31
0.0
  0
LINE
  5
241
330
6F
100
AcDbEntity
  8
_0-1_計細線
  6
Continuous
 62
     3
100
AcDbLine
 10
738.2210600000036
 20
423.6676170000144
 30
0.0
 11
738.2210600000036
 21
962.6676170000145
 31
0.0
  0
LINE
  5
242
330
6F
100
AcDbEntity
  8
_0-1_計細線
  6
Continuous
 62
     3
100
AcDbLine
 10
703.2210600000037
 20
423.6676170000144
 30
0.0
 11
703.2210600000037
 21
962.6676170000145
 31
0.0
  0
LINE
  5
243
330
6F
100
AcDbEntity
  8
_0-1_計細線
  6
Continuous
 62
     3
100
AcDbLine
 10
1321.462590000003
 20
417.1490570000143
 30
0.0
 11
1320.721060000003
 21
417.1676170000143
 31
0.0
  0
LINE
  5
244
330
6F
100
AcDbEntity
  8
_0-1_計細線
  6
Continuous
 62
     3
100
AcDbLine
 10
1322.202708000003
 20
417.0934150000142
 30
0.0
 11
1321.462590000003
 21
417.1490570000143
 31
0.0
  0
LINE
  5
245
330
6F
100
AcDbEntity
  8
_0-1_計細線
  6
Continuous
 62
     3
100
AcDbLine
 10
1322.940006000003
 20
417.0007930000143
 30
0.0
 11
1322.202708000003
 21
417.0934150000142
 31
0.0
  0
LINE
  5
246
330
6F
100
AcDbEntity
  8
_0-1_計細線
  6
Continuous
 62
     3
100
AcDbLine
 10
1323.673080000003
 20
416.8713690000143
 30
0.0
 11
1322.940006000003
 21
417.0007930000143
 31
0.0
  0
LINE
  5
247
330
6F
100
AcDbEntity
  8
_0-1_計細線
  6
Continuous
 62
     3
100
AcDbLine
 10
1324.400534000003
 20
416.7053890000145
 30
0.0
 11
1323.673080000003
 21
416.8713690000143
 31
0.0
  0
LINE
  5
248
330
6F
100
AcDbEntity
  8
_0-1_計細線
  6
Continuous
 62
     3
100
AcDbLine
 10
1325.120984000004
 20
416.5031710000144
 30
0.0
 11
1324.400534000003
 21
416.7053890000145
 31
0.0
  0
LINE
  5
249
330
6F
100
AcDbEntity
  8
_0-1_計細線
  6
Continuous
 62
     3
100
AcDbLine
 10
1325.833058000003
 20
416.2650990000143
 30
0.0
 11
1325.120984000004
 21
416.5031710000144
 31
0.0
  0
LINE
  5
24A
330
6F
100
AcDbEntity
  8
_0-1_計細線
  6
Continuous
 62
     3
100
AcDbLine
 10
1326.535402000004
 20
415.9916230000143
 30
0.0
 11
1325.833058000003
 21
416.2650990000143
 31
0.0
  0
LINE
  5
24B
330
6F
100
AcDbEntity
  8
_0-1_計細線
  6
Continuous
 62
     3
100
AcDbLine
 10
1327.226678000003
 20
415.6832690000142
 30
0.0
 11
1326.535402000004
 21
415.9916230000143
 31
0.0
  0
LINE
  5
24C
330
6F
100
AcDbEntity
  8
_0-1_計細線
  6
Continuous
 62
     3
100
AcDbLine
 10
1327.905570000003
 20
415.3406190000143
 30
0.0
 11
1327.226678000003
 21
415.6832690000142
 31
0.0
  0
LINE
  5
24D
330
6F
100
AcDbEntity
  8
_0-1_計細線
  6
Continuous
 62
     3
100
AcDbLine
 10
1328.570786000003
 20
414.9643290000144
 30
0.0
 11
1327.905570000003
 21
415.3406190000143
 31
0.0
  0
LINE
  5
24E
330
6F
100
AcDbEntity
  8
_0-1_計細線
  6
Continuous
 62
     3
100
AcDbLine
 10
1329.221060000003
 20
414.5551130000143
 30
0.0
 11
1328.570786000003
 21
414.9643290000144
 31
0.0
  0
LINE
  5
24F
330
6F
100
AcDbEntity
  8
_0-1_計細線
  6
Continuous
 62
     3
100
AcDbLine
 10
1329.855154000003
 20
414.1137510000144
 30
0.0
 11
1329.221060000003
 21
414.5551130000143
 31
0.0
  0
LINE
  5
250
330
6F
100
AcDbEntity
  8
_0-1_計細線
  6
Continuous
 62
     3
100
AcDbLine
 10
1330.471860000003
 20
413.6410830000144
 30
0.0
 11
1329.855154000003
 21
414.1137510000144
 31
0.0
  0
LINE
  5
251
330
6F
100
AcDbEntity
  8
_0-1_計細線
  6
Continuous
 62
     3
100
AcDbLine
 10
1331.070004000004
 20
413.1380070000145
 30
0.0
 11
1330.471860000003
 21
413.6410830000144
 31
0.0
  0
LINE
  5
252
330
6F
100
AcDbEntity
  8
_0-1_計細線
  6
Continuous
 62
     3
100
AcDbLine
 10
1331.648450000004
 20
412.6054850000143
 30
0.0
 11
1331.070004000004
 21
413.1380070000145
 31
0.0
  0
LINE
  5
253
330
6F
100
AcDbEntity
  8
_0-1_計細線
  6
Continuous
 62
     3
100
AcDbLine
 10
1332.206094000004
 20
412.0445250000143
 30
0.0
 11
1331.648450000004
 21
412.6054850000143
 31
0.0
  0
LINE
  5
254
330
6F
100
AcDbEntity
  8
_0-1_計細線
  6
Continuous
 62
     3
100
AcDbLine
 10
1332.741876000003
 20
411.4561990000145
 30
0.0
 11
1332.206094000004
 21
412.0445250000143
 31
0.0
  0
LINE
  5
255
330
6F
100
AcDbEntity
  8
_0-1_計細線
  6
Continuous
 62
     3
100
AcDbLine
 10
1333.254774000003
 20
410.8416270000144
 30
0.0
 11
1332.741876000003
 21
411.4561990000145
 31
0.0
  0
LINE
  5
256
330
6F
100
AcDbEntity
  8
_0-1_計細線
  6
Continuous
 62
     3
100
AcDbLine
 10
1333.743816000004
 20
410.2019750000143
 30
0.0
 11
1333.254774000003
 21
410.8416270000144
 31
0.0
  0
LINE
  5
257
330
6F
100
AcDbEntity
  8
_0-1_計細線
  6
Continuous
 62
     3
100
AcDbLine
 10
1334.208066000004
 20
409.5384650000143
 30
0.0
 11
1333.743816000004
 21
410.2019750000143
 31
0.0
  0
LINE
  5
258
330
6F
100
AcDbEntity
  8
_0-1_計細線
  6
Continuous
 62
     3
100
AcDbLine
 10
1334.646644000003
 20
408.8523590000143
 30
0.0
 11
1334.208066000004
 21
409.5384650000143
 31
0.0
  0
LINE
  5
259
330
6F
100
AcDbEntity
  8
_0-1_計細線
  6
Continuous
 62
     3
100
AcDbLine
 10
1335.058714000003
 20
408.1449590000145
 30
0.0
 11
1334.646644000003
 21
408.8523590000143
 31
0.0
  0
LINE
  5
25A
330
6F
100
AcDbEntity
  8
_0-1_計細線
  6
Continuous
 62
     3
100
AcDbLine
 10
1335.443492000003
 20
407.4176170000143
 30
0.0
 11
1335.058714000003
 21
408.1449590000145
 31
0.0
  0
LINE
  5
25B
330
6F
100
AcDbEntity
  8
_0-1_計細線
  6
Continuous
 62
     3
100
AcDbLine
 10
1335.800244000003
 20
406.6717150000143
 30
0.0
 11
1335.443492000003
 21
407.4176170000143
 31
0.0
  0
LINE
  5
25C
330
6F
100
AcDbEntity
  8
_0-1_計細線
  6
Continuous
 62
     3
100
AcDbLine
 10
1336.128292000003
 20
405.9086730000143
 30
0.0
 11
1335.800244000003
 21
406.6717150000143
 31
0.0
  0
LINE
  5
25D
330
6F
100
AcDbEntity
  8
_0-1_計細線
  6
Continuous
 62
     3
100
AcDbLine
 10
1336.427012000003
 20
405.1299450000144
 30
0.0
 11
1336.128292000003
 21
405.9086730000143
 31
0.0
  0
LINE
  5
25E
330
6F
100
AcDbEntity
  8
_0-1_計細線
  6
Continuous
 62
     3
100
AcDbLine
 10
1336.695834000003
 20
404.3370110000145
 30
0.0
 11
1336.427012000003
 21
405.1299450000144
 31
0.0
  0
LINE
  5
25F
330
6F
100
AcDbEntity
  8
_0-1_計細線
  6
Continuous
 62
     3
100
AcDbLine
 10
1336.934248000003
 20
403.5313810000143
 30
0.0
 11
1336.695834000003
 21
404.3370110000145
 31
0.0
  0
LINE
  5
260
330
6F
100
AcDbEntity
  8
_0-1_計細線
  6
Continuous
 62
     3
100
AcDbLine
 10
1337.141800000003
 20
402.7145890000143
 30
0.0
 11
1336.934248000003
 21
403.5313810000143
 31
0.0
  0
LINE
  5
261
330
6F
100
AcDbEntity
  8
_0-1_計細線
  6
Continuous
 62
     3
100
AcDbLine
 10
1337.318092000004
 20
401.8881910000143
 30
0.0
 11
1337.141800000003
 21
402.7145890000143
 31
0.0
  0
LINE
  5
262
330
6F
100
AcDbEntity
  8
_0-1_計細線
  6
Continuous
 62
     3
100
AcDbLine
 10
1337.462792000003
 20
401.0537570000143
 30
0.0
 11
1337.318092000004
 21
401.8881910000143
 31
0.0
  0
LINE
  5
263
330
6F
100
AcDbEntity
  8
_0-1_計細線
  6
Continuous
 62
     3
100
AcDbLine
 10
1337.575622000003
 20
400.2128790000143
 30
0.0
 11
1337.462792000003
 21
401.0537570000143
 31
0.0
  0
LINE
  5
264
330
6F
100
AcDbEntity
  8
_0-1_計細線
  6
Continuous
 62
     3
100
AcDbLine
 10
1337.656370000004
 20
399.3671550000144
 30
0.0
 11
1337.575622000003
 21
400.2128790000143
 31
0.0
  0
LINE
  5
265
330
6F
100
AcDbEntity
  8
_0-1_計細線
  6
Continuous
 62
     3
100
AcDbLine
 10
1337.704880000003
 20
398.5181950000143
 30
0.0
 11
1337.656370000004
 21
399.3671550000144
 31
0.0
  0
LINE
  5
266
330
6F
100
AcDbEntity
  8
_0-1_計細線
  6
Continuous
 62
     3
100
AcDbLine
 10
1337.721060000003
 20
397.6676170000144
 30
0.0
 11
1337.704880000003
 21
398.5181950000143
 31
0.0
  0
LINE
  5
267
330
6F
100
AcDbEntity
  8
_0-1_計細線
  6
Continuous
 62
     3
100
AcDbLine
 10
1337.704880000003
 20
396.8170390000143
 30
0.0
 11
1337.721060000003
 21
397.6676170000144
 31
0.0
  0
LINE
  5
268
330
6F
100
AcDbEntity
  8
_0-1_計細線
  6
Continuous
 62
     3
100
AcDbLine
 10
1337.656370000004
 20
395.9680810000144
 30
0.0
 11
1337.704880000003
 21
396.8170390000143
 31
0.0
  0
LINE
  5
269
330
6F
100
AcDbEntity
  8
_0-1_計細線
  6
Continuous
 62
     3
100
AcDbLine
 10
1337.575622000003
 20
395.1223570000145
 30
0.0
 11
1337.656370000004
 21
395.9680810000144
 31
0.0
  0
LINE
  5
26A
330
6F
100
AcDbEntity
  8
_0-1_計細線
  6
Continuous
 62
     3
100
AcDbLine
 10
1337.462792000003
 20
394.2814790000144
 30
0.0
 11
1337.575622000003
 21
395.1223570000145
 31
0.0
  0
LINE
  5
26B
330
6F
100
AcDbEntity
  8
_0-1_計細線
  6
Continuous
 62
     3
100
AcDbLine
 10
1337.318092000004
 20
393.4470450000143
 30
0.0
 11
1337.462792000003
 21
394.2814790000144
 31
0.0
  0
LINE
  5
26C
330
6F
100
AcDbEntity
  8
_0-1_計細線
  6
Continuous
 62
     3
100
AcDbLine
 10
1337.141800000003
 20
392.6206470000143
 30
0.0
 11
1337.318092000004
 21
393.4470450000143
 31
0.0
  0
LINE
  5
26D
330
6F
100
AcDbEntity
  8
_0-1_計細線
  6
Continuous
 62
     3
100
AcDbLine
 10
1336.934248000003
 20
391.8038550000143
 30
0.0
 11
1337.141800000003
 21
392.6206470000143
 31
0.0
  0
LINE
  5
26E
330
6F
100
AcDbEntity
  8
_0-1_計細線
  6
Continuous
 62
     3
100
AcDbLine
 10
1336.695834000003
 20
390.9982250000143
 30
0.0
 11
1336.934248000003
 21
391.8038550000143
 31
0.0
  0
LINE
  5
26F
330
6F
100
AcDbEntity
  8
_0-1_計細線
  6
Continuous
 62
     3
100
AcDbLine
 10
1336.427012000003
 20
390.2052910000144
 30
0.0
 11
1336.695834000003
 21
390.9982250000143
 31
0.0
  0
LINE
  5
270
330
6F
100
AcDbEntity
  8
_0-1_計細線
  6
Continuous
 62
     3
100
AcDbLine
 10
1336.128292000003
 20
389.4265610000145
 30
0.0
 11
1336.427012000003
 21
390.2052910000144
 31
0.0
  0
LINE
  5
271
330
6F
100
AcDbEntity
  8
_0-1_計細線
  6
Continuous
 62
     3
100
AcDbLine
 10
1335.800244000003
 20
388.6635190000143
 30
0.0
 11
1336.128292000003
 21
389.4265610000145
 31
0.0
  0
LINE
  5
272
330
6F
100
AcDbEntity
  8
_0-1_計細線
  6
Continuous
 62
     3
100
AcDbLine
 10
1335.443492000003
 20
387.9176170000143
 30
0.0
 11
1335.800244000003
 21
388.6635190000143
 31
0.0
  0
LINE
  5
273
330
6F
100
AcDbEntity
  8
_0-1_計細線
  6
Continuous
 62
     3
100
AcDbLine
 10
1335.058714000003
 20
387.1902750000144
 30
0.0
 11
1335.443492000003
 21
387.9176170000143
 31
0.0
  0
LINE
  5
274
330
6F
100
AcDbEntity
  8
_0-1_計細線
  6
Continuous
 62
     3
100
AcDbLine
 10
1334.646644000003
 20
386.4828770000144
 30
0.0
 11
1335.058714000003
 21
387.1902750000144
 31
0.0
  0
LINE
  5
275
330
6F
100
AcDbEntity
  8
_0-1_計細線
  6
Continuous
 62
     3
100
AcDbLine
 10
1334.208066000004
 20
385.7967690000144
 30
0.0
 11
1334.646644000003
 21
386.4828770000144
 31
0.0
  0
LINE
  5
276
330
6F
100
AcDbEntity
  8
_0-1_計細線
  6
Continuous
 62
     3
100
AcDbLine
 10
1333.743816000004
 20
385.1332590000145
 30
0.0
 11
1334.208066000004
 21
385.7967690000144
 31
0.0
  0
LINE
  5
277
330
6F
100
AcDbEntity
  8
_0-1_計細線
  6
Continuous
 62
     3
100
AcDbLine
 10
1333.254774000003
 20
384.4936090000145
 30
0.0
 11
1333.743816000004
 21
385.1332590000145
 31
0.0
  0
LINE
  5
278
330
6F
100
AcDbEntity
  8
_0-1_計細線
  6
Continuous
 62
     3
100
AcDbLine
 10
1332.741876000003
 20
383.8790350000144
 30
0.0
 11
1333.254774000003
 21
384.4936090000145
 31
0.0
  0
LINE
  5
279
330
6F
100
AcDbEntity
  8
_0-1_計細線
  6
Continuous
 62
     3
100
AcDbLine
 10
1332.206094000004
 20
383.2907090000143
 30
0.0
 11
1332.741876000003
 21
383.8790350000144
 31
0.0
  0
LINE
  5
27A
330
6F
100
AcDbEntity
  8
_0-1_計細線
  6
Continuous
 62
     3
100
AcDbLine
 10
1331.648450000004
 20
382.7297510000145
 30
0.0
 11
1332.206094000004
 21
383.2907090000143
 31
0.0
  0
LINE
  5
27B
330
6F
100
AcDbEntity
  8
_0-1_計細線
  6
Continuous
 62
     3
100
AcDbLine
 10
1331.070004000004
 20
382.1972270000143
 30
0.0
 11
1331.648450000004
 21
382.7297510000145
 31
0.0
  0
LINE
  5
27C
330
6F
100
AcDbEntity
  8
_0-1_計細線
  6
Continuous
 62
     3
100
AcDbLine
 10
1330.471860000003
 20
381.6941530000144
 30
0.0
 11
1331.070004000004
 21
382.1972270000143
 31
0.0
  0
LINE
  5
27D
330
6F
100
AcDbEntity
  8
_0-1_計細線
  6
Continuous
 62
     3
100
AcDbLine
 10
1329.855154000003
 20
381.2214850000144
 30
0.0
 11
1330.471860000003
 21
381.6941530000144
 31
0.0
  0
LINE
  5
27E
330
6F
100
AcDbEntity
  8
_0-1_計細線
  6
Continuous
 62
     3
100
AcDbLine
 10
1329.221060000003
 20
380.7801230000143
 30
0.0
 11
1329.855154000003
 21
381.2214850000144
 31
0.0
  0
LINE
  5
27F
330
6F
100
AcDbEntity
  8
_0-1_計細線
  6
Continuous
 62
     3
100
AcDbLine
 10
1328.570786000003
 20
380.3709070000145
 30
0.0
 11
1329.221060000003
 21
380.7801230000143
 31
0.0
  0
LINE
  5
280
330
6F
100
AcDbEntity
  8
_0-1_計細線
  6
Continuous
 62
     3
100
AcDbLine
 10
1327.905570000003
 20
379.9946150000143
 30
0.0
 11
1328.570786000003
 21
380.3709070000145
 31
0.0
  0
LINE
  5
281
330
6F
100
AcDbEntity
  8
_0-1_計細線
  6
Continuous
 62
     3
100
AcDbLine
 10
1327.226678000003
 20
379.6519670000145
 30
0.0
 11
1327.905570000003
 21
379.9946150000143
 31
0.0
  0
LINE
  5
282
330
6F
100
AcDbEntity
  8
_0-1_計細線
  6
Continuous
 62
     3
100
AcDbLine
 10
1326.535402000004
 20
379.3436110000145
 30
0.0
 11
1327.226678000003
 21
379.6519670000145
 31
0.0
  0
LINE
  5
283
330
6F
100
AcDbEntity
  8
_0-1_計細線
  6
Continuous
 62
     3
100
AcDbLine
 10
1325.833058000003
 20
379.0701370000144
 30
0.0
 11
1326.535402000004
 21
379.3436110000145
 31
0.0
  0
LINE
  5
284
330
6F
100
AcDbEntity
  8
_0-1_計細線
  6
Continuous
 62
     3
100
AcDbLine
 10
1325.120984000004
 20
378.8320630000143
 30
0.0
 11
1325.833058000003
 21
379.0701370000144
 31
0.0
  0
LINE
  5
285
330
6F
100
AcDbEntity
  8
_0-1_計細線
  6
Continuous
 62
     3
100
AcDbLine
 10
1324.400534000003
 20
378.6298450000144
 30
0.0
 11
1325.120984000004
 21
378.8320630000143
 31
0.0
  0
LINE
  5
286
330
6F
100
AcDbEntity
  8
_0-1_計細線
  6
Continuous
 62
     3
100
AcDbLine
 10
1323.673080000003
 20
378.4638670000143
 30
0.0
 11
1324.400534000003
 21
378.6298450000144
 31
0.0
  0
LINE
  5
287
330
6F
100
AcDbEntity
  8
_0-1_計細線
  6
Continuous
 62
     3
100
AcDbLine
 10
1322.940006000003
 20
378.3344430000145
 30
0.0
 11
1323.673080000003
 21
378.4638670000143
 31
0.0
  0
LINE
  5
288
330
6F
100
AcDbEntity
  8
_0-1_計細線
  6
Continuous
 62
     3
100
AcDbLine
 10
1322.202708000003
 20
378.2418210000145
 30
0.0
 11
1322.940006000003
 21
378.3344430000145
 31
0.0
  0
LINE
  5
289
330
6F
100
AcDbEntity
  8
_0-1_計細線
  6
Continuous
 62
     3
100
AcDbLine
 10
1321.462590000003
 20
378.1861770000144
 30
0.0
 11
1322.202708000003
 21
378.2418210000145
 31
0.0
  0
LINE
  5
28A
330
6F
100
AcDbEntity
  8
_0-1_計細線
  6
Continuous
 62
     3
100
AcDbLine
 10
1320.721060000003
 20
378.1676170000145
 30
0.0
 11
1321.462590000003
 21
378.1861770000144
 31
0.0
  0
LINE
  5
28B
330
6F
100
AcDbEntity
  8
_0-1_計細線
  6
Continuous
 62
     3
100
AcDbLine
 10
701.2396180000038
 20
998.4091450000143
 30
0.0
 11
701.2210600000037
 21
997.6676170000144
 31
0.0
  0
LINE
  5
28C
330
6F
100
AcDbEntity
  8
_0-1_計細線
  6
Continuous
 62
     3
100
AcDbLine
 10
701.2952620000036
 20
999.1492650000143
 30
0.0
 11
701.2396180000038
 21
998.4091450000143
 31
0.0
  0
LINE
  5
28D
330
6F
100
AcDbEntity
  8
_0-1_計細線
  6
Continuous
 62
     3
100
AcDbLine
 10
701.3878840000036
 20
999.8865610000143
 30
0.0
 11
701.2952620000036
 21
999.1492650000143
 31
0.0
  0
LINE
  5
28E
330
6F
100
AcDbEntity
  8
_0-1_計細線
  6
Continuous
 62
     3
100
AcDbLine
 10
701.5173080000037
 20
1000.619635000014
 30
0.0
 11
701.3878840000036
 21
999.8865610000143
 31
0.0
  0
LINE
  5
28F
330
6F
100
AcDbEntity
  8
_0-1_計細線
  6
Continuous
 62
     3
100
AcDbLine
 10
701.6832880000038
 20
1001.347089000014
 30
0.0
 11
701.5173080000037
 21
1000.619635000014
 31
0.0
  0
LINE
  5
290
330
6F
100
AcDbEntity
  8
_0-1_計細線
  6
Continuous
 62
     3
100
AcDbLine
 10
701.8855060000037
 20
1002.067541000014
 30
0.0
 11
701.6832880000038
 21
1001.347089000014
 31
0.0
  0
LINE
  5
291
330
6F
100
AcDbEntity
  8
_0-1_計細線
  6
Continuous
 62
     3
100
AcDbLine
 10
702.1235780000036
 20
1002.779615000014
 30
0.0
 11
701.8855060000037
 21
1002.067541000014
 31
0.0
  0
LINE
  5
292
330
6F
100
AcDbEntity
  8
_0-1_計細線
  6
Continuous
 62
     3
100
AcDbLine
 10
702.3970540000036
 20
1003.481959000014
 30
0.0
 11
702.1235780000036
 21
1002.779615000014
 31
0.0
  0
LINE
  5
293
330
6F
100
AcDbEntity
  8
_0-1_計細線
  6
Continuous
 62
     3
100
AcDbLine
 10
702.7054080000036
 20
1004.173235000014
 30
0.0
 11
702.3970540000036
 21
1003.481959000014
 31
0.0
  0
LINE
  5
294
330
6F
100
AcDbEntity
  8
_0-1_計細線
  6
Continuous
 62
     3
100
AcDbLine
 10
703.0480580000036
 20
1004.852127000014
 30
0.0
 11
702.7054080000036
 21
1004.173235000014
 31
0.0
  0
LINE
  5
295
330
6F
100
AcDbEntity
  8
_0-1_計細線
  6
Continuous
 62
     3
100
AcDbLine
 10
703.4243480000036
 20
1005.517343000014
 30
0.0
 11
703.0480580000036
 21
1004.852127000014
 31
0.0
  0
LINE
  5
296
330
6F
100
AcDbEntity
  8
_0-1_計細線
  6
Continuous
 62
     3
100
AcDbLine
 10
703.8335640000036
 20
1006.167617000014
 30
0.0
 11
703.4243480000036
 21
1005.517343000014
 31
0.0
  0
LINE
  5
297
330
6F
100
AcDbEntity
  8
_0-1_計細線
  6
Continuous
 62
     3
100
AcDbLine
 10
704.2749260000037
 20
1006.801709000014
 30
0.0
 11
703.8335640000036
 21
1006.167617000014
 31
0.0
  0
LINE
  5
298
330
6F
100
AcDbEntity
  8
_0-1_計細線
  6
Continuous
 62
     3
100
AcDbLine
 10
704.7475940000037
 20
1007.418415000014
 30
0.0
 11
704.2749260000037
 21
1006.801709000014
 31
0.0
  0
LINE
  5
299
330
6F
100
AcDbEntity
  8
_0-1_計細線
  6
Continuous
 62
     3
100
AcDbLine
 10
705.2506700000037
 20
1008.016561000014
 30
0.0
 11
704.7475940000037
 21
1007.418415000014
 31
0.0
  0
LINE
  5
29A
330
6F
100
AcDbEntity
  8
_0-1_計細線
  6
Continuous
 62
     3
100
AcDbLine
 10
705.7831920000036
 20
1008.595005000014
 30
0.0
 11
705.2506700000037
 21
1008.016561000014
 31
0.0
  0
LINE
  5
29B
330
6F
100
AcDbEntity
  8
_0-1_計細線
  6
Continuous
 62
     3
100
AcDbLine
 10
706.3441520000037
 20
1009.152649000014
 30
0.0
 11
705.7831920000036
 21
1008.595005000014
 31
0.0
  0
LINE
  5
29C
330
6F
100
AcDbEntity
  8
_0-1_計細線
  6
Continuous
 62
     3
100
AcDbLine
 10
706.9324760000037
 20
1009.688431000014
 30
0.0
 11
706.3441520000037
 21
1009.152649000014
 31
0.0
  0
LINE
  5
29D
330
6F
100
AcDbEntity
  8
_0-1_計細線
  6
Continuous
 62
     3
100
AcDbLine
 10
707.5470500000037
 20
1010.201331000014
 30
0.0
 11
706.9324760000037
 21
1009.688431000014
 31
0.0
  0
LINE
  5
29E
330
6F
100
AcDbEntity
  8
_0-1_計細線
  6
Continuous
 62
     3
100
AcDbLine
 10
708.1867000000036
 20
1010.690371000014
 30
0.0
 11
707.5470500000037
 21
1010.201331000014
 31
0.0
  0
LINE
  5
29F
330
6F
100
AcDbEntity
  8
_0-1_計細線
  6
Continuous
 62
     3
100
AcDbLine
 10
708.8502120000036
 20
1011.154623000014
 30
0.0
 11
708.1867000000036
 21
1010.690371000014
 31
0.0
  0
LINE
  5
2A0
330
6F
100
AcDbEntity
  8
_0-1_計細線
  6
Continuous
 62
     3
100
AcDbLine
 10
709.5363180000036
 20
1011.593201000014
 30
0.0
 11
708.8502120000036
 21
1011.154623000014
 31
0.0
  0
LINE
  5
2A1
330
6F
100
AcDbEntity
  8
_0-1_計細線
  6
Continuous
 62
     3
100
AcDbLine
 10
710.2437160000038
 20
1012.005271000014
 30
0.0
 11
709.5363180000036
 21
1011.593201000014
 31
0.0
  0
LINE
  5
2A2
330
6F
100
AcDbEntity
  8
_0-1_計細線
  6
Continuous
 62
     3
100
AcDbLine
 10
710.9710600000036
 20
1012.390049000014
 30
0.0
 11
710.2437160000038
 21
1012.005271000014
 31
0.0
  0
LINE
  5
2A3
330
6F
100
AcDbEntity
  8
_0-1_計細線
  6
Continuous
 62
     3
100
AcDbLine
 10
711.7169620000037
 20
1012.746801000014
 30
0.0
 11
710.9710600000036
 21
1012.390049000014
 31
0.0
  0
LINE
  5
2A4
330
6F
100
AcDbEntity
  8
_0-1_計細線
  6
Continuous
 62
     3
100
AcDbLine
 10
712.4800040000036
 20
1013.074849000014
 30
0.0
 11
711.7169620000037
 21
1012.746801000014
 31
0.0
  0
LINE
  5
2A5
330
6F
100
AcDbEntity
  8
_0-1_計細線
  6
Continuous
 62
     3
100
AcDbLine
 10
713.2587320000036
 20
1013.373569000014
 30
0.0
 11
712.4800040000036
 21
1013.074849000014
 31
0.0
  0
LINE
  5
2A6
330
6F
100
AcDbEntity
  8
_0-1_計細線
  6
Continuous
 62
     3
100
AcDbLine
 10
714.0516660000037
 20
1013.642391000014
 30
0.0
 11
713.2587320000036
 21
1013.373569000014
 31
0.0
  0
LINE
  5
2A7
330
6F
100
AcDbEntity
  8
_0-1_計細線
  6
Continuous
 62
     3
100
AcDbLine
 10
714.8572960000036
 20
1013.880805000014
 30
0.0
 11
714.0516660000037
 21
1013.642391000014
 31
0.0
  0
LINE
  5
2A8
330
6F
100
AcDbEntity
  8
_0-1_計細線
  6
Continuous
 62
     3
100
AcDbLine
 10
715.6740880000036
 20
1014.088355000014
 30
0.0
 11
714.8572960000036
 21
1013.880805000014
 31
0.0
  0
LINE
  5
2A9
330
6F
100
AcDbEntity
  8
_0-1_計細線
  6
Continuous
 62
     3
100
AcDbLine
 10
716.5004860000037
 20
1014.264649000014
 30
0.0
 11
715.6740880000036
 21
1014.088355000014
 31
0.0
  0
LINE
  5
2AA
330
6F
100
AcDbEntity
  8
_0-1_計細線
  6
Continuous
 62
     3
100
AcDbLine
 10
717.3349200000036
 20
1014.409349000015
 30
0.0
 11
716.5004860000037
 21
1014.264649000014
 31
0.0
  0
LINE
  5
2AB
330
6F
100
AcDbEntity
  8
_0-1_計細線
  6
Continuous
 62
     3
100
AcDbLine
 10
718.1757980000035
 20
1014.522179000014
 30
0.0
 11
717.3349200000036
 21
1014.409349000015
 31
0.0
  0
LINE
  5
2AC
330
6F
100
AcDbEntity
  8
_0-1_計細線
  6
Continuous
 62
     3
100
AcDbLine
 10
719.0215220000036
 20
1014.602927000014
 30
0.0
 11
718.1757980000035
 21
1014.522179000014
 31
0.0
  0
LINE
  5
2AD
330
6F
100
AcDbEntity
  8
_0-1_計細線
  6
Continuous
 62
     3
100
AcDbLine
 10
719.8704820000036
 20
1014.651437000014
 30
0.0
 11
719.0215220000036
 21
1014.602927000014
 31
0.0
  0
LINE
  5
2AE
330
6F
100
AcDbEntity
  8
_0-1_計細線
  6
Continuous
 62
     3
100
AcDbLine
 10
720.7210600000037
 20
1014.667617000014
 30
0.0
 11
719.8704820000036
 21
1014.651437000014
 31
0.0
  0
LINE
  5
2AF
330
6F
100
AcDbEntity
  8
_0-1_計細線
  6
Continuous
 62
     3
100
AcDbLine
 10
721.5716380000036
 20
1014.651437000014
 30
0.0
 11
720.7210600000037
 21
1014.667617000014
 31
0.0
  0
LINE
  5
2B0
330
6F
100
AcDbEntity
  8
_0-1_計細線
  6
Continuous
 62
     3
100
AcDbLine
 10
722.4205960000034
 20
1014.602927000014
 30
0.0
 11
721.5716380000036
 21
1014.651437000014
 31
0.0
  0
LINE
  5
2B1
330
6F
100
AcDbEntity
  8
_0-1_計細線
  6
Continuous
 62
     3
100
AcDbLine
 10
723.2663200000038
 20
1014.522179000014
 30
0.0
 11
722.4205960000034
 21
1014.602927000014
 31
0.0
  0
LINE
  5
2B2
330
6F
100
AcDbEntity
  8
_0-1_計細線
  6
Continuous
 62
     3
100
AcDbLine
 10
724.1071980000035
 20
1014.409349000015
 30
0.0
 11
723.2663200000038
 21
1014.522179000014
 31
0.0
  0
LINE
  5
2B3
330
6F
100
AcDbEntity
  8
_0-1_計細線
  6
Continuous
 62
     3
100
AcDbLine
 10
724.9416320000035
 20
1014.264649000014
 30
0.0
 11
724.1071980000035
 21
1014.409349000015
 31
0.0
  0
LINE
  5
2B4
330
6F
100
AcDbEntity
  8
_0-1_計細線
  6
Continuous
 62
     3
100
AcDbLine
 10
725.7680300000036
 20
1014.088355000014
 30
0.0
 11
724.9416320000035
 21
1014.264649000014
 31
0.0
  0
LINE
  5
2B5
330
6F
100
AcDbEntity
  8
_0-1_計細線
  6
Continuous
 62
     3
100
AcDbLine
 10
726.5848220000036
 20
1013.880805000014
 30
0.0
 11
725.7680300000036
 21
1014.088355000014
 31
0.0
  0
LINE
  5
2B6
330
6F
100
AcDbEntity
  8
_0-1_計細線
  6
Continuous
 62
     3
100
AcDbLine
 10
727.3904520000036
 20
1013.642391000014
 30
0.0
 11
726.5848220000036
 21
1013.880805000014
 31
0.0
  0
LINE
  5
2B7
330
6F
100
AcDbEntity
  8
_0-1_計細線
  6
Continuous
 62
     3
100
AcDbLine
 10
728.1833860000035
 20
1013.373569000014
 30
0.0
 11
727.3904520000036
 21
1013.642391000014
 31
0.0
  0
LINE
  5
2B8
330
6F
100
AcDbEntity
  8
_0-1_計細線
  6
Continuous
 62
     3
100
AcDbLine
 10
728.9621160000035
 20
1013.074849000014
 30
0.0
 11
728.1833860000035
 21
1013.373569000014
 31
0.0
  0
LINE
  5
2B9
330
6F
100
AcDbEntity
  8
_0-1_計細線
  6
Continuous
 62
     3
100
AcDbLine
 10
729.7251580000037
 20
1012.746801000014
 30
0.0
 11
728.9621160000035
 21
1013.074849000014
 31
0.0
  0
LINE
  5
2BA
330
6F
100
AcDbEntity
  8
_0-1_計細線
  6
Continuous
 62
     3
100
AcDbLine
 10
730.4710600000037
 20
1012.390049000014
 30
0.0
 11
729.7251580000037
 21
1012.746801000014
 31
0.0
  0
LINE
  5
2BB
330
6F
100
AcDbEntity
  8
_0-1_計細線
  6
Continuous
 62
     3
100
AcDbLine
 10
731.1984020000035
 20
1012.005271000014
 30
0.0
 11
730.4710600000037
 21
1012.390049000014
 31
0.0
  0
LINE
  5
2BC
330
6F
100
AcDbEntity
  8
_0-1_計細線
  6
Continuous
 62
     3
100
AcDbLine
 10
731.9058000000035
 20
1011.593201000014
 30
0.0
 11
731.1984020000035
 21
1012.005271000014
 31
0.0
  0
LINE
  5
2BD
330
6F
100
AcDbEntity
  8
_0-1_計細線
  6
Continuous
 62
     3
100
AcDbLine
 10
732.5919080000036
 20
1011.154623000014
 30
0.0
 11
731.9058000000035
 21
1011.593201000014
 31
0.0
  0
LINE
  5
2BE
330
6F
100
AcDbEntity
  8
_0-1_計細線
  6
Continuous
 62
     3
100
AcDbLine
 10
733.2554180000037
 20
1010.690371000014
 30
0.0
 11
732.5919080000036
 21
1011.154623000014
 31
0.0
  0
LINE
  5
2BF
330
6F
100
AcDbEntity
  8
_0-1_計細線
  6
Continuous
 62
     3
100
AcDbLine
 10
733.8950680000035
 20
1010.201331000014
 30
0.0
 11
733.2554180000037
 21
1010.690371000014
 31
0.0
  0
LINE
  5
2C0
330
6F
100
AcDbEntity
  8
_0-1_計細線
  6
Continuous
 62
     3
100
AcDbLine
 10
734.5096420000035
 20
1009.688431000014
 30
0.0
 11
733.8950680000035
 21
1010.201331000014
 31
0.0
  0
LINE
  5
2C1
330
6F
100
AcDbEntity
  8
_0-1_計細線
  6
Continuous
 62
     3
100
AcDbLine
 10
735.0979680000035
 20
1009.152649000014
 30
0.0
 11
734.5096420000035
 21
1009.688431000014
 31
0.0
  0
LINE
  5
2C2
330
6F
100
AcDbEntity
  8
_0-1_計細線
  6
Continuous
 62
     3
100
AcDbLine
 10
735.6589260000037
 20
1008.595005000014
 30
0.0
 11
735.0979680000035
 21
1009.152649000014
 31
0.0
  0
LINE
  5
2C3
330
6F
100
AcDbEntity
  8
_0-1_計細線
  6
Continuous
 62
     3
100
AcDbLine
 10
736.1914500000035
 20
1008.016561000014
 30
0.0
 11
735.6589260000037
 21
1008.595005000014
 31
0.0
  0
LINE
  5
2C4
330
6F
100
AcDbEntity
  8
_0-1_計細線
  6
Continuous
 62
     3
100
AcDbLine
 10
736.6945240000035
 20
1007.418415000014
 30
0.0
 11
736.1914500000035
 21
1008.016561000014
 31
0.0
  0
LINE
  5
2C5
330
6F
100
AcDbEntity
  8
_0-1_計細線
  6
Continuous
 62
     3
100
AcDbLine
 10
737.1671920000036
 20
1006.801709000014
 30
0.0
 11
736.6945240000035
 21
1007.418415000014
 31
0.0
  0
LINE
  5
2C6
330
6F
100
AcDbEntity
  8
_0-1_計細線
  6
Continuous
 62
     3
100
AcDbLine
 10
737.6085540000035
 20
1006.167617000014
 30
0.0
 11
737.1671920000036
 21
1006.801709000014
 31
0.0
  0
LINE
  5
2C7
330
6F
100
AcDbEntity
  8
_0-1_計細線
  6
Continuous
 62
     3
100
AcDbLine
 10
738.0177700000035
 20
1005.517343000014
 30
0.0
 11
737.6085540000035
 21
1006.167617000014
 31
0.0
  0
LINE
  5
2C8
330
6F
100
AcDbEntity
  8
_0-1_計細線
  6
Continuous
 62
     3
100
AcDbLine
 10
738.3940620000037
 20
1004.852127000014
 30
0.0
 11
738.0177700000035
 21
1005.517343000014
 31
0.0
  0
LINE
  5
2C9
330
6F
100
AcDbEntity
  8
_0-1_計細線
  6
Continuous
 62
     3
100
AcDbLine
 10
738.7367100000035
 20
1004.173235000014
 30
0.0
 11
738.3940620000037
 21
1004.852127000014
 31
0.0
  0
LINE
  5
2CA
330
6F
100
AcDbEntity
  8
_0-1_計細線
  6
Continuous
 62
     3
100
AcDbLine
 10
739.0450660000035
 20
1003.481959000014
 30
0.0
 11
738.7367100000035
 21
1004.173235000014
 31
0.0
  0
LINE
  5
2CB
330
6F
100
AcDbEntity
  8
_0-1_計細線
  6
Continuous
 62
     3
100
AcDbLine
 10
739.3185400000035
 20
1002.779615000014
 30
0.0
 11
739.0450660000035
 21
1003.481959000014
 31
0.0
  0
LINE
  5
2CC
330
6F
100
AcDbEntity
  8
_0-1_計細線
  6
Continuous
 62
     3
100
AcDbLine
 10
739.5566120000036
 20
1002.067541000014
 30
0.0
 11
739.3185400000035
 21
1002.779615000014
 31
0.0
  0
LINE
  5
2CD
330
6F
100
AcDbEntity
  8
_0-1_計細線
  6
Continuous
 62
     3
100
AcDbLine
 10
739.7588320000035
 20
1001.347089000014
 30
0.0
 11
739.5566120000036
 21
1002.067541000014
 31
0.0
  0
LINE
  5
2CE
330
6F
100
AcDbEntity
  8
_0-1_計細線
  6
Continuous
 62
     3
100
AcDbLine
 10
739.9248100000034
 20
1000.619635000014
 30
0.0
 11
739.7588320000035
 21
1001.347089000014
 31
0.0
  0
LINE
  5
2CF
330
6F
100
AcDbEntity
  8
_0-1_計細線
  6
Continuous
 62
     3
100
AcDbLine
 10
740.0542340000036
 20
999.8865610000143
 30
0.0
 11
739.9248100000034
 21
1000.619635000014
 31
0.0
  0
LINE
  5
2D0
330
6F
100
AcDbEntity
  8
_0-1_計細線
  6
Continuous
 62
     3
100
AcDbLine
 10
740.1468560000036
 20
999.1492650000143
 30
0.0
 11
740.0542340000036
 21
999.8865610000143
 31
0.0
  0
LINE
  5
2D1
330
6F
100
AcDbEntity
  8
_0-1_計細線
  6
Continuous
 62
     3
100
AcDbLine
 10
740.2025000000036
 20
998.4091450000143
 30
0.0
 11
740.1468560000036
 21
999.1492650000143
 31
0.0
  0
LINE
  5
2D2
330
6F
100
AcDbEntity
  8
_0-1_計細線
  6
Continuous
 62
     3
100
AcDbLine
 10
740.2210600000037
 20
997.6676170000144
 30
0.0
 11
740.2025000000036
 21
998.4091450000143
 31
0.0
  0
LINE
  5
2D3
330
6F
100
AcDbEntity
  8
_0-1_計細線
  6
Continuous
 62
     3
100
AcDbLine
 10
746.7210600000036
 20
415.6317190000144
 30
0.0
 11
746.7210600000036
 21
379.7035150000144
 31
0.0
  0
LINE
  5
2D4
330
6F
100
AcDbEntity
  8
_0-1_計細線
  6
Continuous
 62
     3
100
AcDbLine
 10
740.2210600000037
 20
420.6676170000145
 30
0.0
 11
740.2210600000037
 21
419.1676170000144
 31
0.0
  0
LINE
  5
2D5
330
6F
100
AcDbEntity
  8
_0-1_計細線
  6
Continuous
 62
     3
100
AcDbLine
 10
743.7210600000037
 20
417.1676170000143
 30
0.0
 11
742.2210600000036
 21
417.1676170000143
 31
0.0
  0
LINE
  5
2D6
330
6F
100
AcDbEntity
  8
_0-1_計細線
  6
Continuous
 62
     3
100
AcDbLine
 10
743.7210600000037
 20
378.1676170000145
 30
0.0
 11
731.2210600000037
 21
378.1676170000145
 31
0.0
  0
LINE
  5
2D7
330
6F
100
AcDbEntity
  8
_0-1_計細線
  6
Continuous
 62
     3
100
AcDbLine
 10
1285.721060000003
 20
379.7035150000144
 30
0.0
 11
1285.721060000003
 21
415.6317190000144
 31
0.0
  0
LINE
  5
2D8
330
6F
100
AcDbEntity
  8
_0-1_計細線
  6
Continuous
 62
     3
100
AcDbLine
 10
1288.721060000003
 20
378.1676170000145
 30
0.0
 11
1320.721060000003
 21
378.1676170000145
 31
0.0
  0
LINE
  5
2D9
330
6F
100
AcDbEntity
  8
_0-1_計細線
  6
Continuous
 62
     3
100
AcDbLine
 10
1288.721060000003
 20
417.1676170000143
 30
0.0
 11
1320.721060000003
 21
417.1676170000143
 31
0.0
  0
ARC
  5
2DA
330
6F
100
AcDbEntity
  8
_0-1_計細線
  6
Continuous
 62
     3
100
AcDbCircle
 10
1288.721060000003
 20
412.1676170000143
 30
0.0
 40
5.0
100
AcDbArc
 50
89.99999999999991
 51
119.9999999999998
  0
ARC
  5
2DB
330
6F
100
AcDbEntity
  8
_0-1_計細線
  6
Continuous
 62
     3
100
AcDbCircle
 10
1288.721060000003
 20
383.1676170000145
 30
0.0
 40
5.0
100
AcDbArc
 50
239.9999999999997
 51
269.9999999999997
  0
ARC
  5
2DC
330
6F
100
AcDbEntity
  8
_0-1_計細線
  6
Continuous
 62
     3
100
AcDbCircle
 10
1286.721060000003
 20
379.7035150000144
 30
0.0
 40
1.0
100
AcDbArc
 50
179.9999999999998
 51
239.9999999999991
  0
ARC
  5
2DD
330
6F
100
AcDbEntity
  8
_0-1_計細線
  6
Continuous
 62
     3
100
AcDbCircle
 10
1286.721060000003
 20
415.6317190000144
 30
0.0
 40
1.0
100
AcDbArc
 50
120.0000000000005
 51
179.9999999999998
  0
ARC
  5
2DE
330
6F
100
AcDbEntity
  8
_0-1_計細線
  6
Continuous
 62
     3
100
AcDbCircle
 10
742.2210600000036
 20
419.1676170000144
 30
0.0
 40
2.0
100
AcDbArc
 50
179.9999999999998
 51
269.9999999999997
  0
ARC
  5
2DF
330
6F
100
AcDbEntity
  8
_0-1_計細線
  6
Continuous
 62
     3
100
AcDbCircle
 10
743.7210600000037
 20
383.1676170000145
 30
0.0
 40
5.0
100
AcDbArc
 50
269.9999999999997
 51
299.9999999999996
  0
ARC
  5
2E0
330
6F
100
AcDbEntity
  8
_0-1_計細線
  6
Continuous
 62
     3
100
AcDbCircle
 10
743.7210600000037
 20
412.1676170000143
 30
0.0
 40
5.0
100
AcDbArc
 50
60.0000000000001
 51
89.99999999999991
  0
ARC
  5
2E1
330
6F
100
AcDbEntity
  8
_0-1_計細線
  6
Continuous
 62
     3
100
AcDbCircle
 10
745.7210600000037
 20
379.7035150000144
 30
0.0
 40
1.0
100
AcDbArc
 50
300.0000000000002
 51
359.9999999999997
  0
ARC
  5
2E2
330
6F
100
AcDbEntity
  8
_0-1_計細線
  6
Continuous
 62
     3
100
AcDbCircle
 10
745.7210600000037
 20
415.6317190000144
 30
0.0
 40
1.0
100
AcDbArc
 50
0.0
 51
59.99999999999944
  0
ARC
  5
2E3
330
6F
100
AcDbEntity
  8
_0-1_計細線
  6
Continuous
 62
     3
100
AcDbCircle
 10
735.2210600000037
 20
420.6676170000145
 30
0.0
 40
5.0
100
AcDbArc
 50
0.0
 51
29.99999999999989
  0
ARC
  5
2E4
330
6F
100
AcDbEntity
  8
_0-1_計細線
  6
Continuous
 62
     3
100
AcDbCircle
 10
738.6851600000035
 20
422.6676170000143
 30
0.0
 40
1.0
100
AcDbArc
 50
29.99999999999729
 51
89.99999999999994
  0
LINE
  5
2E5
330
6F
100
AcDbEntity
  8
_0-1_計細線
  6
Continuous
 62
     3
100
AcDbLine
 10
738.6851600000035
 20
423.6676170000144
 30
0.0
 11
702.7569580000037
 21
423.6676170000144
 31
0.0
  0
LINE
  5
2E6
330
6F
100
AcDbEntity
  8
_0-1_計細線
  6
Continuous
 62
     3
100
AcDbLine
 10
701.2210600000037
 20
420.6676170000145
 30
0.0
 11
701.2210600000037
 21
408.1676170000143
 31
0.0
  0
ARC
  5
2E7
330
6F
100
AcDbEntity
  8
_0-1_計細線
  6
Continuous
 62
     3
100
AcDbCircle
 10
731.2210600000037
 20
408.1676170000143
 30
0.0
 40
30.0
100
AcDbArc
 50
179.9999999999998
 51
269.9999999999997
  0
ARC
  5
2E8
330
6F
100
AcDbEntity
  8
_0-1_計細線
  6
Continuous
 62
     3
100
AcDbCircle
 10
706.2210600000037
 20
420.6676170000145
 30
0.0
 40
5.0
100
AcDbArc
 50
150.0000000000001
 51
179.9999999999998
  0
ARC
  5
2E9
330
6F
100
AcDbEntity
  8
_0-1_計細線
  6
Continuous
 62
     3
100
AcDbCircle
 10
702.7569580000037
 20
422.6676170000143
 30
0.0
 40
1.0
100
AcDbArc
 50
89.99999999999991
 51
149.9999999999994
  0
ARC
  5
2EA
330
6F
100
AcDbEntity
  8
_0-0_計極細
  6
Continuous
 62
     2
100
AcDbCircle
 10
1314.979390000003
 20
397.6676170000144
 30
0.0
 40
22.51666
100
AcDbArc
 50
119.9999999999998
 51
239.9999999999999
  0
ARC
  5
2EB
330
6F
100
AcDbEntity
  8
_0-0_計極細
  6
Continuous
 62
     2
100
AcDbCircle
 10
1270.426098000004
 20
397.6676170000144
 30
0.0
 40
38.58503000000002
100
AcDbArc
 50
329.6435959999997
 51
30.35640399999961
  0
LINE
  5
2EC
330
6F
100
AcDbEntity
  8
_0-0_計極細
  6
DASHED2
 62
     2
100
AcDbLine
 10
1293.721060000003
 20
380.1676170000145
 30
0.0
 11
1293.721060000003
 21
415.1676170000142
 31
0.0
  0
LINE
  5
2ED
330
6F
100
AcDbEntity
  8
_0-0_計極細
  6
DASHED2
 62
     2
100
AcDbLine
 10
1293.721060000003
 20
415.1676170000142
 30
0.0
 11
1285.721060000003
 21
415.1676170000142
 31
0.0
  0
LINE
  5
2EE
330
6F
100
AcDbEntity
  8
_0-0_計極細
  6
DASHED2
 62
     2
100
AcDbLine
 10
1293.721060000003
 20
380.1676170000145
 30
0.0
 11
1285.721060000003
 21
380.1676170000145
 31
0.0
  0
LINE
  5
2EF
330
6F
100
AcDbEntity
  8
_0-0_計極細
  6
DASHED2
 62
     2
100
AcDbLine
 10
738.2210600000036
 20
415.1676170000142
 30
0.0
 11
703.2210600000037
 21
415.1676170000142
 31
0.0
  0
LINE
  5
2F0
330
6F
100
AcDbEntity
  8
_0-0_計極細
  6
DASHED2
 62
     2
100
AcDbLine
 10
738.2210600000036
 20
415.1676170000142
 30
0.0
 11
738.2210600000036
 21
380.1676170000145
 31
0.0
  0
LINE
  5
2F1
330
6F
100
AcDbEntity
  8
_0-0_計極細
  6
DASHED2
 62
     2
100
AcDbLine
 10
738.2210600000036
 20
415.1676170000142
 30
0.0
 11
738.2210600000036
 21
423.6676170000144
 31
0.0
  0
LINE
  5
2F2
330
6F
100
AcDbEntity
  8
_0-0_計極細
  6
DASHED2
 62
     2
100
AcDbLine
 10
703.2210600000037
 20
423.6676170000144
 30
0.0
 11
703.2210600000037
 21
415.1676170000142
 31
0.0
  0
LINE
  5
2F3
330
6F
100
AcDbEntity
  8
_0-0_計極細
  6
DASHED2
 62
     2
100
AcDbLine
 10
746.7210600000036
 20
415.1676170000142
 30
0.0
 11
738.2210600000036
 21
415.1676170000142
 31
0.0
  0
LINE
  5
2F4
330
6F
100
AcDbEntity
  8
_0-0_計極細
  6
DASHED2
 62
     2
100
AcDbLine
 10
746.7210600000036
 20
380.1676170000145
 30
0.0
 11
738.2210600000036
 21
380.1676170000145
 31
0.0
  0
ARC
  5
2F5
330
6F
100
AcDbEntity
  8
_0-0_計極細
  6
Continuous
 62
     2
100
AcDbCircle
 10
720.7210600000037
 20
397.6676170000144
 30
0.0
 40
16.0
100
AcDbArc
 50
314.9999999999997
 51
134.9999999999999
  0
ARC
  5
2F6
330
6F
100
AcDbEntity
  8
_0-0_計極細
  6
Continuous
 62
     2
100
AcDbCircle
 10
707.7652160000036
 20
410.1676170000144
 30
0.0
 40
2.0
100
AcDbArc
 50
269.9999999999997
 51
314.9999999999997
  0
ARC
  5
2F7
330
6F
100
AcDbEntity
  8
_0-0_計極細
  6
Continuous
 62
     2
100
AcDbCircle
 10
733.2210600000037
 20
384.7117730000143
 30
0.0
 40
2.0
100
AcDbArc
 50
135.0
 51
179.9999999999998
  0
LINE
  5
2F8
330
6F
100
AcDbEntity
  8
_0-0_計極細
  6
Continuous
 62
     2
100
AcDbLine
 10
731.8068460000038
 20
386.1259870000145
 30
0.0
 11
732.0347680000034
 21
386.3539090000143
 31
0.0
  0
LINE
  5
2F9
330
6F
100
AcDbEntity
  8
_0-0_計極細
  6
Continuous
 62
     2
100
AcDbLine
 10
709.1794280000036
 20
408.7534030000143
 30
0.0
 11
709.4073500000038
 21
408.9813270000143
 31
0.0
  0
LINE
  5
2FA
330
6F
100
AcDbEntity
  8
_0-0_計極細
  6
Continuous
 62
     2
100
AcDbLine
 10
701.2210600000037
 20
408.1676170000143
 30
0.0
 11
707.7652160000036
 21
408.1676170000143
 31
0.0
  0
LINE
  5
2FB
330
6F
100
AcDbEntity
  8
_0-0_計極細
  6
Continuous
 62
     2
100
AcDbLine
 10
731.2210600000037
 20
378.1676170000145
 30
0.0
 11
731.2210600000037
 21
384.7117730000143
 31
0.0
  0
ARC
  5
2FC
330
6F
100
AcDbEntity
  8
_0-0_計極細
  6
Continuous
 62
     2
100
AcDbCircle
 10
720.7210600000037
 20
991.9259470000143
 30
0.0
 40
22.51666
100
AcDbArc
 50
209.9999999999998
 51
329.9999999999994
  0
ARC
  5
2FD
330
6F
100
AcDbEntity
  8
_0-0_計極細
  6
Continuous
 62
     2
100
AcDbCircle
 10
720.7210600000037
 20
947.3726530000144
 30
0.0
 40
38.58503000000001
100
AcDbArc
 50
59.64359600000008
 51
120.356404
  0
LINE
  5
2FE
330
6F
100
AcDbEntity
  8
_0-0_計極細
  6
DASHED2
 62
     2
100
AcDbLine
 10
738.2210600000036
 20
970.6676170000145
 30
0.0
 11
703.2210600000037
 21
970.6676170000145
 31
0.0
  0
LINE
  5
2FF
330
6F
100
AcDbEntity
  8
_0-0_計極細
  6
DASHED2
 62
     2
100
AcDbLine
 10
738.2210600000036
 20
970.6676170000145
 30
0.0
 11
738.2210600000036
 21
962.6676170000145
 31
0.0
  0
LINE
  5
300
330
6F
100
AcDbEntity
  8
_0-0_計極細
  6
DASHED2
 62
     2
100
AcDbLine
 10
703.2210600000037
 20
970.6676170000145
 30
0.0
 11
703.2210600000037
 21
962.6676170000145
 31
0.0
  0
LINE
  5
301
330
6F
100
AcDbEntity
  8
_0-1_計細線
  6
Continuous
 62
     3
100
AcDbLine
 10
738.6851600000035
 20
962.6676170000145
 30
0.0
 11
702.7569580000037
 21
962.6676170000145
 31
0.0
  0
LINE
  5
302
330
6F
100
AcDbEntity
  8
_0-1_計細線
  6
Continuous
 62
     3
100
AcDbLine
 10
740.2210600000037
 20
965.6676170000144
 30
0.0
 11
740.2210600000037
 21
997.6676170000144
 31
0.0
  0
LINE
  5
303
330
6F
100
AcDbEntity
  8
_0-1_計細線
  6
Continuous
 62
     3
100
AcDbLine
 10
701.2210600000037
 20
965.6676170000144
 30
0.0
 11
701.2210600000037
 21
997.6676170000144
 31
0.0
  0
ARC
  5
304
330
6F
100
AcDbEntity
  8
_0-1_計細線
  6
Continuous
 62
     3
100
AcDbCircle
 10
706.2210600000037
 20
965.6676170000144
 30
0.0
 40
5.0
100
AcDbArc
 50
179.9999999999998
 51
209.9999999999996
  0
ARC
  5
305
330
6F
100
AcDbEntity
  8
_0-1_計細線
  6
Continuous
 62
     3
100
AcDbCircle
 10
735.2210600000037
 20
965.6676170000144
 30
0.0
 40
5.0
100
AcDbArc
 50
329.9999999999997
 51
359.9999999999997
  0
ARC
  5
306
330
6F
100
AcDbEntity
  8
_0-1_計細線
  6
Continuous
 62
     3
100
AcDbCircle
 10
738.6851600000035
 20
963.6676170000141
 30
0.0
 40
1.0
100
AcDbArc
 50
269.9999999999997
 51
330.0000000000024
  0
ARC
  5
307
330
6F
100
AcDbEntity
  8
_0-1_計細線
  6
Continuous
 62
     3
100
AcDbCircle
 10
702.7569580000037
 20
963.6676170000141
 30
0.0
 40
1.0
100
AcDbArc
 50
210.0000000000001
 51
269.9999999999997
  0
LINE
  5
308
330
6F
100
AcDbEntity
  8
_0-0_計極細
  6
CENTER1
 62
     2
100
AcDbLine
 10
1320.721060000003
 20
376.3615581501536
 30
0.0
 11
1320.721060000003
 21
418.3961260513931
 31
0.0
  0
LINE
  5
309
330
6F
100
AcDbEntity
  8
_0-0_計極細
  6
CENTER1
 62
     2
100
AcDbLine
 10
699.102852309333
 20
997.6676170000144
 30
0.0
 11
741.4732226797079
 21
997.6676170000144
 31
0.0
  0
LINE
  5
30A
330
6F
100
AcDbEntity
  8
_0-0_計極細
  6
CENTER2
 62
     2
100
AcDbLine
 10
699.1856197990442
 20
397.6676170000144
 30
0.0
 11
1337.721060000003
 21
397.6676170000144
 31
0.0
  0
LINE
  5
30B
330
6F
100
AcDbEntity
  8
_0-0_計極細
  6
CENTER2
 62
     2
100
AcDbLine
 10
720.7210600000037
 20
377.2654533261954
 30
0.0
 11
720.7210600000037
 21
1014.667617000014
 31
0.0
  0
LINE
  5
30C
330
6F
100
AcDbEntity
  8
_0-5_寸法線
  6
Continuous
 62
     7
100
AcDbLine
 10
689.2210600000037
 20
415.1676170000144
 30
0.0
 11
657.2210600000037
 21
415.1676170000144
 31
0.0
  0
LINE
  5
30D
330
6F
100
AcDbEntity
  8
_0-5_寸法線
  6
Continuous
 62
     7
100
AcDbLine
 10
663.2210600000036
 20
415.1676170000144
 30
0.0
 11
666.3268885412338
 21
403.5765070845456
 31
0.0
  0
LINE
  5
30E
330
6F
100
AcDbEntity
  8
_0-5_寸法線
  6
Continuous
 62
     7
100
AcDbLine
 10
663.2210600000036
 20
415.1676170000144
 30
0.0
 11
660.1152314587734
 21
403.5765070845456
 31
0.0
  0
LINE
  5
30F
330
6F
100
AcDbEntity
  8
_0-5_寸法線
  6
Continuous
 62
     7
100
AcDbLine
 10
690.7569580000036
 20
423.6676170000144
 30
0.0
 11
657.2210600000037
 21
423.6676170000145
 31
0.0
  0
LINE
  5
310
330
6F
100
AcDbEntity
  8
_0-5_寸法線
  6
Continuous
 62
     7
100
AcDbLine
 10
663.2210600000036
 20
423.6676170000145
 30
0.0
 11
660.1152314587734
 21
435.2587269154834
 31
0.0
  0
LINE
  5
311
330
6F
100
AcDbEntity
  8
_0-5_寸法線
  6
Continuous
 62
     7
100
AcDbLine
 10
663.2210600000036
 20
423.6676170000145
 30
0.0
 11
666.326888541234
 21
435.2587269154834
 31
0.0
  0
LINE
  5
312
330
6F
100
AcDbEntity
  8
_0-5_寸法線
  6
Continuous
 62
     7
100
AcDbLine
 10
663.2210600000036
 20
385.1676170000145
 30
0.0
 11
663.2210600000036
 21
453.6676170000145
 31
0.0
  0
TEXT
  5
313
330
6F
100
AcDbEntity
  8
_0-5_寸法線
 62
     7
100
AcDbText
 10
663.2210600000036
 20
415.0614757811951
 30
0.0
 40
21.0
  1
8.5
 50
90.0
100
AcDbText
  0
LINE
  5
314
330
6F
100
AcDbEntity
  8
_0-5_寸法線
  6
Continuous
 62
     7
100
AcDbLine
 10
691.2210600000037
 20
970.6676170000145
 30
0.0
 11
657.2210600000037
 21
970.6676170000145
 31
0.0
  0
LINE
  5
315
330
6F
100
AcDbEntity
  8
_0-5_寸法線
  6
Continuous
 62
     7
100
AcDbLine
 10
663.2210600000036
 20
970.6676170000145
 30
0.0
 11
660.1152314587734
 21
982.2587269154833
 31
0.0
  0
LINE
  5
316
330
6F
100
AcDbEntity
  8
_0-5_寸法線
  6
Continuous
 62
     7
100
AcDbLine
 10
663.2210600000036
 20
970.6676170000145
 30
0.0
 11
666.326888541234
 21
982.2587269154833
 31
0.0
  0
LINE
  5
317
330
6F
100
AcDbEntity
  8
_0-5_寸法線
  6
Continuous
 62
     7
100
AcDbLine
 10
691.2210600000037
 20
962.6676170000143
 30
0.0
 11
657.2210600000037
 21
962.6676170000143
 31
0.0
  0
LINE
  5
318
330
6F
100
AcDbEntity
  8
_0-5_寸法線
  6
Continuous
 62
     7
100
AcDbLine
 10
663.2210600000036
 20
962.6676170000143
 30
0.0
 11
666.3268885412338
 21
951.0765070845456
 31
0.0
  0
LINE
  5
319
330
6F
100
AcDbEntity
  8
_0-5_寸法線
  6
Continuous
 62
     7
100
AcDbLine
 10
663.2210600000036
 20
962.6676170000143
 30
0.0
 11
660.1152314587734
 21
951.0765070845456
 31
0.0
  0
LINE
  5
31A
330
6F
100
AcDbEntity
  8
_0-5_寸法線
  6
Continuous
 62
     7
100
AcDbLine
 10
663.2210600000036
 20
1000.667617000014
 30
0.0
 11
663.2210600000036
 21
932.6676170000144
 31
0.0
  0
TEXT
  5
31B
330
6F
100
AcDbEntity
  8
_0-5_寸法線
 62
     7
100
AcDbText
 10
663.2210600000036
 20
971.7109202257056
 30
0.0
 40
21.0
  1
8
 50
90.0
100
AcDbText
  0
LINE
  5
31C
330
6F
100
AcDbEntity
  8
_0-5_寸法線
  6
Continuous
 62
     7
100
AcDbLine
 10
708.7210600000036
 20
1014.667617000014
 30
0.0
 11
552.2210600000033
 21
1014.667617000015
 31
0.0
  0
LINE
  5
31D
330
6F
100
AcDbEntity
  8
_0-5_寸法線
  6
Continuous
 62
     7
100
AcDbLine
 10
558.2210600000032
 20
1014.667617000015
 30
0.0
 11
561.3268885412335
 21
1003.076507084546
 31
0.0
  0
LINE
  5
31E
330
6F
100
AcDbEntity
  8
_0-5_寸法線
  6
Continuous
 62
     7
100
AcDbLine
 10
558.2210600000032
 20
1014.667617000015
 30
0.0
 11
555.115231458773
 21
1003.076507084546
 31
0.0
  0
LINE
  5
31F
330
6F
100
AcDbEntity
  8
_0-5_寸法線
  6
Continuous
 62
     7
100
AcDbLine
 10
719.2210600000037
 20
378.1676170000145
 30
0.0
 11
552.2210600000042
 21
378.1676170000151
 31
0.0
  0
LINE
  5
320
330
6F
100
AcDbEntity
  8
_0-5_寸法線
  6
Continuous
 62
     7
100
AcDbLine
 10
558.2210600000043
 20
378.1676170000151
 30
0.0
 11
555.1152314587739
 21
389.7587269154839
 31
0.0
  0
LINE
  5
321
330
6F
100
AcDbEntity
  8
_0-5_寸法線
  6
Continuous
 62
     7
100
AcDbLine
 10
558.2210600000043
 20
378.1676170000151
 30
0.0
 11
561.3268885412345
 21
389.7587269154839
 31
0.0
  0
LINE
  5
322
330
6F
100
AcDbEntity
  8
_0-5_寸法線
  6
Continuous
 62
     7
100
AcDbLine
 10
558.2210600000032
 20
1014.667617000015
 30
0.0
 11
558.2210600000043
 21
378.1676170000151
 31
0.0
  0
TEXT
  5
323
330
6F
100
AcDbEntity
  8
_0-5_寸法線
 62
     7
100
AcDbText
 10
558.2210600000037
 20
672.792617000015
 30
0.0
 40
21.0
  1
637+3-0
 50
90.0
100
AcDbText
  0
LINE
  5
324
330
6F
100
AcDbEntity
  8
_0-5_寸法線
  6
Continuous
 62
     7
100
AcDbLine
 10
687.1856197990442
 20
397.6676170000145
 30
0.0
 11
587.2210600000037
 21
397.6676170000147
 31
0.0
  0
LINE
  5
325
330
6F
100
AcDbEntity
  8
_0-5_寸法線
  6
Continuous
 62
     7
100
AcDbLine
 10
593.2210600000037
 20
397.6676170000147
 30
0.0
 11
590.1152314587734
 21
409.2587269154836
 31
0.0
  0
LINE
  5
326
330
6F
100
AcDbEntity
  8
_0-5_寸法線
  6
Continuous
 62
     7
100
AcDbLine
 10
593.2210600000037
 20
397.6676170000147
 30
0.0
 11
596.326888541234
 21
409.2587269154834
 31
0.0
  0
LINE
  5
327
330
6F
100
AcDbEntity
  8
_0-5_寸法線
  6
Continuous
 62
     7
100
AcDbLine
 10
687.102852309333
 20
997.6676170000144
 30
0.0
 11
587.2210600000037
 21
997.6676170000148
 31
0.0
  0
LINE
  5
328
330
6F
100
AcDbEntity
  8
_0-5_寸法線
  6
Continuous
 62
     7
100
AcDbLine
 10
593.2210600000037
 20
997.6676170000148
 30
0.0
 11
596.326888541234
 21
986.0765070845459
 31
0.0
  0
LINE
  5
329
330
6F
100
AcDbEntity
  8
_0-5_寸法線
  6
Continuous
 62
     7
100
AcDbLine
 10
593.2210600000037
 20
997.6676170000148
 30
0.0
 11
590.1152314587734
 21
986.0765070845459
 31
0.0
  0
LINE
  5
32A
330
6F
100
AcDbEntity
  8
_0-5_寸法線
  6
Continuous
 62
     7
100
AcDbLine
 10
593.2210600000037
 20
397.6676170000147
 30
0.0
 11
593.2210600000037
 21
997.6676170000148
 31
0.0
  0
TEXT
  5
32B
330
6F
100
AcDbEntity
  8
_0-5_寸法線
 62
     7
100
AcDbText
 10
593.2210600000037
 20
674.0426170000148
 30
0.0
 40
21.0
  1
600+3-0
 50
90.0
100
AcDbText
  0
LINE
  5
32C
330
6F
100
AcDbEntity
  8
_0-5_寸法線
  6
Continuous
 62
     7
100
AcDbLine
 10
691.2210600000037
 20
415.1676170000144
 30
0.0
 11
622.2210600000037
 21
415.1676170000146
 31
0.0
  0
LINE
  5
32D
330
6F
100
AcDbEntity
  8
_0-5_寸法線
  6
Continuous
 62
     7
100
AcDbLine
 10
628.2210600000037
 20
415.1676170000146
 30
0.0
 11
625.1152314587734
 21
426.7587269154835
 31
0.0
  0
LINE
  5
32E
330
6F
100
AcDbEntity
  8
_0-5_寸法線
  6
Continuous
 62
     7
100
AcDbLine
 10
628.2210600000037
 20
415.1676170000146
 30
0.0
 11
631.3268885412339
 21
426.7587269154835
 31
0.0
  0
LINE
  5
32F
330
6F
100
AcDbEntity
  8
_0-5_寸法線
  6
Continuous
 62
     7
100
AcDbLine
 10
691.2210600000037
 20
970.6676170000145
 30
0.0
 11
622.2210600000037
 21
970.6676170000145
 31
0.0
  0
LINE
  5
330
330
6F
100
AcDbEntity
  8
_0-5_寸法線
  6
Continuous
 62
     7
100
AcDbLine
 10
628.2210600000037
 20
970.6676170000145
 30
0.0
 11
631.3268885412339
 21
959.0765070845456
 31
0.0
  0
LINE
  5
331
330
6F
100
AcDbEntity
  8
_0-5_寸法線
  6
Continuous
 62
     7
100
AcDbLine
 10
628.2210600000037
 20
970.6676170000145
 30
0.0
 11
625.1152314587734
 21
959.0765070845456
 31
0.0
  0
LINE
  5
332
330
6F
100
AcDbEntity
  8
_0-5_寸法線
  6
Continuous
 62
     7
100
AcDbLine
 10
628.2210600000037
 20
415.1676170000146
 30
0.0
 11
628.2210600000037
 21
970.6676170000145
 31
0.0
  0
TEXT
  5
333
330
6F
100
AcDbEntity
  8
_0-5_寸法線
 62
     7
100
AcDbText
 10
628.2210600000037
 20
669.2926170000145
 30
0.0
 40
21.0
  1
556+3-0
 50
90.0
100
AcDbText
  0
LINE
  5
334
330
6F
100
AcDbEntity
  8
_0-5_寸法線
  6
Continuous
 62
     7
100
AcDbLine
 10
1337.721059046329
 20
385.6676170000143
 30
0.0
 11
1337.721059046329
 21
264.1676168637289
 31
0.0
  0
LINE
  5
335
330
6F
100
AcDbEntity
  8
_0-5_寸法線
  6
Continuous
 62
     7
100
AcDbLine
 10
1337.721059046329
 20
270.1676168637289
 30
0.0
 11
1326.12994913086
 21
267.0617883224987
 31
0.0
  0
LINE
  5
336
330
6F
100
AcDbEntity
  8
_0-5_寸法線
  6
Continuous
 62
     7
100
AcDbLine
 10
1337.721059046329
 20
270.1676168637289
 30
0.0
 11
1326.12994913086
 21
273.2734454049591
 31
0.0
  0
LINE
  5
337
330
6F
100
AcDbEntity
  8
_0-5_寸法線
  6
Continuous
 62
     7
100
AcDbLine
 10
701.2210591124803
 20
396.1676170000144
 30
0.0
 11
701.2210598401398
 21
264.1676168637289
 31
0.0
  0
LINE
  5
338
330
6F
100
AcDbEntity
  8
_0-5_寸法線
  6
Continuous
 62
     7
100
AcDbLine
 10
701.2210598070643
 20
270.1676168637289
 30
0.0
 11
712.812169722533
 21
273.2734454049591
 31
0.0
  0
LINE
  5
339
330
6F
100
AcDbEntity
  8
_0-5_寸法線
  6
Continuous
 62
     7
100
AcDbLine
 10
701.2210598070643
 20
270.1676168637289
 30
0.0
 11
712.812169722533
 21
267.0617883224986
 31
0.0
  0
LINE
  5
33A
330
6F
100
AcDbEntity
  8
_0-5_寸法線
  6
Continuous
 62
     7
100
AcDbLine
 10
1337.721059046329
 20
270.1676168637289
 30
0.0
 11
701.2210598070643
 21
270.1676168637289
 31
0.0
  0
TEXT
  5
33B
330
6F
100
AcDbEntity
  8
_0-5_寸法線
 62
     7
100
AcDbText
 10
995.8460589498594
 20
270.1676155285849
 30
0.0
 40
21.0
  1
637+3-0
100
AcDbText
  0
LINE
  5
33C
330
6F
100
AcDbEntity
  8
_0-5_寸法線
  6
Continuous
 62
     7
100
AcDbLine
 10
720.7210593706848
 20
364.1321775087424
 30
0.0
 11
720.7210598057788
 21
299.167617817403
 31
0.0
  0
LINE
  5
33D
330
6F
100
AcDbEntity
  8
_0-5_寸法線
  6
Continuous
 62
     7
100
AcDbLine
 10
720.7210597655943
 20
305.167617817403
 30
0.0
 11
732.3121696810634
 21
308.2734463586332
 31
0.0
  0
LINE
  5
33E
330
6F
100
AcDbEntity
  8
_0-5_寸法線
  6
Continuous
 62
     7
100
AcDbLine
 10
720.7210597655943
 20
305.167617817403
 30
0.0
 11
732.3121696810634
 21
302.0617892761727
 31
0.0
  0
LINE
  5
33F
330
6F
100
AcDbEntity
  8
_0-5_寸法線
  6
Continuous
 62
     7
100
AcDbLine
 10
1320.721059367965
 20
364.0494100221703
 30
0.0
 11
1320.721059804767
 21
299.1676168637287
 31
0.0
  0
LINE
  5
340
330
6F
100
AcDbEntity
  8
_0-5_寸法線
  6
Continuous
 62
     7
100
AcDbLine
 10
1320.721059764373
 20
305.1676168637286
 30
0.0
 11
1309.129949848905
 21
302.0617883224984
 31
0.0
  0
LINE
  5
341
330
6F
100
AcDbEntity
  8
_0-5_寸法線
  6
Continuous
 62
     7
100
AcDbLine
 10
1320.721059764373
 20
305.1676168637286
 30
0.0
 11
1309.129949848905
 21
308.2734454049589
 31
0.0
  0
LINE
  5
342
330
6F
100
AcDbEntity
  8
_0-5_寸法線
  6
Continuous
 62
     7
100
AcDbLine
 10
720.7210597655943
 20
305.167617817403
 30
0.0
 11
1320.721059764373
 21
305.1676168637286
 31
0.0
  0
TEXT
  5
343
330
6F
100
AcDbEntity
  8
_0-5_寸法線
 62
     7
100
AcDbText
 10
997.0960597983628
 20
305.1676166729937
 30
0.0
 40
21.0
  1
600+3-0
100
AcDbText
  0
LINE
  5
344
330
6F
100
AcDbEntity
  8
_0-5_寸法線
  6
Continuous
 62
     7
100
AcDbLine
 10
738.2210598474156
 20
368.1676179536888
 30
0.0
 11
738.221059415083
 21
334.1676178174028
 31
0.0
  0
LINE
  5
345
330
6F
100
AcDbEntity
  8
_0-5_寸法線
  6
Continuous
 62
     7
100
AcDbLine
 10
738.2210594913771
 20
340.1676178174029
 30
0.0
 11
749.8121694121778
 21
343.2734463387337
 31
0.0
  0
LINE
  5
346
330
6F
100
AcDbEntity
  8
_0-5_寸法線
  6
Continuous
 62
     7
100
AcDbLine
 10
738.2210594913771
 20
340.1676178174029
 30
0.0
 11
749.8121694015138
 21
337.0617892562732
 31
0.0
  0
LINE
  5
347
330
6F
100
AcDbEntity
  8
_0-5_寸法線
  6
Continuous
 62
     7
100
AcDbLine
 10
1293.721058893741
 20
368.1676170000145
 30
0.0
 11
1293.721058461409
 21
334.1676168637288
 31
0.0
  0
LINE
  5
348
330
6F
100
AcDbEntity
  8
_0-5_寸法線
  6
Continuous
 62
     7
100
AcDbLine
 10
1293.721058537703
 20
340.1676168637288
 30
0.0
 11
1282.129948616902
 21
337.061788342398
 31
0.0
  0
LINE
  5
349
330
6F
100
AcDbEntity
  8
_0-5_寸法線
  6
Continuous
 62
     7
100
AcDbLine
 10
1293.721058537703
 20
340.1676168637288
 30
0.0
 11
1282.129948627566
 21
343.2734454248585
 31
0.0
  0
LINE
  5
34A
330
6F
100
AcDbEntity
  8
_0-5_寸法線
  6
Continuous
 62
     7
100
AcDbLine
 10
738.2210594913771
 20
340.1676178174029
 30
0.0
 11
1293.721058537703
 21
340.1676168637288
 31
0.0
  0
TEXT
  5
34B
330
6F
100
AcDbEntity
  8
_0-5_寸法線
 62
     7
100
AcDbText
 10
992.3460590145399
 20
340.1676173405658
 30
0.0
 40
21.0
  1
556+3-0
100
AcDbText
  0
LINE
  5
34C
330
6F
100
AcDbEntity
  8
_0-5_寸法線
  6
Continuous
 62
     7
100
AcDbLine
 10
701.2210600000037
 20
1009.667617000014
 30
0.0
 11
701.2210600000038
 21
1051.667617000014
 31
0.0
  0
LINE
  5
34D
330
6F
100
AcDbEntity
  8
_0-5_寸法線
  6
Continuous
 62
     7
100
AcDbLine
 10
701.2210600000038
 20
1045.667617000014
 30
0.0
 11
712.8121699154725
 21
1048.773445541245
 31
0.0
  0
LINE
  5
34E
330
6F
100
AcDbEntity
  8
_0-5_寸法線
  6
Continuous
 62
     7
100
AcDbLine
 10
701.2210600000038
 20
1045.667617000014
 30
0.0
 11
712.8121699154725
 21
1042.561788458784
 31
0.0
  0
LINE
  5
34F
330
6F
100
AcDbEntity
  8
_0-5_寸法線
  6
Continuous
 62
     7
100
AcDbLine
 10
740.2210600000037
 20
1009.667617000014
 30
0.0
 11
740.2210600000038
 21
1051.667617000014
 31
0.0
  0
LINE
  5
350
330
6F
100
AcDbEntity
  8
_0-5_寸法線
  6
Continuous
 62
     7
100
AcDbLine
 10
740.2210600000038
 20
1045.667617000014
 30
0.0
 11
728.629950084535
 21
1042.561788458784
 31
0.0
  0
LINE
  5
351
330
6F
100
AcDbEntity
  8
_0-5_寸法線
  6
Continuous
 62
     7
100
AcDbLine
 10
740.2210600000038
 20
1045.667617000014
 30
0.0
 11
728.629950084535
 21
1048.773445541245
 31
0.0
  0
LINE
  5
352
330
6F
100
AcDbEntity
  8
_0-5_寸法線
  6
Continuous
 62
     7
100
AcDbLine
 10
701.2210600000038
 20
1045.667617000014
 30
0.0
 11
740.2210600000038
 21
1045.667617000014
 31
0.0
  0
TEXT
  5
353
330
6F
100
AcDbEntity
  8
_0-5_寸法線
 62
     7
100
AcDbText
 10
710.2210600000038
 20
1045.667617000014
 30
0.0
 40
21.0
  1
39
100
AcDbText
  0
TEXT
  5
354
330
6F
100
AcDbEntity
  8
_0-7_枠細線
 62
     5
100
AcDbText
 10
1158.6
 20
132.0
 30
0.0
 40
24.0
  1
ＴＧＷＳ－３５Ｌ６００
 41
0.75
100
AcDbText
  0
TEXT
  5
355
330
6F
100
AcDbEntity
  8
_0-7_枠細線
 62
     5
100
AcDbText
 10
1432.799999999999
 20
141.0
 30
0.0
 40
24.0
  1
１：６
 41
0.6999999999999998
100
AcDbText
  0
TEXT
  5
356
330
6F
100
AcDbEntity
  8
_0-7_枠細線
 62
     5
100
AcDbText
 10
1572.0
 20
81.0
 30
0.0
 40
18.0
  1
２０１３年１０月２５日
 41
0.55
100
AcDbText
  0
TEXT
  5
357
330
6F
100
AcDbEntity
  8
_0-7_枠細線
 62
     5
100
AcDbText
 10
1196.108646523463
 20
780.4518749999743
 30
0.0
 40
18.0
  1
ナチュラル
 41
0.5999999999999999
100
AcDbText
  0
TEXT
  5
358
330
6F
100
AcDbEntity
  8
_0-7_枠細線
 62
     5
100
AcDbText
 10
1206.908646523463
 20
720.451874999974
 30
0.0
 40
18.0
  1
ダーク
 41
0.5999999999999999
100
AcDbText
  0
LINE
  5
359
330
6F
100
AcDbEntity
  8
_0-7_枠細線
  6
Continuous
 62
     5
100
AcDbLine
 10
1028.108646523463
 20
864.4518749999743
 30
0.0
 11
1028.108646523463
 21
714.451874999974
 31
0.0
  0
LINE
  5
35A
330
6F
100
AcDbEntity
  8
_0-7_枠細線
  6
Continuous
 62
     5
100
AcDbLine
 10
1178.108646523463
 20
864.4518749999743
 30
0.0
 11
1178.108646523463
 21
714.451874999974
 31
0.0
  0
TEXT
  5
35B
330
6F
100
AcDbEntity
  8
_0-7_枠細線
 62
     5
100
AcDbText
 10
1201.508646523463
 20
750.4518749999744
 30
0.0
 40
18.0
  1
ブラウン
 41
0.5999999999999999
100
AcDbText
  0
TEXT
  5
35C
330
6F
100
AcDbEntity
  8
_0-7_枠細線
 62
     5
100
AcDbText
 10
1072.849090967907
 20
825.4518749999743
 30
0.0
 40
18.0
  1
品　　番
 41
0.8000000000000001
100
AcDbText
  0
LINE
  5
35D
330
6F
100
AcDbEntity
  8
_0-7_枠細線
  6
Continuous
 62
     5
100
AcDbLine
 10
1028.108646523463
 20
864.4518749999743
 30
0.0
 11
1358.108646523462
 21
864.4518749999743
 31
0.0
  0
LINE
  5
35E
330
6F
100
AcDbEntity
  8
_0-7_枠細線
  6
Continuous
 62
     5
100
AcDbLine
 10
1028.108646523463
 20
804.4518749999744
 30
0.0
 11
1358.108646523462
 21
804.4518749999744
 31
0.0
  0
LINE
  5
35F
330
6F
100
AcDbEntity
  8
_0-7_枠細線
  6
Continuous
 62
     5
100
AcDbLine
 10
1028.108646523463
 20
714.451874999974
 30
0.0
 11
1358.108646523462
 21
714.451874999974
 31
0.0
  0
LINE
  5
360
330
6F
100
AcDbEntity
  8
_0-7_枠細線
  6
Continuous
 62
     5
100
AcDbLine
 10
1358.108646523462
 20
864.4518749999743
 30
0.0
 11
1358.108646523462
 21
714.451874999974
 31
0.0
  0
TEXT
  5
361
330
6F
100
AcDbEntity
  8
_0-7_枠細線
 62
     5
100
AcDbText
 10
1260.908646523463
 20
840.4518749999743
 30
0.0
 40
18.0
  1
色
 41
0.8000000000000001
100
AcDbText
  0
LINE
  5
362
330
6F
100
AcDbEntity
  8
_0-7_枠細線
  6
Continuous
 62
     5
100
AcDbLine
 10
1178.108646523463
 20
834.4518749999744
 30
0.0
 11
1358.108646523462
 21
834.4518749999744
 31
0.0
  0
LINE
  5
363
330
6F
100
AcDbEntity
  8
_0-7_枠細線
  6
Continuous
 62
     5
100
AcDbLine
 10
1268.108646523463
 20
834.4518749999744
 30
0.0
 11
1268.108646523463
 21
714.451874999974
 31
0.0
  0
TEXT
  5
364
330
6F
100
AcDbEntity
  8
_0-7_枠細線
 62
     5
100
AcDbText
 10
1194.308646523462
 20
810.4518749999744
 30
0.0
 40
18.0
  1
本　　体
 41
0.7999999999999999
100
AcDbText
  0
TEXT
  5
365
330
6F
100
AcDbEntity
  8
_0-7_枠細線
 62
     5
100
AcDbText
 10
1277.108646523462
 20
810.4518749999744
 30
0.0
 40
18.0
  1
ブラケット
 41
0.7999999999999999
100
AcDbText
  0
LINE
  5
366
330
6F
100
AcDbEntity
  8
_0-7_枠細線
  6
Continuous
 62
     5
100
AcDbLine
 10
1028.108646523463
 20
774.4518749999744
 30
0.0
 11
1268.108646523463
 21
774.4518749999744
 31
0.0
  0
LINE
  5
367
330
6F
100
AcDbEntity
  8
_0-7_枠細線
  6
Continuous
 62
     5
100
AcDbLine
 10
1028.108646523463
 20
744.4518749999744
 30
0.0
 11
1268.108646523463
 21
744.4518749999744
 31
0.0
  0
TEXT
  5
368
330
6F
100
AcDbEntity
  8
_0-7_枠細線
 62
     5
100
AcDbText
 10
1291.508646523463
 20
750.4518749999744
 30
0.0
 40
18.0
  1
シルバー
 41
0.5999999999999999
100
AcDbText
  0
LINE
  5
369
330
6F
100
AcDbEntity
  8
_0-7_枠細線
  6
Continuous
 62
     5
100
AcDbLine
 10
1399.399999999999
 20
774.4518749999744
 30
0.0
 11
1645.399999999998
 21
774.4518749999744
 31
0.0
  0
TEXT
  5
36A
330
6F
100
AcDbEntity
  8
_0-7_枠細線
 62
     5
100
AcDbText
 10
1417.399999999998
 20
780.4518749999743
 30
0.0
 40
18.0
  1
ブラケット
 41
0.7999999999999999
100
AcDbText
  0
LINE
  5
36B
330
6F
100
AcDbEntity
  8
_0-7_枠細線
  6
Continuous
 62
     5
100
AcDbLine
 10
1399.399999999999
 20
804.4518749999744
 30
0.0
 11
1645.399999999998
 21
804.4518749999744
 31
0.0
  0
TEXT
  5
36C
330
6F
100
AcDbEntity
  8
_0-7_枠細線
 62
     5
100
AcDbText
 10
1424.599999999998
 20
810.4518749999744
 30
0.0
 40
18.0
  1
本　　体
 41
0.7999999999999999
100
AcDbText
  0
LINE
  5
36D
330
6F
100
AcDbEntity
  8
_0-7_枠細線
  6
Continuous
 62
     5
100
AcDbLine
 10
1399.399999999999
 20
834.4518749999744
 30
0.0
 11
1645.399999999998
 21
834.4518749999744
 31
0.0
  0
LINE
  5
36E
330
6F
100
AcDbEntity
  8
_0-7_枠細線
  6
Continuous
 62
     5
100
AcDbLine
 10
1507.399999999998
 20
774.4518749999744
 30
0.0
 11
1507.399999999998
 21
864.4518749999743
 31
0.0
  0
LINE
  5
36F
330
6F
100
AcDbEntity
  8
_0-7_枠細線
  6
Continuous
 62
     5
100
AcDbLine
 10
1399.399999999999
 20
774.4518749999744
 30
0.0
 11
1399.399999999999
 21
864.4518749999743
 31
0.0
  0
LINE
  5
370
330
6F
100
AcDbEntity
  8
_0-7_枠細線
  6
Continuous
 62
     5
100
AcDbLine
 10
1399.399999999999
 20
864.4518749999743
 30
0.0
 11
1645.399999999998
 21
864.4518749999743
 31
0.0
  0
LINE
  5
371
330
6F
100
AcDbEntity
  8
_0-7_枠細線
  6
Continuous
 62
     5
100
AcDbLine
 10
1645.399999999998
 20
774.4518749999744
 30
0.0
 11
1645.399999999998
 21
864.4518749999743
 31
0.0
  0
TEXT
  5
372
330
6F
100
AcDbEntity
  8
_0-7_枠細線
 62
     5
100
AcDbText
 10
1448.899999999999
 20
870.4518749999744
 30
0.0
 40
21.0
  1
材質表
100
AcDbText
  0
TEXT
  5
373
330
6F
100
AcDbEntity
  8
_0-7_枠細線
 62
     5
100
AcDbText
 10
1424.599999999998
 20
840.4518749999743
 30
0.0
 40
18.0
  1
名　　称
 41
0.7999999999999999
100
AcDbText
  0
TEXT
  5
374
330
6F
100
AcDbEntity
  8
_0-7_枠細線
 62
     5
100
AcDbText
 10
1547.599999999998
 20
840.4518749999743
 30
0.0
 40
18.0
  1
材　　質
 41
0.7999999999999999
100
AcDbText
  0
TEXT
  5
375
330
6F
100
AcDbEntity
  8
_0-7_枠細線
 62
     5
100
AcDbText
 10
1554.799999999998
 20
810.4518749999744
 30
0.0
 40
18.0
  1
天然木
 41
0.7999999999999999
100
AcDbText
  0
TEXT
  5
376
330
6F
100
AcDbEntity
  8
_0-7_枠細線
 62
     5
100
AcDbText
 10
1547.599999999998
 20
780.4518749999743
 30
0.0
 40
18.0
  1
亜鉛合金
 41
0.7999999999999999
100
AcDbText
  0
TEXT
  5
377
330
6F
100
AcDbEntity
  8
_0-7_枠細線
 62
     5
100
AcDbText
 10
1119.565637141985
 20
870.4518749999744
 30
0.0
 40
21.0
  1
品番表
100
AcDbText
  0
TEXT
  5
378
330
6F
100
AcDbEntity
  8
_0-7_枠細線
 62
     5
100
AcDbText
 10
1032.245535412352
 20
780.4518749999743
 30
0.0
 40
18.0
  1
ＴＧＷＳ－３５Ｌ６００－Ｎ
 41
0.5
100
AcDbText
  0
TEXT
  5
379
330
6F
100
AcDbEntity
  8
_0-7_枠細線
 62
     5
100
AcDbText
 10
1032.245535412352
 20
750.4518749999744
 30
0.0
 40
18.0
  1
ＴＧＷＳ－３５Ｌ６００－Ｂ
 41
0.5
100
AcDbText
  0
TEXT
  5
37A
330
6F
100
AcDbEntity
  8
_0-7_枠細線
 62
     5
100
AcDbText
 10
1032.245535412352
 20
720.4518749999744
 30
0.0
 40
18.0
  1
ＴＧＷＳ－３５Ｌ６００－Ｄ
 41
0.5
100
AcDbText
  0
LINE
  5
37B
330
6F
100
AcDbEntity
  8
_0-5_寸法線
  6
Continuous
 62
     7
100
AcDbLine
 10
245.8626761552468
 20
397.6676166938646
 30
0.0
 11
217.3585423717775
 21
397.6676166938651
 31
0.0
  0
LINE
  5
37C
330
6F
100
AcDbEntity
  8
_0-5_寸法線
  6
Continuous
 62
     7
100
AcDbLine
 10
223.3585423717775
 20
397.667616693865
 30
0.0
 11
220.2527138305473
 21
409.2587266093337
 31
0.0
  0
LINE
  5
37D
330
6F
100
AcDbEntity
  8
_0-5_寸法線
  6
Continuous
 62
     7
100
AcDbLine
 10
223.3585423717775
 20
397.667616693865
 30
0.0
 11
226.4643709130077
 21
409.2587266093337
 31
0.0
  0
LINE
  5
37E
330
6F
100
AcDbEntity
  8
_0-5_寸法線
  6
Continuous
 62
     7
100
AcDbLine
 10
245.8626761552459
 20
997.6676170000144
 30
0.0
 11
217.3585423717766
 21
997.667617000015
 31
0.0
  0
LINE
  5
37F
330
6F
100
AcDbEntity
  8
_0-5_寸法線
  6
Continuous
 62
     7
100
AcDbLine
 10
223.3585423717766
 20
997.667617000015
 30
0.0
 11
226.4643709130068
 21
986.0765070845461
 31
0.0
  0
LINE
  5
380
330
6F
100
AcDbEntity
  8
_0-5_寸法線
  6
Continuous
 62
     7
100
AcDbLine
 10
223.3585423717766
 20
997.667617000015
 30
0.0
 11
220.2527138305464
 21
986.0765070845461
 31
0.0
  0
LINE
  5
381
330
6F
100
AcDbEntity
  8
_0-5_寸法線
  6
Continuous
 62
     7
100
AcDbLine
 10
223.3585423717775
 20
397.667616693865
 30
0.0
 11
223.3585423717766
 21
997.667617000015
 31
0.0
  0
TEXT
  5
382
330
6F
100
AcDbEntity
  8
_0-5_寸法線
 62
     7
100
AcDbText
 10
223.3585423717769
 20
674.0426168469402
 30
0.0
 40
21.0
  1
600+3-0
 50
89.99999999999991
100
AcDbText
  0
LINE
  5
383
330
6F
100
AcDbEntity
  8
_0-5_寸法線
  6
Continuous
 62
     7
100
AcDbLine
 10
703.2210600000037
 20
766.4239576510324
 30
0.0
 11
691.6299500845349
 21
763.3181291098022
 31
0.0
  0
LINE
  5
384
330
6F
100
AcDbEntity
  8
_0-5_寸法線
  6
Continuous
 62
     7
100
AcDbLine
 10
703.2210600000037
 20
766.4239576510324
 30
0.0
 11
691.6299500845349
 21
769.5297861922626
 31
0.0
  0
LINE
  5
385
330
6F
100
AcDbEntity
  8
_0-5_寸法線
  6
Continuous
 62
     7
100
AcDbLine
 10
738.2210600000036
 20
766.4239576510324
 30
0.0
 11
749.8121699154725
 21
769.5297861922624
 31
0.0
  0
LINE
  5
386
330
6F
100
AcDbEntity
  8
_0-5_寸法線
  6
Continuous
 62
     7
100
AcDbLine
 10
738.2210600000036
 20
766.4239576510324
 30
0.0
 11
749.8121699154725
 21
763.318129109802
 31
0.0
  0
LINE
  5
387
330
6F
100
AcDbEntity
  8
_0-5_寸法線
  6
Continuous
 62
     7
100
AcDbLine
 10
679.2210600000037
 20
766.4239576510324
 30
0.0
 11
779.6466666666672
 21
766.4239576510324
 31
0.0
  0
TEXT
  5
388
330
6F
100
AcDbEntity
  8
_0-5_寸法線
 62
     7
100
AcDbText
 10
737.6466666666672
 20
766.4239576510324
 30
0.0
 40
21.0
  1
\U+03C635
100
AcDbText
  0
LINE
  5
389
330
6F
100
AcDbEntity
  8
_0-5_寸法線
  6
Continuous
 62
     7
100
AcDbLine
 10
983.1417092861974
 20
380.1676170000145
 30
0.0
 11
986.2475378274275
 21
368.5765070845456
 31
0.0
  0
LINE
  5
38A
330
6F
100
AcDbEntity
  8
_0-5_寸法線
  6
Continuous
 62
     7
100
AcDbLine
 10
983.1417092861974
 20
380.1676170000145
 30
0.0
 11
980.0358807449672
 21
368.5765070845457
 31
0.0
  0
LINE
  5
38B
330
6F
100
AcDbEntity
  8
_0-5_寸法線
  6
Continuous
 62
     7
100
AcDbLine
 10
983.1417092861974
 20
415.1676170000142
 30
0.0
 11
980.0358807449672
 21
426.7587269154832
 31
0.0
  0
LINE
  5
38C
330
6F
100
AcDbEntity
  8
_0-5_寸法線
  6
Continuous
 62
     7
100
AcDbLine
 10
983.1417092861974
 20
415.1676170000142
 30
0.0
 11
986.2475378274275
 21
426.7587269154831
 31
0.0
  0
LINE
  5
38D
330
6F
100
AcDbEntity
  8
_0-5_寸法線
  6
Continuous
 62
     7
100
AcDbLine
 10
983.1417092861974
 20
356.1676170000144
 30
0.0
 11
983.1417092861974
 21
457.24
 31
0.0
  0
TEXT
  5
38E
330
6F
100
AcDbEntity
  8
_0-5_寸法線
 62
     7
100
AcDbText
 10
983.1417092861974
 20
415.24
 30
0.0
 40
21.0
  1
\U+03C635
 50
89.99999999999978
100
AcDbText
  0
TEXT
  5
38F
330
6F
100
AcDbEntity
  8
_0-7_枠細線
 62
     5
100
AcDbText
 10
1158.6
 20
168.0
 30
0.0
 40
24.0
  1
Ｌ型\U+03C6３５
 41
0.6999999999999999
100
AcDbText
  0
ENDSEC
  0
SECTION
  2
OBJECTS
  0
DICTIONARY
  5
C
330
0
100
AcDbDictionary
281
     1
  3
ACAD_CIP_PREVIOUS_PRODUCT_INFO
350
391
  3
ACAD_COLOR
350
62
  3
ACAD_DETAILVIEWSTYLE
350
69
  3
ACAD_GROUP
350
D
  3
ACAD_LAYOUT
350
61
  3
ACAD_MATERIAL
350
10
  3
ACAD_MLEADERSTYLE
350
65
  3
ACAD_MLINESTYLE
350
5E
  3
ACAD_PLOTSETTINGS
350
60
  3
ACAD_PLOTSTYLENAME
350
E
  3
ACAD_SCALELIST
350
42
  3
ACAD_SECTIONVIEWSTYLE
350
67
  3
ACAD_TABLESTYLE
350
63
  3
ACAD_VISUALSTYLE
350
29
  3
ACDB_RECOMPOSE_DATA
350
3CE
  3
AcDbVariableDictionary
350
39A
  3
AcDsDecomposeData
350
3D5
  3
DWGPROPS
350
3CF
  0
DICTIONARY
  5
3BA
330
2
100
AcDbDictionary
280
     1
281
     1
  3
ACAD_LAYERSTATES
360
3BB
  0
DICTIONARY
  5
3A9
330
54
100
AcDbDictionary
280
     1
281
     1
  3
ADSK_XREC_LAYER_RECONCILED
360
3AA
  0
DICTIONARY
  5
3AB
330
96
100
AcDbDictionary
280
     1
281
     1
  3
ADSK_XREC_LAYER_RECONCILED
360
3AC
  0
DICTIONARY
  5
3AD
330
97
100
AcDbDictionary
280
     1
281
     1
  3
ADSK_XREC_LAYER_RECONCILED
360
3AE
  0
DICTIONARY
  5
3AF
330
98
100
AcDbDictionary
280
     1
281
     1
  3
ADSK_XREC_LAYER_RECONCILED
360
3B0
  0
DICTIONARY
  5
3B1
330
99
100
AcDbDictionary
280
     1
281
     1
  3
ADSK_XREC_LAYER_RECONCILED
360
3B2
  0
DICTIONARY
  5
3B3
330
9A
100
AcDbDictionary
280
     1
281
     1
  3
ADSK_XREC_LAYER_RECONCILED
360
3B4
  0
DICTIONARY
  5
3B5
330
9B
100
AcDbDictionary
280
     1
281
     1
  3
ADSK_XREC_LAYER_RECONCILED
360
3B6
  0
XRECORD
  5
391
102
{ACAD_REACTORS
330
C
102
}
330
C
100
AcDbXrecord
280
     1
300
ACDLT
300
2014
300
ACDLT_F_S
  0
DICTIONARY
  5
62
102
{ACAD_REACTORS
330
C
102
}
330
C
100
AcDbDictionary
281
     1
  0
DICTIONARY
  5
69
102
{ACAD_REACTORS
330
C
102
}
330
C
100
AcDbDictionary
281
     1
  3
Imperial24
350
6A
  0
DICTIONARY
  5
D
102
{ACAD_REACTORS
330
C
102
}
330
C
100
AcDbDictionary
281
     1
  0
DICTIONARY
  5
61
102
{ACAD_REACTORS
330
C
102
}
330
C
100
AcDbDictionary
281
     1
  3
Model
350
72
  3
レイアウト1
350
6E
  0
DICTIONARY
  5
10
102
{ACAD_REACTORS
330
C
102
}
330
C
100
AcDbDictionary
281
     1
  3
ByBlock
350
19
  3
ByLayer
350
11
  3
Global
350
21
  0
DICTIONARY
  5
65
102
{ACAD_REACTORS
330
C
102
}
330
C
100
AcDbDictionary
281
     1
  3
Standard
350
66
  0
DICTIONARY
  5
5E
102
{ACAD_REACTORS
330
C
102
}
330
C
100
AcDbDictionary
281
     1
  3
Standard
350
5F
  0
DICTIONARY
  5
60
102
{ACAD_REACTORS
330
C
102
}
330
C
100
AcDbDictionary
281
     1
  0
ACDBDICTIONARYWDFLT
  5
E
102
{ACAD_REACTORS
330
C
102
}
330
C
100
AcDbDictionary
281
     1
  3
Normal
350
F
100
AcDbDictionaryWithDefault
340
F
  0
DICTIONARY
  5
42
102
{ACAD_REACTORS
330
C
102
}
330
C
100
AcDbDictionary
281
     1
  3
A0
350
43
  3
A1
350
44
  3
A2
350
45
  3
A3
350
46
  3
A4
350
47
  3
A5
350
48
  3
A6
350
49
  3
A7
350
4A
  3
A8
350
4B
  3
A9
350
4C
  3
B0
350
4D
  3
B1
350
4E
  3
B2
350
4F
  3
B3
350
50
  3
B4
350
51
  3
B5
350
52
  3
B6
350
53
  0
DICTIONARY
  5
67
102
{ACAD_REACTORS
330
C
102
}
330
C
100
AcDbDictionary
281
     1
  3
Imperial24
350
68
  0
DICTIONARY
  5
63
102
{ACAD_REACTORS
330
C
102
}
330
C
100
AcDbDictionary
281
     1
  3
Standard
350
64
  0
DICTIONARY
  5
29
102
{ACAD_REACTORS
330
C
102
}
330
C
100
AcDbDictionary
281
     1
  3
2dWireframe
350
2F
  3
Basic
350
2E
  3
Brighten
350
35
  3
ColorChange
350
39
  3
Conceptual
350
32
  3
Dim
350
34
  3
EdgeColorOff
350
41
  3
Facepattern
350
38
  3
Flat
350
2A
  3
FlatWithEdges
350
2B
  3
Gouraud
350
2C
  3
GouraudWithEdges
350
2D
  3
Hidden
350
31
  3
JitterOff
350
3F
  3
Linepattern
350
37
  3
OverhangOff
350
40
  3
Realistic
350
33
  3
Shaded
350
3E
  3
Shaded with edges
350
3D
  3
Shades of Gray
350
3A
  3
Sketchy
350
3B
  3
Thicken
350
36
  3
Wireframe
350
30
  3
X-Ray
350
3C
  0
XRECORD
  5
3CE
102
{ACAD_REACTORS
330
C
102
}
330
C
100
AcDbXrecord
280
     1
 90
        1
330
64
  0
DICTIONARY
  5
39A
102
{ACAD_REACTORS
330
C
102
}
330
C
100
AcDbDictionary
281
     1
  3
CANNOSCALE
350
3A0
  3
CMLEADERSTYLE
350
39C
  3
CTABLESTYLE
350
39B
  3
CVIEWDETAILSTYLE
350
39D
  3
CVIEWSECTIONSTYLE
350
39E
  3
DIMASSOC
350
3CA
  3
INDEXCTL
350
3C9
  3
LAYEREVAL
350
3A2
  3
LAYERNOTIFY
350
3A3
  3
LIGHTINGUNITS
350
3A1
  3
MSLTSCALE
350
39F
  3
SORTENTS
350
3C8
  3
XCLIPFRAME
350
3CB
  0
DICTIONARY
  5
3D5
102
{ACAD_REACTORS
330
C
102
}
330
C
100
AcDbDictionary
281
     1
  3
AcDsRecords
350
3D7
  3
AcDsSchemas
350
3D6
1001
ACAD
1070
     2
  0
XRECORD
  5
3CF
102
{ACAD_REACTORS
330
C
102
}
330
C
100
AcDbXrecord
280
     1
  1
DWGPROPS COOKIE
  2

  3

  4

  6

  7

  8
shima022
  9

300
=
301
=
302
=
303
=
304
=
305
=
306
=
307
=
308
=
309
=
 40
0.001231400462963
 41
2457255.459059723
 42
2457255.461035833
  1

 90
        0
  0
DICTIONARY
  5
3BB
102
{ACAD_REACTORS
330
3BA
102
}
330
3BA
100
AcDbDictionary
281
     1
  0
XRECORD
  5
3AA
102
{ACAD_REACTORS
330
3A9
102
}
330
3A9
100
AcDbXrecord
280
     1
290
     1
  0
XRECORD
  5
3AC
102
{ACAD_REACTORS
330
3AB
102
}
330
3AB
100
AcDbXrecord
280
     1
290
     1
  0
XRECORD
  5
3AE
102
{ACAD_REACTORS
330
3AD
102
}
330
3AD
100
AcDbXrecord
280
     1
290
     1
  0
XRECORD
  5
3B0
102
{ACAD_REACTORS
330
3AF
102
}
330
3AF
100
AcDbXrecord
280
     1
290
     1
  0
XRECORD
  5
3B2
102
{ACAD_REACTORS
330
3B1
102
}
330
3B1
100
AcDbXrecord
280
     1
290
     1
  0
XRECORD
  5
3B4
102
{ACAD_REACTORS
330
3B3
102
}
330
3B3
100
AcDbXrecord
280
     1
290
     1
  0
XRECORD
  5
3B6
102
{ACAD_REACTORS
330
3B5
102
}
330
3B5
100
AcDbXrecord
280
     1
290
     1
  0
ACDBDETAILVIEWSTYLE
  5
6A
102
{ACAD_XDICTIONARY
360
397
102
}
102
{ACAD_REACTORS
330
69
102
}
330
69
100
AcDbModelDocViewStyle
 70
     0
  3
Imperial24
290
     0
100
AcDbDetailViewStyle
 70
     0
 71
     0
 90
        3
 71
     1
340
55
 40
0.24
340
0
 40
0.24
300

 40
0.36
280
     3
 71
     2
340
5C
 90
       25
 71
     3
340
55
 40
0.24
 90
        1
 40
0.75
 90
        1
300
%<\AcVar ViewType \f "%tc1">% %<\AcVar ViewDetailId>%\PSCALE %<\AcVar ViewScale \f "%sn">%
 71
     4
340
5C
 90
       25
340
5C
 90
       25
280
     0
  0
LAYOUT
  5
72
102
{ACAD_XDICTIONARY
360
411
102
}
102
{ACAD_REACTORS
330
61
102
}
330
61
100
AcDbPlotSettings
  1

  2
RICOH MP C3503 JPN RPCS
  4

  6

 40
0.0
 41
0.0
 42
0.0
 43
0.0
 44
0.0
 45
0.0
 46
0.0
 47
0.0
 48
0.0
 49
0.0
140
0.0
141
0.0
142
1.0
143
1.0
 70
  1712
 72
     0
 73
     0
 74
     0
  7

 75
     0
147
1.0
148
0.0
149
0.0
100
AcDbLayout
  1
Model
 70
     1
 71
     0
 10
0.0
 20
0.0
 11
12.0
 21
9.0
 12
0.0
 22
0.0
 32
0.0
 14
0.0
 24
0.0
 34
0.0
 15
0.0
 25
0.0
 35
0.0
146
0.0
 13
0.0
 23
0.0
 33
0.0
 16
1.0
 26
0.0
 36
0.0
 17
0.0
 27
1.0
 37
0.0
 76
     0
330
6F
331
9E
  0
LAYOUT
  5
6E
102
{ACAD_XDICTIONARY
360
40F
102
}
102
{ACAD_REACTORS
330
61
102
}
330
61
100
AcDbPlotSettings
  1

  2
RICOH MP C3503 JPN RPCS
  4

  6

 40
0.0
 41
0.0
 42
0.0
 43
0.0
 44
0.0
 45
0.0
 46
0.0
 47
0.0
 48
0.0
 49
0.0
140
0.0
141
0.0
142
1.0
143
1.0
 70
   688
 72
     0
 73
     0
 74
     5
  7

 75
    16
147
1.0
148
0.0
149
0.0
100
AcDbLayout
  1
レイアウト1
 70
     1
 71
     1
 10
0.0
 20
0.0
 11
12.0
 21
9.0
 12
0.0
 22
0.0
 32
0.0
 14
1.000000000000000E+20
 24
1.000000000000000E+20
 34
1.000000000000000E+20
 15
-1.000000000000000E+20
 25
-1.000000000000000E+20
 35
-1.000000000000000E+20
146
0.0
 13
0.0
 23
0.0
 33
0.0
 16
1.0
 26
0.0
 36
0.0
 17
0.0
 27
1.0
 37
0.0
 76
     0
330
6B
  0
MATERIAL
  5
19
102
{ACAD_XDICTIONARY
360
1A
102
}
102
{ACAD_REACTORS
330
10
102
}
330
10
100
AcDbMaterial
  1
ByBlock
 72
     0
 43
0.0208333333333333
 43
0.0
 43
0.0
 43
0.0
 43
0.0
 43
0.0208333333333333
 43
0.0
 43
0.0
 43
0.0
 43
0.0
 43
1.0
 43
0.0
 43
0.0
 43
0.0
 43
0.0
 43
1.0
 77
     0
 47
0.0208333333333333
 47
0.0
 47
0.0
 47
0.0
 47
0.0
 47
0.0208333333333333
 47
0.0
 47
0.0
 47
0.0
 47
0.0
 47
1.0
 47
0.0
 47
0.0
 47
0.0
 47
0.0
 47
1.0
171
     0
 49
0.0208333333333333
 49
0.0
 49
0.0
 49
0.0
 49
0.0
 49
0.0208333333333333
 49
0.0
 49
0.0
 49
0.0
 49
0.0
 49
1.0
 49
0.0
 49
0.0
 49
0.0
 49
0.0
 49
1.0
175
     0
142
0.0208333333333333
142
0.0
142
0.0
142
0.0
142
0.0
142
0.0208333333333333
142
0.0
142
0.0
142
0.0
142
0.0
142
1.0
142
0.0
142
0.0
142
0.0
142
0.0
142
1.0
179
     0
144
0.0208333333333333
144
0.0
144
0.0
144
0.0
144
0.0
144
0.0208333333333333
144
0.0
144
0.0
144
0.0
144
0.0
144
1.0
144
0.0
144
0.0
144
0.0
144
0.0
144
1.0
147
0.0208333333333333
147
0.0
147
0.0
147
0.0
147
0.0
147
0.0208333333333333
147
0.0
147
0.0
147
0.0
147
0.0
147
1.0
147
0.0
147
0.0
147
0.0
147
0.0
147
1.0
  0
MATERIAL
  5
11
102
{ACAD_XDICTIONARY
360
12
102
}
102
{ACAD_REACTORS
330
10
102
}
330
10
100
AcDbMaterial
  1
ByLayer
 72
     0
 43
0.0208333333333333
 43
0.0
 43
0.0
 43
0.0
 43
0.0
 43
0.0208333333333333
 43
0.0
 43
0.0
 43
0.0
 43
0.0
 43
1.0
 43
0.0
 43
0.0
 43
0.0
 43
0.0
 43
1.0
 77
     0
 47
0.0208333333333333
 47
0.0
 47
0.0
 47
0.0
 47
0.0
 47
0.0208333333333333
 47
0.0
 47
0.0
 47
0.0
 47
0.0
 47
1.0
 47
0.0
 47
0.0
 47
0.0
 47
0.0
 47
1.0
171
     0
 49
0.0208333333333333
 49
0.0
 49
0.0
 49
0.0
 49
0.0
 49
0.0208333333333333
 49
0.0
 49
0.0
 49
0.0
 49
0.0
 49
1.0
 49
0.0
 49
0.0
 49
0.0
 49
0.0
 49
1.0
175
     0
142
0.0208333333333333
142
0.0
142
0.0
142
0.0
142
0.0
142
0.0208333333333333
142
0.0
142
0.0
142
0.0
142
0.0
142
1.0
142
0.0
142
0.0
142
0.0
142
0.0
142
1.0
179
     0
144
0.0208333333333333
144
0.0
144
0.0
144
0.0
144
0.0
144
0.0208333333333333
144
0.0
144
0.0
144
0.0
144
0.0
144
1.0
144
0.0
144
0.0
144
0.0
144
0.0
144
1.0
147
0.0208333333333333
147
0.0
147
0.0
147
0.0
147
0.0
147
0.0208333333333333
147
0.0
147
0.0
147
0.0
147
0.0
147
1.0
147
0.0
147
0.0
147
0.0
147
0.0
147
1.0
  0
MATERIAL
  5
21
102
{ACAD_XDICTIONARY
360
22
102
}
102
{ACAD_REACTORS
330
10
102
}
330
10
100
AcDbMaterial
  1
Global
 72
     0
 43
0.0208333333333333
 43
0.0
 43
0.0
 43
0.0
 43
0.0
 43
0.0208333333333333
 43
0.0
 43
0.0
 43
0.0
 43
0.0
 43
1.0
 43
0.0
 43
0.0
 43
0.0
 43
0.0
 43
1.0
 77
     0
 47
0.0208333333333333
 47
0.0
 47
0.0
 47
0.0
 47
0.0
 47
0.0208333333333333
 47
0.0
 47
0.0
 47
0.0
 47
0.0
 47
1.0
 47
0.0
 47
0.0
 47
0.0
 47
0.0
 47
1.0
171
     0
 49
0.0208333333333333
 49
0.0
 49
0.0
 49
0.0
 49
0.0
 49
0.0208333333333333
 49
0.0
 49
0.0
 49
0.0
 49
0.0
 49
1.0
 49
0.0
 49
0.0
 49
0.0
 49
0.0
 49
1.0
175
     0
142
0.0208333333333333
142
0.0
142
0.0
142
0.0
142
0.0
142
0.0208333333333333
142
0.0
142
0.0
142
0.0
142
0.0
142
1.0
142
0.0
142
0.0
142
0.0
142
0.0
142
1.0
179
     0
144
0.0208333333333333
144
0.0
144
0.0
144
0.0
144
0.0
144
0.0208333333333333
144
0.0
144
0.0
144
0.0
144
0.0
144
1.0
144
0.0
144
0.0
144
0.0
144
0.0
144
1.0
147
0.0208333333333333
147
0.0
147
0.0
147
0.0
147
0.0
147
0.0208333333333333
147
0.0
147
0.0
147
0.0
147
0.0
147
1.0
147
0.0
147
0.0
147
0.0
147
0.0
147
1.0
  0
MLEADERSTYLE
  5
66
102
{ACAD_REACTORS
330
65
102
}
330
65
100
AcDbMLeaderStyle
170
     2
171
     1
172
     0
 90
        2
 40
0.0
 41
0.0
173
     1
 91
-1056964608
340
5A
 92
       -2
290
     1
 42
0.09
291
     1
 43
0.36
  3
Standard
 44
0.18
300

342
55
174
     1
178
     6
175
     1
176
     0
 93
-1056964608
 45
0.18
292
     0
297
     0
 46
0.18
 94
-1056964608
 47
1.0
 49
1.0
140
1.0
293
     1
141
0.0
294
     1
177
     0
142
1.0
295
     0
296
     0
143
0.125
1001
ACAD_MLEADERVER
1070
     2
  0
MLINESTYLE
  5
5F
102
{ACAD_REACTORS
330
5E
102
}
330
5E
100
AcDbMlineStyle
  2
STANDARD
 70
     0
  3

 62
   256
 51
90.0
 52
90.0
 71
     2
 49
0.5
 62
   256
  6
BYLAYER
 49
-0.5
 62
   256
  6
BYLAYER
  0
ACDBPLACEHOLDER
  5
F
102
{ACAD_REACTORS
330
E
102
}
330
E
  0
SCALE
  5
43
102
{ACAD_REACTORS
330
42
102
}
330
42
100
AcDbScale
 70
     0
300
1:1
140
1.0
141
1.0
290
     1
  0
SCALE
  5
44
102
{ACAD_REACTORS
330
42
102
}
330
42
100
AcDbScale
 70
     0
300
1/128" = 1'-0"
140
0.0078125
141
12.0
290
     0
  0
SCALE
  5
45
102
{ACAD_REACTORS
330
42
102
}
330
42
100
AcDbScale
 70
     0
300
1/64" = 1'-0"
140
0.015625
141
12.0
290
     0
  0
SCALE
  5
46
102
{ACAD_REACTORS
330
42
102
}
330
42
100
AcDbScale
 70
     0
300
1/32" = 1'-0"
140
0.03125
141
12.0
290
     0
  0
SCALE
  5
47
102
{ACAD_REACTORS
330
42
102
}
330
42
100
AcDbScale
 70
     0
300
1/16" = 1'-0"
140
0.0625
141
12.0
290
     0
  0
SCALE
  5
48
102
{ACAD_REACTORS
330
42
102
}
330
42
100
AcDbScale
 70
     0
300
3/32" = 1'-0"
140
0.09375
141
12.0
290
     0
  0
SCALE
  5
49
102
{ACAD_REACTORS
330
42
102
}
330
42
100
AcDbScale
 70
     0
300
1/8" = 1'-0"
140
0.125
141
12.0
290
     0
  0
SCALE
  5
4A
102
{ACAD_REACTORS
330
42
102
}
330
42
100
AcDbScale
 70
     0
300
3/16" = 1'-0"
140
0.1875
141
12.0
290
     0
  0
SCALE
  5
4B
102
{ACAD_REACTORS
330
42
102
}
330
42
100
AcDbScale
 70
     0
300
1/4" = 1'-0"
140
0.25
141
12.0
290
     0
  0
SCALE
  5
4C
102
{ACAD_REACTORS
330
42
102
}
330
42
100
AcDbScale
 70
     0
300
3/8" = 1'-0"
140
0.375
141
12.0
290
     0
  0
SCALE
  5
4D
102
{ACAD_REACTORS
330
42
102
}
330
42
100
AcDbScale
 70
     0
300
1/2" = 1'-0"
140
0.5
141
12.0
290
     0
  0
SCALE
  5
4E
102
{ACAD_REACTORS
330
42
102
}
330
42
100
AcDbScale
 70
     0
300
3/4" = 1'-0"
140
0.75
141
12.0
290
     0
  0
SCALE
  5
4F
102
{ACAD_REACTORS
330
42
102
}
330
42
100
AcDbScale
 70
     0
300
1" = 1'-0"
140
1.0
141
12.0
290
     0
  0
SCALE
  5
50
102
{ACAD_REACTORS
330
42
102
}
330
42
100
AcDbScale
 70
     0
300
1-1/2" = 1'-0"
140
1.5
141
12.0
290
     0
  0
SCALE
  5
51
102
{ACAD_REACTORS
330
42
102
}
330
42
100
AcDbScale
 70
     0
300
3" = 1'-0"
140
3.0
141
12.0
290
     0
  0
SCALE
  5
52
102
{ACAD_REACTORS
330
42
102
}
330
42
100
AcDbScale
 70
     0
300
6" = 1'-0"
140
6.0
141
12.0
290
     0
  0
SCALE
  5
53
102
{ACAD_REACTORS
330
42
102
}
330
42
100
AcDbScale
 70
     0
300
1'-0" = 1'-0"
140
12.0
141
12.0
290
     0
  0
ACDBSECTIONVIEWSTYLE
  5
68
102
{ACAD_XDICTIONARY
360
395
102
}
102
{ACAD_REACTORS
330
67
102
}
330
67
100
AcDbModelDocViewStyle
 70
     0
  3
Imperial24
290
     0
100
AcDbSectionViewStyle
 70
     0
 71
     0
 90
       78
 71
     1
340
55
 40
0.24
340
0
340
0
 40
0.24
300
I, O, Q, S, X, Z
 40
0.48
 90
        3
 40
0.18
 90
        1
 71
     2
340
5C
 90
       25
340
5C
 90
       50
 40
0.24
 40
0.0
 40
0.24
 71
     3
340
55
 40
0.24
 90
        1
 40
0.75
 90
        1
300
%<\AcVar ViewType \f "%tc1">% %<\AcVar ViewSectionStartId>%-%<\AcVar ViewSectionEndId>%\PSCALE %<\AcVar ViewScale \f "%sn">%
 71
     4
300
ANSI31
 40
1.0
 90
        0
290
     0
290
     0
 90
        6
 40
0.0
 40
1.570796326794896
 40
0.2617993877991494
 40
1.308996938995747
 40
-0.2617993877991494
 40
1.832595714594046
  0
TABLESTYLE
  5
64
102
{ACAD_XDICTIONARY
360
3CC
102
}
102
{ACAD_REACTORS
330
63
102
}
330
63
100
AcDbTableStyle
  3
Standard
 70
     0
 71
     0
 40
0.06
 41
0.06
280
     0
281
     0
  7
STANDARD
140
0.18
170
     2
 62
     0
 63
     7
283
     0
274
    -2
284
     1
 64
     0
275
    -2
285
     1
 65
     0
276
    -2
286
     1
 66
     0
277
    -2
287
     1
 67
     0
278
    -2
288
     1
 68
     0
279
    -2
289
     1
 69
     0
  7
STANDARD
140
0.25
170
     5
 62
     0
 63
     7
283
     0
274
    -2
284
     1
 64
     0
275
    -2
285
     1
 65
     0
276
    -2
286
     1
 66
     0
277
    -2
287
     1
 67
     0
278
    -2
288
     1
 68
     0
279
    -2
289
     1
 69
     0
  7
STANDARD
140
0.18
170
     5
 62
     0
 63
     7
283
     0
274
    -2
284
     1
 64
     0
275
    -2
285
     1
 65
     0
276
    -2
286
     1
 66
     0
277
    -2
287
     1
 67
     0
278
    -2
288
     1
 68
     0
279
    -2
289
     1
 69
     0
  0
VISUALSTYLE
  5
2F
102
{ACAD_XDICTIONARY
360
3E5
102
}
102
{ACAD_REACTORS
330
29
102
}
330
29
100
AcDbVisualStyle
  2
2dWireframe
 70
     4
 71
     0
 72
     2
 73
     0
 90
        0
 40
-0.6
 41
-30.0
 62
     5
 63
     7
 74
     1
 91
        4
 64
     7
 65
   257
 75
     1
175
     1
 42
1.0
 92
        0
 66
   257
 43
1.0
 76
     1
 77
     6
 78
     2
 67
     7
 79
     5
170
     0
171
     0
290
     0
174
     0
 93
        1
 44
0.0
173
     0
291
     0
 45
0.0
1001
ACAD
1000
AcDbSavedByObjectVersion
1070
     0
  0
VISUALSTYLE
  5
2E
102
{ACAD_XDICTIONARY
360
3E3
102
}
102
{ACAD_REACTORS
330
29
102
}
330
29
100
AcDbVisualStyle
  2
Basic
 70
     7
 71
     1
 72
     0
 73
     1
 90
        0
 40
-0.6
 41
-30.0
 62
     5
 63
     7
 74
     0
 91
        4
 64
     7
 65
   257
 75
     1
175
     1
 42
1.0
 92
        8
 66
     7
 43
1.0
 76
     1
 77
     6
 78
     2
 67
     7
 79
     5
170
     0
171
     0
290
     0
174
     0
 93
        1
 44
0.0
173
     0
291
     1
 45
0.0
1001
ACAD
1000
AcDbSavedByObjectVersion
1070
     0
  0
VISUALSTYLE
  5
35
102
{ACAD_XDICTIONARY
360
3F1
102
}
102
{ACAD_REACTORS
330
29
102
}
330
29
100
AcDbVisualStyle
  2
Brighten
 70
    12
 71
     2
 72
     2
 73
     0
 90
        0
 40
-0.6
 41
-30.0
 62
     5
 63
     7
 74
     1
 91
        4
 64
     7
 65
   257
 75
     1
175
     1
 42
1.0
 92
        8
 66
     7
 43
1.0
 76
     1
 77
     6
 78
     2
 67
     7
 79
     5
170
     0
171
     0
290
     0
174
     0
 93
        1
 44
50.0
173
     0
291
     1
 45
0.0
1001
ACAD
1000
AcDbSavedByObjectVersion
1070
     0
  0
VISUALSTYLE
  5
39
102
{ACAD_XDICTIONARY
360
3F9
102
}
102
{ACAD_REACTORS
330
29
102
}
330
29
100
AcDbVisualStyle
  2
ColorChange
 70
    16
 71
     2
 72
     2
 73
     3
 90
        0
 40
-0.6
 41
-30.0
 62
     5
 63
     8
 74
     1
 91
        4
 64
     7
 65
   257
 75
     1
175
     1
 42
1.0
 92
        8
 66
     8
 43
1.0
 76
     1
 77
     6
 78
     2
 67
     7
 79
     5
170
     0
171
     0
290
     0
174
     0
 93
        1
 44
0.0
173
     0
291
     1
 45
0.0
1001
ACAD
1000
AcDbSavedByObjectVersion
1070
     0
  0
VISUALSTYLE
  5
32
102
{ACAD_XDICTIONARY
360
3EB
102
}
102
{ACAD_REACTORS
330
29
102
}
330
29
100
AcDbVisualStyle
  2
Conceptual
 70
     9
 71
     3
 72
     2
 73
     0
 90
        0
 40
-0.6
 41
-30.0
 62
     5
 63
     7
 74
     2
 91
        2
 64
     7
 65
   257
 75
     1
175
     1
 42
179.0
 92
        8
 66
     7
 43
1.0
 76
     1
 77
     6
 78
     2
 67
     7
 79
     3
170
     0
171
     0
290
     0
174
     0
 93
        1
 44
0.0
173
     0
291
     0
 45
0.0
1001
ACAD
1000
AcDbSavedByObjectVersion
1070
     0
  0
VISUALSTYLE
  5
34
102
{ACAD_XDICTIONARY
360
3EF
102
}
102
{ACAD_REACTORS
330
29
102
}
330
29
100
AcDbVisualStyle
  2
Dim
 70
    11
 71
     2
 72
     2
 73
     0
 90
        0
 40
-0.6
 41
-30.0
 62
     5
 63
     7
 74
     1
 91
        4
 64
     7
 65
   257
 75
     1
175
     1
 42
1.0
 92
        8
 66
     7
 43
1.0
 76
     1
 77
     6
 78
     2
 67
     7
 79
     5
170
     0
171
     0
290
     0
174
     0
 93
        1
 44
-50.0
173
     0
291
     1
 45
0.0
1001
ACAD
1000
AcDbSavedByObjectVersion
1070
     0
  0
VISUALSTYLE
  5
41
102
{ACAD_XDICTIONARY
360
409
102
}
102
{ACAD_REACTORS
330
29
102
}
330
29
100
AcDbVisualStyle
  2
EdgeColorOff
 70
    22
 71
     2
 72
     2
 73
     0
 90
        0
 40
-0.6
 41
-30.0
 62
     5
 63
     7
 74
     1
 91
        4
 64
     7
 65
   257
 75
     1
175
     1
 42
1.0
 92
        8
 66
     7
 43
1.0
 76
     1
 77
     6
 78
     2
 67
     7
 79
     5
170
     0
171
     0
290
     0
174
     0
 93
        1
 44
0.0
173
     0
291
     1
 45
0.0
1001
ACAD
1000
AcDbSavedByObjectVersion
1070
     0
  0
VISUALSTYLE
  5
38
102
{ACAD_XDICTIONARY
360
3F7
102
}
102
{ACAD_REACTORS
330
29
102
}
330
29
100
AcDbVisualStyle
  2
Facepattern
 70
    15
 71
     2
 72
     2
 73
     0
 90
        0
 40
-0.6
 41
-30.0
 62
     5
 63
     7
 74
     1
 91
        4
 64
     7
 65
   257
 75
     1
175
     1
 42
1.0
 92
        8
 66
     7
 43
1.0
 76
     1
 77
     6
 78
     2
 67
     7
 79
     5
170
     0
171
     0
290
     0
174
     0
 93
        1
 44
0.0
173
     0
291
     1
 45
0.0
1001
ACAD
1000
AcDbSavedByObjectVersion
1070
     0
  0
VISUALSTYLE
  5
2A
102
{ACAD_XDICTIONARY
360
3DB
102
}
102
{ACAD_REACTORS
330
29
102
}
330
29
100
AcDbVisualStyle
  2
Flat
 70
     0
 71
     2
 72
     1
 73
     1
 90
        2
 40
-0.6
 41
30.0
 62
     5
 63
     7
 74
     0
 91
        0
 64
     7
 65
   257
 75
     1
175
     1
 42
1.0
 92
        8
 66
     7
 43
1.0
 76
     1
 77
     6
 78
     2
 67
     7
 79
     5
170
     0
171
     0
290
     0
174
     0
 93
       13
 44
0.0
173
     0
291
     1
 45
0.0
1001
ACAD
1000
AcDbSavedByObjectVersion
1070
     0
  0
VISUALSTYLE
  5
2B
102
{ACAD_XDICTIONARY
360
3DD
102
}
102
{ACAD_REACTORS
330
29
102
}
330
29
100
AcDbVisualStyle
  2
FlatWithEdges
 70
     1
 71
     2
 72
     1
 73
     1
 90
        2
 40
-0.6
 41
30.0
 62
     5
 63
     7
 74
     1
 91
        0
 64
     7
 65
   257
 75
     1
175
     1
 42
1.0
 92
        0
 66
   257
 43
1.0
 76
     1
 77
     6
 78
     2
 67
     7
 79
     5
170
     0
171
     0
290
     0
174
     0
 93
       13
 44
0.0
173
     0
291
     1
 45
0.0
1001
ACAD
1000
AcDbSavedByObjectVersion
1070
     0
  0
VISUALSTYLE
  5
2C
102
{ACAD_XDICTIONARY
360
3DF
102
}
102
{ACAD_REACTORS
330
29
102
}
330
29
100
AcDbVisualStyle
  2
Gouraud
 70
     2
 71
     2
 72
     2
 73
     1
 90
        2
 40
-0.6
 41
30.0
 62
     5
 63
     7
 74
     0
 91
        0
 64
     7
 65
   257
 75
     1
175
     1
 42
1.0
 92
        0
 66
     7
 43
1.0
 76
     1
 77
     6
 78
     2
 67
     7
 79
     5
170
     0
171
     0
290
     0
174
     0
 93
       13
 44
0.0
173
     0
291
     1
 45
0.0
1001
ACAD
1000
AcDbSavedByObjectVersion
1070
     0
  0
VISUALSTYLE
  5
2D
102
{ACAD_XDICTIONARY
360
3E1
102
}
102
{ACAD_REACTORS
330
29
102
}
330
29
100
AcDbVisualStyle
  2
GouraudWithEdges
 70
     3
 71
     2
 72
     2
 73
     1
 90
        2
 40
-0.6
 41
30.0
 62
     5
 63
     7
 74
     1
 91
        0
 64
     7
 65
   257
 75
     1
175
     1
 42
1.0
 92
        0
 66
   257
 43
1.0
 76
     1
 77
     6
 78
     2
 67
     7
 79
     5
170
     0
171
     0
290
     0
174
     0
 93
       13
 44
0.0
173
     0
291
     1
 45
0.0
1001
ACAD
1000
AcDbSavedByObjectVersion
1070
     0
  0
VISUALSTYLE
  5
31
102
{ACAD_XDICTIONARY
360
3E9
102
}
102
{ACAD_REACTORS
330
29
102
}
330
29
100
AcDbVisualStyle
  2
Hidden
 70
     6
 71
     1
 72
     2
 73
     2
 90
        0
 40
-0.6
 41
-30.0
 62
     5
 63
     7
 74
     2
 91
        2
 64
     7
 65
   257
 75
     2
175
     1
 42
40.0
 92
        0
 66
   257
 43
1.0
 76
     1
 77
     6
 78
     2
 67
     7
 79
     3
170
     0
171
     0
290
     0
174
     0
 93
        1
 44
0.0
173
     0
291
     0
 45
0.0
1001
ACAD
1000
AcDbSavedByObjectVersion
1070
     0
  0
VISUALSTYLE
  5
3F
102
{ACAD_XDICTIONARY
360
405
102
}
102
{ACAD_REACTORS
330
29
102
}
330
29
100
AcDbVisualStyle
  2
JitterOff
 70
    20
 71
     2
 72
     2
 73
     0
 90
        0
 40
-0.6
 41
-30.0
 62
     5
 63
     7
 74
     1
 91
        4
 64
     7
 65
   257
 75
     1
175
     1
 42
1.0
 92
       10
 66
     7
 43
1.0
 76
     1
 77
     6
 78
     2
 67
     7
 79
     5
170
     0
171
     0
290
     0
174
     0
 93
        1
 44
0.0
173
     0
291
     1
 45
0.0
1001
ACAD
1000
AcDbSavedByObjectVersion
1070
     0
  0
VISUALSTYLE
  5
37
102
{ACAD_XDICTIONARY
360
3F5
102
}
102
{ACAD_REACTORS
330
29
102
}
330
29
100
AcDbVisualStyle
  2
Linepattern
 70
    14
 71
     2
 72
     2
 73
     0
 90
        0
 40
-0.6
 41
-30.0
 62
     5
 63
     7
 74
     1
 91
        4
 64
     7
 65
   257
 75
     7
175
     7
 42
1.0
 92
        8
 66
     7
 43
1.0
 76
     1
 77
     6
 78
     2
 67
     7
 79
     5
170
     0
171
     0
290
     0
174
     0
 93
        1
 44
0.0
173
     0
291
     1
 45
0.0
1001
ACAD
1000
AcDbSavedByObjectVersion
1070
     0
  0
VISUALSTYLE
  5
40
102
{ACAD_XDICTIONARY
360
407
102
}
102
{ACAD_REACTORS
330
29
102
}
330
29
100
AcDbVisualStyle
  2
OverhangOff
 70
    21
 71
     2
 72
     2
 73
     0
 90
        0
 40
-0.6
 41
-30.0
 62
     5
 63
     7
 74
     1
 91
        4
 64
     7
 65
   257
 75
     1
175
     1
 42
1.0
 92
        9
 66
     7
 43
1.0
 76
     1
 77
     6
 78
     2
 67
     7
 79
     5
170
     0
171
     0
290
     0
174
     0
 93
        1
 44
0.0
173
     0
291
     1
 45
0.0
1001
ACAD
1000
AcDbSavedByObjectVersion
1070
     0
  0
VISUALSTYLE
  5
33
102
{ACAD_XDICTIONARY
360
3ED
102
}
102
{ACAD_REACTORS
330
29
102
}
330
29
100
AcDbVisualStyle
  2
Realistic
 70
     8
 71
     2
 72
     3
 73
     0
 90
        2
 40
-0.6
 41
30.0
 62
     5
 63
     7
 74
     0
 91
        0
 64
     7
 65
   257
 75
     1
175
     1
 42
1.0
 92
        8
 66
   257
 43
1.0
 76
     1
 77
     6
 78
     2
 67
     7
 79
     3
170
     0
171
     0
290
     0
174
     0
 93
       13
 44
0.0
173
     0
291
     0
 45
0.0
1001
ACAD
1000
AcDbSavedByObjectVersion
1070
     0
  0
VISUALSTYLE
  5
3E
102
{ACAD_XDICTIONARY
360
403
102
}
102
{ACAD_REACTORS
330
29
102
}
330
29
100
AcDbVisualStyle
  2
Shaded
 70
    27
 71
     2
 72
     2
 73
     1
 90
        2
 40
-0.6
 41
30.0
 62
     5
 63
     7
 74
     0
 91
        4
 64
     7
 65
   257
 75
     1
175
     1
 42
1.0
 92
        8
 66
   257
 43
1.0
 76
     1
 77
     6
 78
     2
 67
     8
 79
     3
170
     0
171
     0
290
     0
174
     0
 93
        5
 44
0.0
173
     0
291
     0
 45
0.0
1001
ACAD
1000
AcDbSavedByObjectVersion
1070
     0
  0
VISUALSTYLE
  5
3D
102
{ACAD_XDICTIONARY
360
401
102
}
102
{ACAD_REACTORS
330
29
102
}
330
29
100
AcDbVisualStyle
  2
Shaded with edges
 70
    26
 71
     2
 72
     2
 73
     1
 90
        2
 40
-0.6
 41
30.0
 62
     5
 63
     7
 74
     1
 91
       10
 64
     7
 65
   257
 75
     2
175
     1
 42
1.0
 92
        8
 66
   257
 43
1.0
 76
     1
 77
     6
 78
     2
 67
     7
 79
     3
170
     0
171
     0
290
     0
174
     0
 93
        5
 44
0.0
173
     0
291
     0
 45
0.0
1001
ACAD
1000
AcDbSavedByObjectVersion
1070
     0
  0
VISUALSTYLE
  5
3A
102
{ACAD_XDICTIONARY
360
3FB
102
}
102
{ACAD_REACTORS
330
29
102
}
330
29
100
AcDbVisualStyle
  2
Shades of Gray
 70
    23
 71
     2
 72
     2
 73
     3
 90
        0
 40
-0.6
 41
-30.0
 62
     5
 63
     7
 74
     2
 91
        2
 64
     7
 65
     7
 75
     1
175
     1
 42
40.0
 92
        8
 66
     7
 43
1.0
 76
     1
 77
     6
 78
     2
 67
     7
 79
     3
170
     0
171
     0
290
     0
174
     0
 93
        1
 44
0.0
173
     0
291
     0
 45
0.0
1001
ACAD
1000
AcDbSavedByObjectVersion
1070
     0
  0
VISUALSTYLE
  5
3B
102
{ACAD_XDICTIONARY
360
3FD
102
}
102
{ACAD_REACTORS
330
29
102
}
330
29
100
AcDbVisualStyle
  2
Sketchy
 70
    24
 71
     1
 72
     2
 73
     2
 90
        0
 40
-0.6
 41
-30.0
 62
     5
 63
     7
 74
     2
 91
        2
 64
     7
 65
     7
 75
     1
175
     1
 42
40.0
 92
       11
 66
     7
 43
1.0
 76
     1
 77
     6
 78
     2
 67
     7
 79
     6
170
     0
171
     0
290
     0
174
     0
 93
        1
 44
0.0
173
     0
291
     0
 45
0.0
1001
ACAD
1000
AcDbSavedByObjectVersion
1070
     0
  0
VISUALSTYLE
  5
36
102
{ACAD_XDICTIONARY
360
3F3
102
}
102
{ACAD_REACTORS
330
29
102
}
330
29
100
AcDbVisualStyle
  2
Thicken
 70
    13
 71
     2
 72
     2
 73
     0
 90
        0
 40
-0.6
 41
-30.0
 62
     5
 63
     7
 74
     1
 91
        4
 64
     7
 65
   257
 75
     1
175
     1
 42
1.0
 92
       12
 66
     7
 43
1.0
 76
     1
 77
     6
 78
     2
 67
     7
 79
     5
170
     0
171
     0
290
     0
174
     0
 93
        1
 44
0.0
173
     0
291
     1
 45
0.0
1001
ACAD
1000
AcDbSavedByObjectVersion
1070
     0
  0
VISUALSTYLE
  5
30
102
{ACAD_XDICTIONARY
360
3E7
102
}
102
{ACAD_REACTORS
330
29
102
}
330
29
100
AcDbVisualStyle
  2
Wireframe
 70
     5
 71
     0
 72
     2
 73
     0
 90
        0
 40
-0.6
 41
-30.0
 62
     5
 63
     7
 74
     1
 91
        4
 64
     7
 65
   257
 75
     1
175
     1
 42
1.0
 92
        0
 66
   257
 43
1.0
 76
     1
 77
     6
 78
     2
 67
     7
 79
     3
170
     0
171
     0
290
     0
174
     0
 93
        1
 44
0.0
173
     0
291
     0
 45
0.0
1001
ACAD
1000
AcDbSavedByObjectVersion
1070
     0
  0
VISUALSTYLE
  5
3C
102
{ACAD_XDICTIONARY
360
3FF
102
}
102
{ACAD_REACTORS
330
29
102
}
330
29
100
AcDbVisualStyle
  2
X-Ray
 70
    25
 71
     2
 72
     2
 73
     1
 90
        1
 40
0.5
 41
-30.0
 62
     5
 63
     7
 74
     1
 91
        0
 64
     7
 65
   257
 75
     1
175
     1
 42
1.0
 92
        8
 66
     7
 43
1.0
 76
     1
 77
     6
 78
     2
 67
     7
 79
     3
170
     0
171
     0
290
     0
174
     0
 93
       13
 44
0.0
173
     0
291
     0
 45
0.0
1001
ACAD
1000
AcDbSavedByObjectVersion
1070
     0
  0
DICTIONARYVAR
  5
3A0
102
{ACAD_REACTORS
330
39A
102
}
330
39A
100
DictionaryVariables
280
     0
  1
1:1
  0
DICTIONARYVAR
  5
39C
102
{ACAD_REACTORS
330
39A
102
}
330
39A
100
DictionaryVariables
280
     0
  1
STANDARD
  0
DICTIONARYVAR
  5
39B
102
{ACAD_REACTORS
330
39A
102
}
330
39A
100
DictionaryVariables
280
     0
  1
STANDARD
  0
DICTIONARYVAR
  5
39D
102
{ACAD_REACTORS
330
39A
102
}
330
39A
100
DictionaryVariables
280
     0
  1
Imperial24
  0
DICTIONARYVAR
  5
39E
102
{ACAD_REACTORS
330
39A
102
}
330
39A
100
DictionaryVariables
280
     0
  1
Imperial24
  0
DICTIONARYVAR
  5
3CA
102
{ACAD_REACTORS
330
39A
102
}
330
39A
100
DictionaryVariables
280
     0
  1
1
  0
DICTIONARYVAR
  5
3C9
102
{ACAD_REACTORS
330
39A
102
}
330
39A
100
DictionaryVariables
280
     0
  1
0
  0
DICTIONARYVAR
  5
3A2
102
{ACAD_REACTORS
330
39A
102
}
330
39A
100
DictionaryVariables
280
     0
  1
1
  0
DICTIONARYVAR
  5
3A3
102
{ACAD_REACTORS
330
39A
102
}
330
39A
100
DictionaryVariables
280
     0
  1
15
  0
DICTIONARYVAR
  5
3A1
102
{ACAD_REACTORS
330
39A
102
}
330
39A
100
DictionaryVariables
280
     0
  1
0
  0
DICTIONARYVAR
  5
39F
102
{ACAD_REACTORS
330
39A
102
}
330
39A
100
DictionaryVariables
280
     0
  1
0
  0
DICTIONARYVAR
  5
3C8
102
{ACAD_REACTORS
330
39A
102
}
330
39A
100
DictionaryVariables
280
     0
  1
127
  0
DICTIONARYVAR
  5
3CB
102
{ACAD_REACTORS
330
39A
102
}
330
39A
100
DictionaryVariables
280
     0
  1
2
  0
DICTIONARY
  5
3D7
102
{ACAD_REACTORS
330
3D5
102
}
330
3D5
100
AcDbDictionary
281
     1
  0
DICTIONARY
  5
3D6
102
{ACAD_REACTORS
330
3D5
102
}
330
3D5
100
AcDbDictionary
281
     1
  3
140702749128960
350
3D0
  3
140702749128976
350
3D1
  3
140702749128992
350
3D2
  3
140702749129008
350
3D3
  3
140702749129024
350
3D4
  0
DICTIONARY
  5
397
330
6A
100
AcDbDictionary
280
     1
281
     1
  3
ACAD_XREC_ROUNDTRIP
360
40E
  0
DICTIONARY
  5
411
330
72
100
AcDbDictionary
280
     1
281
     1
  3
ACAD_XREC_ROUNDTRIP
360
412
  0
DICTIONARY
  5
40F
330
6E
100
AcDbDictionary
280
     1
281
     1
  3
ACAD_XREC_ROUNDTRIP
360
410
  0
DICTIONARY
  5
1A
330
19
100
AcDbDictionary
280
     1
281
     1
  3
ACAD_XREC_ROUNDTRIP
360
3D9
  3
BUMPTILE
360
1C
  3
DIFFUSETILE
360
1B
  3
OPACITYTILE
360
1F
  3
REFLECTIONTILE
360
1E
  3
REFRACTIONTILE
360
20
  3
SPECULARTILE
360
1D
  0
DICTIONARY
  5
12
330
11
100
AcDbDictionary
280
     1
281
     1
  3
ACAD_XREC_ROUNDTRIP
360
3D8
  3
BUMPTILE
360
14
  3
DIFFUSETILE
360
13
  3
OPACITYTILE
360
17
  3
REFLECTIONTILE
360
16
  3
REFRACTIONTILE
360
18
  3
SPECULARTILE
360
15
  0
DICTIONARY
  5
22
330
21
100
AcDbDictionary
280
     1
281
     1
  3
ACAD_XREC_ROUNDTRIP
360
3DA
  3
BUMPTILE
360
24
  3
DIFFUSETILE
360
23
  3
OPACITYTILE
360
27
  3
REFLECTIONTILE
360
26
  3
REFRACTIONTILE
360
28
  3
SPECULARTILE
360
25
  0
DICTIONARY
  5
395
330
68
100
AcDbDictionary
280
     1
281
     1
  3
ACAD_XREC_ROUNDTRIP
360
40D
  0
DICTIONARY
  5
3CC
330
64
100
AcDbDictionary
280
     1
281
     1
  3
ACAD_ROUNDTRIP_2008_TABLESTYLE_CELLSTYLEMAP
360
3CD
  3
ACAD_XREC_ROUNDTRIP
360
40B
  0
DICTIONARY
  5
3E5
330
2F
100
AcDbDictionary
280
     1
281
     1
  3
ACAD_XREC_ROUNDTRIP
360
3E6
  0
DICTIONARY
  5
3E3
330
2E
100
AcDbDictionary
280
     1
281
     1
  3
ACAD_XREC_ROUNDTRIP
360
3E4
  0
DICTIONARY
  5
3F1
330
35
100
AcDbDictionary
280
     1
281
     1
  3
ACAD_XREC_ROUNDTRIP
360
3F2
  0
DICTIONARY
  5
3F9
330
39
100
AcDbDictionary
280
     1
281
     1
  3
ACAD_XREC_ROUNDTRIP
360
3FA
  0
DICTIONARY
  5
3EB
330
32
100
AcDbDictionary
280
     1
281
     1
  3
ACAD_XREC_ROUNDTRIP
360
3EC
  0
DICTIONARY
  5
3EF
330
34
100
AcDbDictionary
280
     1
281
     1
  3
ACAD_XREC_ROUNDTRIP
360
3F0
  0
DICTIONARY
  5
409
330
41
100
AcDbDictionary
280
     1
281
     1
  3
ACAD_XREC_ROUNDTRIP
360
40A
  0
DICTIONARY
  5
3F7
330
38
100
AcDbDictionary
280
     1
281
     1
  3
ACAD_XREC_ROUNDTRIP
360
3F8
  0
DICTIONARY
  5
3DB
330
2A
100
AcDbDictionary
280
     1
281
     1
  3
ACAD_XREC_ROUNDTRIP
360
3DC
  0
DICTIONARY
  5
3DD
330
2B
100
AcDbDictionary
280
     1
281
     1
  3
ACAD_XREC_ROUNDTRIP
360
3DE
  0
DICTIONARY
  5
3DF
330
2C
100
AcDbDictionary
280
     1
281
     1
  3
ACAD_XREC_ROUNDTRIP
360
3E0
  0
DICTIONARY
  5
3E1
330
2D
100
AcDbDictionary
280
     1
281
     1
  3
ACAD_XREC_ROUNDTRIP
360
3E2
  0
DICTIONARY
  5
3E9
330
31
100
AcDbDictionary
280
     1
281
     1
  3
ACAD_XREC_ROUNDTRIP
360
3EA
  0
DICTIONARY
  5
405
330
3F
100
AcDbDictionary
280
     1
281
     1
  3
ACAD_XREC_ROUNDTRIP
360
406
  0
DICTIONARY
  5
3F5
330
37
100
AcDbDictionary
280
     1
281
     1
  3
ACAD_XREC_ROUNDTRIP
360
3F6
  0
DICTIONARY
  5
407
330
40
100
AcDbDictionary
280
     1
281
     1
  3
ACAD_XREC_ROUNDTRIP
360
408
  0
DICTIONARY
  5
3ED
330
33
100
AcDbDictionary
280
     1
281
     1
  3
ACAD_XREC_ROUNDTRIP
360
3EE
  0
DICTIONARY
  5
403
330
3E
100
AcDbDictionary
280
     1
281
     1
  3
ACAD_XREC_ROUNDTRIP
360
404
  0
DICTIONARY
  5
401
330
3D
100
AcDbDictionary
280
     1
281
     1
  3
ACAD_XREC_ROUNDTRIP
360
402
  0
DICTIONARY
  5
3FB
330
3A
100
AcDbDictionary
280
     1
281
     1
  3
ACAD_XREC_ROUNDTRIP
360
3FC
  0
DICTIONARY
  5
3FD
330
3B
100
AcDbDictionary
280
     1
281
     1
  3
ACAD_XREC_ROUNDTRIP
360
3FE
  0
DICTIONARY
  5
3F3
330
36
100
AcDbDictionary
280
     1
281
     1
  3
ACAD_XREC_ROUNDTRIP
360
3F4
  0
DICTIONARY
  5
3E7
330
30
100
AcDbDictionary
280
     1
281
     1
  3
ACAD_XREC_ROUNDTRIP
360
3E8
  0
DICTIONARY
  5
3FF
330
3C
100
AcDbDictionary
280
     1
281
     1
  3
ACAD_XREC_ROUNDTRIP
360
400
  0
XRECORD
  5
3D0
102
{ACAD_REACTORS
330
3D6
102
}
330
3D6
100
AcDbXrecord
280
     1
  1
AcDb_Thumbnail_Schema
102
{ATTRRECORD
341
3D1
  2
AcDbDs::TreatedAsObjectData
280
     1
291
     1
102
ATTRRECORD}
102
{ATTRRECORD
341
3D2
  2
AcDbDs::Legacy
280
     1
291
     1
102
ATTRRECORD}
  2
AcDbDs::ID
280
    10
 91
        8
102
{ATTRRECORD
341
3D3
  2
AcDs:Indexable
280
     1
291
     1
102
ATTRRECORD}
102
{ATTRRECORD
341
3D4
  2
AcDbDs::HandleAttribute
280
     7
282
     1
102
ATTRRECORD}
  2
Thumbnail_Data
280
    15
 91
        0
  0
XRECORD
  5
3D1
102
{ACAD_REACTORS
330
3D6
102
}
330
3D6
100
AcDbXrecord
280
     1
  1
AcDbDs::TreatedAsObjectDataSchema
  2
AcDbDs::TreatedAsObjectData
280
     1
 91
        0
  0
XRECORD
  5
3D2
102
{ACAD_REACTORS
330
3D6
102
}
330
3D6
100
AcDbXrecord
280
     1
  1
AcDbDs::LegacySchema
  2
AcDbDs::Legacy
280
     1
 91
        0
  0
XRECORD
  5
3D3
102
{ACAD_REACTORS
330
3D6
102
}
330
3D6
100
AcDbXrecord
280
     1
  1
AcDbDs::IndexedPropertySchema
  2
AcDs:Indexable
280
     1
 91
        0
  0
XRECORD
  5
3D4
102
{ACAD_REACTORS
330
3D6
102
}
330
3D6
100
AcDbXrecord
280
     1
  1
AcDbDs::HandleAttributeSchema
  2
AcDbDs::HandleAttribute
280
     7
 91
        1
284
     1
  0
XRECORD
  5
40E
102
{ACAD_REACTORS
330
397
102
}
330
397
100
AcDbXrecord
280
     1
102
DISPLAYNAME
  1
Imperial24
102
FLAGS
 90
        0
  0
XRECORD
  5
412
102
{ACAD_REACTORS
330
411
102
}
330
411
100
AcDbXrecord
280
     1
102
SHADEPLOT
 70
     0
102
SHADEPLOTRESLEVEL
 70
     2
102
SHADEPLOTCUSTOMDPI
 70
   300
  0
XRECORD
  5
410
102
{ACAD_REACTORS
330
40F
102
}
330
40F
100
AcDbXrecord
280
     1
102
SHADEPLOT
 70
     0
102
SHADEPLOTRESLEVEL
 70
     2
102
SHADEPLOTCUSTOMDPI
 70
   300
  0
XRECORD
  5
3D9
102
{ACAD_REACTORS
330
1A
102
}
330
1A
100
AcDbXrecord
280
     1
102
MATERIAL
148
0.0
149
0.0
149
0.0
 93
        0
 94
      127
282
     0
 72
     0
 77
     0
171
     0
175
     0
179
     0
273
     0
  0
XRECORD
  5
1C
102
{ACAD_REACTORS
330
1A
102
}
330
1A
100
AcDbXrecord
280
     1
270
     1
271
     1
  0
XRECORD
  5
1B
102
{ACAD_REACTORS
330
1A
102
}
330
1A
100
AcDbXrecord
280
     1
270
     1
271
     1
  0
XRECORD
  5
1F
102
{ACAD_REACTORS
330
1A
102
}
330
1A
100
AcDbXrecord
280
     1
270
     1
271
     1
  0
XRECORD
  5
1E
102
{ACAD_REACTORS
330
1A
102
}
330
1A
100
AcDbXrecord
280
     1
270
     1
271
     1
  0
XRECORD
  5
20
102
{ACAD_REACTORS
330
1A
102
}
330
1A
100
AcDbXrecord
280
     1
270
     1
271
     1
  0
XRECORD
  5
1D
102
{ACAD_REACTORS
330
1A
102
}
330
1A
100
AcDbXrecord
280
     1
270
     1
271
     1
  0
XRECORD
  5
3D8
102
{ACAD_REACTORS
330
12
102
}
330
12
100
AcDbXrecord
280
     1
102
MATERIAL
148
0.0
149
0.0
149
0.0
 93
        0
 94
      127
282
     0
 72
     0
 77
     0
171
     0
175
     0
179
     0
273
     0
  0
XRECORD
  5
14
102
{ACAD_REACTORS
330
12
102
}
330
12
100
AcDbXrecord
280
     1
270
     1
271
     1
  0
XRECORD
  5
13
102
{ACAD_REACTORS
330
12
102
}
330
12
100
AcDbXrecord
280
     1
270
     1
271
     1
  0
XRECORD
  5
17
102
{ACAD_REACTORS
330
12
102
}
330
12
100
AcDbXrecord
280
     1
270
     1
271
     1
  0
XRECORD
  5
16
102
{ACAD_REACTORS
330
12
102
}
330
12
100
AcDbXrecord
280
     1
270
     1
271
     1
  0
XRECORD
  5
18
102
{ACAD_REACTORS
330
12
102
}
330
12
100
AcDbXrecord
280
     1
270
     1
271
     1
  0
XRECORD
  5
15
102
{ACAD_REACTORS
330
12
102
}
330
12
100
AcDbXrecord
280
     1
270
     1
271
     1
  0
XRECORD
  5
3DA
102
{ACAD_REACTORS
330
22
102
}
330
22
100
AcDbXrecord
280
     1
102
MATERIAL
148
0.0
149
0.0
149
0.0
 93
        0
 94
      127
282
     0
 72
     0
 77
     0
171
     0
175
     0
179
     0
273
     0
  0
XRECORD
  5
24
102
{ACAD_REACTORS
330
22
102
}
330
22
100
AcDbXrecord
280
     1
270
     1
271
     1
  0
XRECORD
  5
23
102
{ACAD_REACTORS
330
22
102
}
330
22
100
AcDbXrecord
280
     1
270
     1
271
     1
  0
XRECORD
  5
27
102
{ACAD_REACTORS
330
22
102
}
330
22
100
AcDbXrecord
280
     1
270
     1
271
     1
  0
XRECORD
  5
26
102
{ACAD_REACTORS
330
22
102
}
330
22
100
AcDbXrecord
280
     1
270
     1
271
     1
  0
XRECORD
  5
28
102
{ACAD_REACTORS
330
22
102
}
330
22
100
AcDbXrecord
280
     1
270
     1
271
     1
  0
XRECORD
  5
25
102
{ACAD_REACTORS
330
22
102
}
330
22
100
AcDbXrecord
280
     1
270
     1
271
     1
  0
XRECORD
  5
40D
102
{ACAD_REACTORS
330
395
102
}
330
395
100
AcDbXrecord
280
     1
102
DISPLAYNAME
  1
Imperial24
102
FLAGS
 90
        0
  0
CELLSTYLEMAP
  5
3CD
102
{ACAD_REACTORS
330
3CC
102
}
330
3CC
100
AcDbCellStyleMap
 90
        3
300
CELLSTYLE
  1
TABLEFORMAT_BEGIN
 90
        5
170
     1
 91
        0
 92
    32768
 62
   257
 93
        1
300
CONTENTFORMAT
  1
CONTENTFORMAT_BEGIN
 90
        0
 91
        0
 92
      512
 93
        0
300

 40
0.0
140
1.0
 94
        5
 62
     0
340
55
144
0.25
309
CONTENTFORMAT_END
171
     0
 94
        0
309
TABLEFORMAT_END
  1
CELLSTYLE_BEGIN
 90
        1
 91
        1
300
_TITLE
309
CELLSTYLE_END
300
CELLSTYLE
  1
TABLEFORMAT_BEGIN
 90
        5
170
     1
 91
        0
 92
        0
 62
   257
 93
        1
300
CONTENTFORMAT
  1
CONTENTFORMAT_BEGIN
 90
        0
 91
        0
 92
      512
 93
        0
300

 40
0.0
140
1.0
 94
        5
 62
     0
340
55
144
0.18
309
CONTENTFORMAT_END
171
     0
 94
        0
309
TABLEFORMAT_END
  1
CELLSTYLE_BEGIN
 90
        2
 91
        1
300
_HEADER
309
CELLSTYLE_END
300
CELLSTYLE
  1
TABLEFORMAT_BEGIN
 90
        5
170
     1
 91
        0
 92
        0
 62
   257
 93
        1
300
CONTENTFORMAT
  1
CONTENTFORMAT_BEGIN
 90
        0
 91
        0
 92
      512
 93
        0
300

 40
0.0
140
1.0
 94
        2
 62
     0
340
55
144
0.18
309
CONTENTFORMAT_END
171
     0
 94
        0
309
TABLEFORMAT_END
  1
CELLSTYLE_BEGIN
 90
        3
 91
        2
300
_DATA
309
CELLSTYLE_END
  0
XRECORD
  5
40B
102
{ACAD_REACTORS
330
3CC
102
}
330
3CC
100
AcDbXrecord
280
     1
102
ACAD_ROUNDTRIP_PRE2007_TABLESTYLE
 90
      512
 91
        0
  1

 92
      512
 93
        0
  2

 94
      512
 95
        0
  3

  0
XRECORD
  5
3E6
102
{ACAD_REACTORS
330
3E5
102
}
330
3E5
100
AcDbXrecord
280
     1
102
RTVSPost2010Prop28
280
     1
102
RTVSPost2010PropOp28
 70
     1
102
RTVSPost2010Prop29
280
     1
102
RTVSPost2010PropOp29
 70
     1
102
RTVSPost2010Prop30
280
     0
102
RTVSPost2010PropOp30
 70
     1
102
RTVSPost2010Prop31
280
     0
102
RTVSPost2010PropOp31
 70
     1
102
RTVSPost2010Prop32
280
     0
102
RTVSPost2010PropOp32
 70
     1
102
RTVSPost2010Prop33
280
     0
102
RTVSPost2010PropOp33
 70
     1
102
RTVSPost2010Prop34
280
     0
102
RTVSPost2010PropOp34
 70
     1
102
RTVSPost2010Prop35
280
     0
102
RTVSPost2010PropOp35
 70
     1
102
RTVSPost2010Prop36
280
     0
102
RTVSPost2010PropOp36
 70
     1
102
RTVSPost2010Prop37
 90
       50
102
RTVSPost2010PropOp37
 70
     1
102
RTVSPost2010Prop38
140
0.0
102
RTVSPost2010PropOp38
 70
     1
102
RTVSPost2010Prop39
140
1.0
102
RTVSPost2010PropOp39
 70
     1
102
RTVSPost2010Prop40
 90
        0
102
RTVSPost2010PropOp40
 70
     1
102
RTVSPost2010Prop41ColorIndex
 90
       18
102
RTVSPost2010Prop41ColorRGB
 90
        0
102
RTVSPost2010PropOp41
 70
     1
102
RTVSPost2010Prop42
 90
       50
102
RTVSPost2010PropOp42
 70
     1
102
RTVSPost2010Prop43
 90
        3
102
RTVSPost2010PropOp43
 70
     1
102
RTVSPost2010Prop44ColorIndex
 90
        5
102
RTVSPost2010Prop44ColorRGB
 90
      255
102
RTVSPost2010PropOp44
 70
     1
102
RTVSPost2010Prop45
280
     0
102
RTVSPost2010PropOp45
 70
     1
102
RTVSPost2010Prop46
 90
       50
102
RTVSPost2010PropOp46
 70
     1
102
RTVSPost2010Prop47
 90
       50
102
RTVSPost2010PropOp47
 70
     1
102
RTVSPost2010Prop48
 90
       50
102
RTVSPost2010PropOp48
 70
     1
102
RTVSPost2010Prop49
280
     0
102
RTVSPost2010PropOp49
 70
     1
102
RTVSPost2010Prop50
 90
       50
102
RTVSPost2010PropOp50
 70
     1
102
RTVSPost2010Prop51ColorIndex
 90
      256
102
RTVSPost2010Prop51ColorRGB
 90
-16777216
102
RTVSPost2010PropOp51
 70
     0
102
RTVSPost2010Prop52
140
1.0
102
RTVSPost2010PropOp52
 70
     0
102
RTVSPost2010Prop53
 90
        2
102
RTVSPost2010PropOp53
 70
     1
102
RTVSPost2010Prop54
  1
strokes_ogs.tif
102
RTVSPost2010PropOp54
 70
     1
102
RTVSPost2010Prop55
280
     0
102
RTVSPost2010PropOp55
 70
     1
102
RTVSPost2010Prop56
140
1.0
102
RTVSPost2010PropOp56
 70
     1
102
RTVSPost2010Prop57
140
1.0
102
RTVSPost2010PropOp57
 70
     1
102
RTVSPropertyOp0
 70
     1
102
RTVSPropertyOp1
 70
     1
102
RTVSPropertyOp2
 70
     1
102
RTVSPropertyOp3
 70
     1
102
RTVSPropertyOp4
 70
     1
102
RTVSPropertyOp5
 70
     1
102
RTVSPropertyOp6
 70
     1
102
RTVSPropertyOp7
 70
     1
102
RTVSPropertyOp8
 70
     1
102
RTVSPropertyOp9
 70
     1
102
RTVSPropertyOp10
 70
     1
102
RTVSPropertyOp11
 70
     1
102
RTVSPropertyOp12
 70
     1
102
RTVSPropertyOp13
 70
     1
102
RTVSPropertyOp14
 70
     1
102
RTVSPropertyOp15
 70
     1
102
RTVSPropertyOp16
 70
     1
102
RTVSPropertyOp17
 70
     1
102
RTVSPropertyOp18
 70
     1
102
RTVSPropertyOp19
 70
     1
102
RTVSPropertyOp20
 70
     1
102
RTVSPropertyOp21
 70
     1
102
RTVSPropertyOp22
 70
     1
102
RTVSPropertyOp23
 70
     1
102
RTVSPropertyOp24
 70
     1
102
RTVSPropertyOp25
 70
     1
102
RTVSPropertyOp26
 70
     1
102
RTVSPropertyOp27
 70
     1
102
RTVSPropertyOp28
 70
     1
102
RTVSPropertyOp29
 70
     1
102
RTVSPropertyOp30
 70
     1
102
RTVSPropertyOp31
 70
     1
102
RTVSPropertyOp32
 70
     1
102
RTVSPropertyOp33
 70
     1
102
RTVSPropertyOp34
 70
     1
102
RTVSPropertyOp35
 70
     1
102
RTVSPropertyOp36
 70
     1
102
RTVSPropertyOp37
 70
     1
102
RTVSPropertyOp38
 70
     1
102
RTVSPropertyOp39
 70
     1
102
RTVSPropertyOp40
 70
     1
102
RTVSPropertyOp41
 70
     1
102
RTVSPropertyOp42
 70
     1
102
RTVSPropertyOp43
 70
     1
102
RTVSPropertyOp44
 70
     1
102
RTVSPropertyOp45
 70
     1
102
RTVSPropertyOp46
 70
     1
102
RTVSPropertyOp47
 70
     1
102
RTVSPropertyOp48
 70
     1
102
RTVSPropertyOp49
 70
     1
102
RTVSPropertyOp50
 70
     1
102
RTVSPropertyOp51
 70
     0
102
RTVSPropertyOp52
 70
     0
102
RTVSPropertyOp53
 70
     1
102
RTVSPropertyOp54
 70
     1
102
RTVSPropertyOp55
 70
     1
102
RTVSPropertyOp56
 70
     1
102
RTVSPropertyOp57
 70
     1
102
RTVSPropertyOp58
 70
     1
102
RTVSPropertyOp59
 70
     1
102
RTVSPropertyOp60
 70
     1
102
RTVSPropertyOp61
 70
     1
102
RTVSPropertyOp62
 70
     1
  0
XRECORD
  5
3E4
102
{ACAD_REACTORS
330
3E3
102
}
330
3E3
100
AcDbXrecord
280
     1
102
RTVSPost2010Prop28
280
     0
102
RTVSPost2010PropOp28
 70
     1
102
RTVSPost2010Prop29
280
     1
102
RTVSPost2010PropOp29
 70
     1
102
RTVSPost2010Prop30
280
     1
102
RTVSPost2010PropOp30
 70
     1
102
RTVSPost2010Prop31
280
     0
102
RTVSPost2010PropOp31
 70
     1
102
RTVSPost2010Prop32
280
     0
102
RTVSPost2010PropOp32
 70
     1
102
RTVSPost2010Prop33
280
     0
102
RTVSPost2010PropOp33
 70
     1
102
RTVSPost2010Prop34
280
     0
102
RTVSPost2010PropOp34
 70
     1
102
RTVSPost2010Prop35
280
     0
102
RTVSPost2010PropOp35
 70
     1
102
RTVSPost2010Prop36
280
     0
102
RTVSPost2010PropOp36
 70
     1
102
RTVSPost2010Prop37
 90
       50
102
RTVSPost2010PropOp37
 70
     1
102
RTVSPost2010Prop38
140
0.0
102
RTVSPost2010PropOp38
 70
     1
102
RTVSPost2010Prop39
140
1.0
102
RTVSPost2010PropOp39
 70
     1
102
RTVSPost2010Prop40
 90
        0
102
RTVSPost2010PropOp40
 70
     1
102
RTVSPost2010Prop41ColorIndex
 90
       18
102
RTVSPost2010Prop41ColorRGB
 90
        0
102
RTVSPost2010PropOp41
 70
     1
102
RTVSPost2010Prop42
 90
       50
102
RTVSPost2010PropOp42
 70
     1
102
RTVSPost2010Prop43
 90
        3
102
RTVSPost2010PropOp43
 70
     1
102
RTVSPost2010Prop44ColorIndex
 90
        5
102
RTVSPost2010Prop44ColorRGB
 90
      255
102
RTVSPost2010PropOp44
 70
     1
102
RTVSPost2010Prop45
280
     0
102
RTVSPost2010PropOp45
 70
     1
102
RTVSPost2010Prop46
 90
       50
102
RTVSPost2010PropOp46
 70
     1
102
RTVSPost2010Prop47
 90
       50
102
RTVSPost2010PropOp47
 70
     1
102
RTVSPost2010Prop48
 90
       50
102
RTVSPost2010PropOp48
 70
     1
102
RTVSPost2010Prop49
280
     0
102
RTVSPost2010PropOp49
 70
     1
102
RTVSPost2010Prop50
 90
       50
102
RTVSPost2010PropOp50
 70
     1
102
RTVSPost2010Prop51ColorIndex
 90
      256
102
RTVSPost2010Prop51ColorRGB
 90
-16777216
102
RTVSPost2010PropOp51
 70
     0
102
RTVSPost2010Prop52
140
1.0
102
RTVSPost2010PropOp52
 70
     0
102
RTVSPost2010Prop53
 90
        2
102
RTVSPost2010PropOp53
 70
     1
102
RTVSPost2010Prop54
  1
strokes_ogs.tif
102
RTVSPost2010PropOp54
 70
     1
102
RTVSPost2010Prop55
280
     0
102
RTVSPost2010PropOp55
 70
     1
102
RTVSPost2010Prop56
140
1.0
102
RTVSPost2010PropOp56
 70
     1
102
RTVSPost2010Prop57
140
1.0
102
RTVSPost2010PropOp57
 70
     1
102
RTVSPropertyOp0
 70
     1
102
RTVSPropertyOp1
 70
     1
102
RTVSPropertyOp2
 70
     1
102
RTVSPropertyOp3
 70
     1
102
RTVSPropertyOp4
 70
     1
102
RTVSPropertyOp5
 70
     1
102
RTVSPropertyOp6
 70
     1
102
RTVSPropertyOp7
 70
     1
102
RTVSPropertyOp8
 70
     1
102
RTVSPropertyOp9
 70
     1
102
RTVSPropertyOp10
 70
     1
102
RTVSPropertyOp11
 70
     1
102
RTVSPropertyOp12
 70
     1
102
RTVSPropertyOp13
 70
     1
102
RTVSPropertyOp14
 70
     1
102
RTVSPropertyOp15
 70
     1
102
RTVSPropertyOp16
 70
     1
102
RTVSPropertyOp17
 70
     1
102
RTVSPropertyOp18
 70
     1
102
RTVSPropertyOp19
 70
     1
102
RTVSPropertyOp20
 70
     1
102
RTVSPropertyOp21
 70
     1
102
RTVSPropertyOp22
 70
     1
102
RTVSPropertyOp23
 70
     1
102
RTVSPropertyOp24
 70
     1
102
RTVSPropertyOp25
 70
     1
102
RTVSPropertyOp26
 70
     1
102
RTVSPropertyOp27
 70
     1
102
RTVSPropertyOp28
 70
     1
102
RTVSPropertyOp29
 70
     1
102
RTVSPropertyOp30
 70
     1
102
RTVSPropertyOp31
 70
     1
102
RTVSPropertyOp32
 70
     1
102
RTVSPropertyOp33
 70
     1
102
RTVSPropertyOp34
 70
     1
102
RTVSPropertyOp35
 70
     1
102
RTVSPropertyOp36
 70
     1
102
RTVSPropertyOp37
 70
     1
102
RTVSPropertyOp38
 70
     1
102
RTVSPropertyOp39
 70
     1
102
RTVSPropertyOp40
 70
     1
102
RTVSPropertyOp41
 70
     1
102
RTVSPropertyOp42
 70
     1
102
RTVSPropertyOp43
 70
     1
102
RTVSPropertyOp44
 70
     1
102
RTVSPropertyOp45
 70
     1
102
RTVSPropertyOp46
 70
     1
102
RTVSPropertyOp47
 70
     1
102
RTVSPropertyOp48
 70
     1
102
RTVSPropertyOp49
 70
     1
102
RTVSPropertyOp50
 70
     1
102
RTVSPropertyOp51
 70
     0
102
RTVSPropertyOp52
 70
     0
102
RTVSPropertyOp53
 70
     1
102
RTVSPropertyOp54
 70
     1
102
RTVSPropertyOp55
 70
     1
102
RTVSPropertyOp56
 70
     1
102
RTVSPropertyOp57
 70
     1
102
RTVSPropertyOp58
 70
     1
102
RTVSPropertyOp59
 70
     1
102
RTVSPropertyOp60
 70
     1
102
RTVSPropertyOp61
 70
     1
102
RTVSPropertyOp62
 70
     1
  0
XRECORD
  5
3F2
102
{ACAD_REACTORS
330
3F1
102
}
330
3F1
100
AcDbXrecord
280
     1
102
RTVSPost2010Prop28
280
     0
102
RTVSPost2010PropOp28
 70
     1
102
RTVSPost2010Prop29
280
     1
102
RTVSPost2010PropOp29
 70
     1
102
RTVSPost2010Prop30
280
     1
102
RTVSPost2010PropOp30
 70
     1
102
RTVSPost2010Prop31
280
     0
102
RTVSPost2010PropOp31
 70
     1
102
RTVSPost2010Prop32
280
     0
102
RTVSPost2010PropOp32
 70
     1
102
RTVSPost2010Prop33
280
     0
102
RTVSPost2010PropOp33
 70
     1
102
RTVSPost2010Prop34
280
     0
102
RTVSPost2010PropOp34
 70
     1
102
RTVSPost2010Prop35
280
     0
102
RTVSPost2010PropOp35
 70
     1
102
RTVSPost2010Prop36
280
     0
102
RTVSPost2010PropOp36
 70
     1
102
RTVSPost2010Prop37
 90
       50
102
RTVSPost2010PropOp37
 70
     1
102
RTVSPost2010Prop38
140
0.0
102
RTVSPost2010PropOp38
 70
     1
102
RTVSPost2010Prop39
140
1.0
102
RTVSPost2010PropOp39
 70
     1
102
RTVSPost2010Prop40
 90
        0
102
RTVSPost2010PropOp40
 70
     1
102
RTVSPost2010Prop41ColorIndex
 90
       18
102
RTVSPost2010Prop41ColorRGB
 90
        0
102
RTVSPost2010PropOp41
 70
     1
102
RTVSPost2010Prop42
 90
       50
102
RTVSPost2010PropOp42
 70
     1
102
RTVSPost2010Prop43
 90
        3
102
RTVSPost2010PropOp43
 70
     1
102
RTVSPost2010Prop44ColorIndex
 90
        5
102
RTVSPost2010Prop44ColorRGB
 90
      255
102
RTVSPost2010PropOp44
 70
     1
102
RTVSPost2010Prop45
280
     0
102
RTVSPost2010PropOp45
 70
     1
102
RTVSPost2010Prop46
 90
       50
102
RTVSPost2010PropOp46
 70
     1
102
RTVSPost2010Prop47
 90
       50
102
RTVSPost2010PropOp47
 70
     1
102
RTVSPost2010Prop48
 90
       50
102
RTVSPost2010PropOp48
 70
     1
102
RTVSPost2010Prop49
280
     0
102
RTVSPost2010PropOp49
 70
     1
102
RTVSPost2010Prop50
 90
       50
102
RTVSPost2010PropOp50
 70
     1
102
RTVSPost2010Prop51ColorIndex
 90
      256
102
RTVSPost2010Prop51ColorRGB
 90
-16777216
102
RTVSPost2010PropOp51
 70
     0
102
RTVSPost2010Prop52
140
1.0
102
RTVSPost2010PropOp52
 70
     0
102
RTVSPost2010Prop53
 90
        2
102
RTVSPost2010PropOp53
 70
     1
102
RTVSPost2010Prop54
  1
strokes_ogs.tif
102
RTVSPost2010PropOp54
 70
     1
102
RTVSPost2010Prop55
280
     0
102
RTVSPost2010PropOp55
 70
     1
102
RTVSPost2010Prop56
140
1.0
102
RTVSPost2010PropOp56
 70
     1
102
RTVSPost2010Prop57
140
1.0
102
RTVSPost2010PropOp57
 70
     1
102
RTVSPropertyOp0
 70
     1
102
RTVSPropertyOp1
 70
     1
102
RTVSPropertyOp2
 70
     1
102
RTVSPropertyOp3
 70
     1
102
RTVSPropertyOp4
 70
     1
102
RTVSPropertyOp5
 70
     1
102
RTVSPropertyOp6
 70
     1
102
RTVSPropertyOp7
 70
     1
102
RTVSPropertyOp8
 70
     1
102
RTVSPropertyOp9
 70
     1
102
RTVSPropertyOp10
 70
     1
102
RTVSPropertyOp11
 70
     1
102
RTVSPropertyOp12
 70
     1
102
RTVSPropertyOp13
 70
     1
102
RTVSPropertyOp14
 70
     1
102
RTVSPropertyOp15
 70
     1
102
RTVSPropertyOp16
 70
     1
102
RTVSPropertyOp17
 70
     1
102
RTVSPropertyOp18
 70
     1
102
RTVSPropertyOp19
 70
     1
102
RTVSPropertyOp20
 70
     1
102
RTVSPropertyOp21
 70
     1
102
RTVSPropertyOp22
 70
     1
102
RTVSPropertyOp23
 70
     1
102
RTVSPropertyOp24
 70
     1
102
RTVSPropertyOp25
 70
     1
102
RTVSPropertyOp26
 70
     1
102
RTVSPropertyOp27
 70
     1
102
RTVSPropertyOp28
 70
     1
102
RTVSPropertyOp29
 70
     1
102
RTVSPropertyOp30
 70
     1
102
RTVSPropertyOp31
 70
     1
102
RTVSPropertyOp32
 70
     1
102
RTVSPropertyOp33
 70
     1
102
RTVSPropertyOp34
 70
     1
102
RTVSPropertyOp35
 70
     1
102
RTVSPropertyOp36
 70
     1
102
RTVSPropertyOp37
 70
     1
102
RTVSPropertyOp38
 70
     1
102
RTVSPropertyOp39
 70
     1
102
RTVSPropertyOp40
 70
     1
102
RTVSPropertyOp41
 70
     1
102
RTVSPropertyOp42
 70
     1
102
RTVSPropertyOp43
 70
     1
102
RTVSPropertyOp44
 70
     1
102
RTVSPropertyOp45
 70
     1
102
RTVSPropertyOp46
 70
     1
102
RTVSPropertyOp47
 70
     1
102
RTVSPropertyOp48
 70
     1
102
RTVSPropertyOp49
 70
     1
102
RTVSPropertyOp50
 70
     1
102
RTVSPropertyOp51
 70
     0
102
RTVSPropertyOp52
 70
     0
102
RTVSPropertyOp53
 70
     1
102
RTVSPropertyOp54
 70
     1
102
RTVSPropertyOp55
 70
     1
102
RTVSPropertyOp56
 70
     1
102
RTVSPropertyOp57
 70
     1
102
RTVSPropertyOp58
 70
     1
102
RTVSPropertyOp59
 70
     1
102
RTVSPropertyOp60
 70
     1
102
RTVSPropertyOp61
 70
     1
102
RTVSPropertyOp62
 70
     1
  0
XRECORD
  5
3FA
102
{ACAD_REACTORS
330
3F9
102
}
330
3F9
100
AcDbXrecord
280
     1
102
RTVSPost2010Prop28
280
     0
102
RTVSPost2010PropOp28
 70
     1
102
RTVSPost2010Prop29
280
     1
102
RTVSPost2010PropOp29
 70
     1
102
RTVSPost2010Prop30
280
     1
102
RTVSPost2010PropOp30
 70
     1
102
RTVSPost2010Prop31
280
     0
102
RTVSPost2010PropOp31
 70
     1
102
RTVSPost2010Prop32
280
     0
102
RTVSPost2010PropOp32
 70
     1
102
RTVSPost2010Prop33
280
     0
102
RTVSPost2010PropOp33
 70
     1
102
RTVSPost2010Prop34
280
     0
102
RTVSPost2010PropOp34
 70
     1
102
RTVSPost2010Prop35
280
     0
102
RTVSPost2010PropOp35
 70
     1
102
RTVSPost2010Prop36
280
     0
102
RTVSPost2010PropOp36
 70
     1
102
RTVSPost2010Prop37
 90
       50
102
RTVSPost2010PropOp37
 70
     1
102
RTVSPost2010Prop38
140
0.0
102
RTVSPost2010PropOp38
 70
     1
102
RTVSPost2010Prop39
140
1.0
102
RTVSPost2010PropOp39
 70
     1
102
RTVSPost2010Prop40
 90
        0
102
RTVSPost2010PropOp40
 70
     1
102
RTVSPost2010Prop41ColorIndex
 90
       18
102
RTVSPost2010Prop41ColorRGB
 90
        0
102
RTVSPost2010PropOp41
 70
     1
102
RTVSPost2010Prop42
 90
       50
102
RTVSPost2010PropOp42
 70
     1
102
RTVSPost2010Prop43
 90
        3
102
RTVSPost2010PropOp43
 70
     1
102
RTVSPost2010Prop44ColorIndex
 90
        5
102
RTVSPost2010Prop44ColorRGB
 90
      255
102
RTVSPost2010PropOp44
 70
     1
102
RTVSPost2010Prop45
280
     0
102
RTVSPost2010PropOp45
 70
     1
102
RTVSPost2010Prop46
 90
       50
102
RTVSPost2010PropOp46
 70
     1
102
RTVSPost2010Prop47
 90
       50
102
RTVSPost2010PropOp47
 70
     1
102
RTVSPost2010Prop48
 90
       50
102
RTVSPost2010PropOp48
 70
     1
102
RTVSPost2010Prop49
280
     0
102
RTVSPost2010PropOp49
 70
     1
102
RTVSPost2010Prop50
 90
       50
102
RTVSPost2010PropOp50
 70
     1
102
RTVSPost2010Prop51ColorIndex
 90
      256
102
RTVSPost2010Prop51ColorRGB
 90
-16777216
102
RTVSPost2010PropOp51
 70
     0
102
RTVSPost2010Prop52
140
1.0
102
RTVSPost2010PropOp52
 70
     0
102
RTVSPost2010Prop53
 90
        2
102
RTVSPost2010PropOp53
 70
     1
102
RTVSPost2010Prop54
  1
strokes_ogs.tif
102
RTVSPost2010PropOp54
 70
     1
102
RTVSPost2010Prop55
280
     0
102
RTVSPost2010PropOp55
 70
     1
102
RTVSPost2010Prop56
140
1.0
102
RTVSPost2010PropOp56
 70
     1
102
RTVSPost2010Prop57
140
1.0
102
RTVSPost2010PropOp57
 70
     1
102
RTVSPropertyOp0
 70
     1
102
RTVSPropertyOp1
 70
     1
102
RTVSPropertyOp2
 70
     1
102
RTVSPropertyOp3
 70
     1
102
RTVSPropertyOp4
 70
     1
102
RTVSPropertyOp5
 70
     1
102
RTVSPropertyOp6
 70
     1
102
RTVSPropertyOp7
 70
     1
102
RTVSPropertyOp8
 70
     1
102
RTVSPropertyOp9
 70
     1
102
RTVSPropertyOp10
 70
     1
102
RTVSPropertyOp11
 70
     1
102
RTVSPropertyOp12
 70
     1
102
RTVSPropertyOp13
 70
     1
102
RTVSPropertyOp14
 70
     1
102
RTVSPropertyOp15
 70
     1
102
RTVSPropertyOp16
 70
     1
102
RTVSPropertyOp17
 70
     1
102
RTVSPropertyOp18
 70
     1
102
RTVSPropertyOp19
 70
     1
102
RTVSPropertyOp20
 70
     1
102
RTVSPropertyOp21
 70
     1
102
RTVSPropertyOp22
 70
     1
102
RTVSPropertyOp23
 70
     1
102
RTVSPropertyOp24
 70
     1
102
RTVSPropertyOp25
 70
     1
102
RTVSPropertyOp26
 70
     1
102
RTVSPropertyOp27
 70
     1
102
RTVSPropertyOp28
 70
     1
102
RTVSPropertyOp29
 70
     1
102
RTVSPropertyOp30
 70
     1
102
RTVSPropertyOp31
 70
     1
102
RTVSPropertyOp32
 70
     1
102
RTVSPropertyOp33
 70
     1
102
RTVSPropertyOp34
 70
     1
102
RTVSPropertyOp35
 70
     1
102
RTVSPropertyOp36
 70
     1
102
RTVSPropertyOp37
 70
     1
102
RTVSPropertyOp38
 70
     1
102
RTVSPropertyOp39
 70
     1
102
RTVSPropertyOp40
 70
     1
102
RTVSPropertyOp41
 70
     1
102
RTVSPropertyOp42
 70
     1
102
RTVSPropertyOp43
 70
     1
102
RTVSPropertyOp44
 70
     1
102
RTVSPropertyOp45
 70
     1
102
RTVSPropertyOp46
 70
     1
102
RTVSPropertyOp47
 70
     1
102
RTVSPropertyOp48
 70
     1
102
RTVSPropertyOp49
 70
     1
102
RTVSPropertyOp50
 70
     1
102
RTVSPropertyOp51
 70
     0
102
RTVSPropertyOp52
 70
     0
102
RTVSPropertyOp53
 70
     1
102
RTVSPropertyOp54
 70
     1
102
RTVSPropertyOp55
 70
     1
102
RTVSPropertyOp56
 70
     1
102
RTVSPropertyOp57
 70
     1
102
RTVSPropertyOp58
 70
     1
102
RTVSPropertyOp59
 70
     1
102
RTVSPropertyOp60
 70
     1
102
RTVSPropertyOp61
 70
     1
102
RTVSPropertyOp62
 70
     1
  0
XRECORD
  5
3EC
102
{ACAD_REACTORS
330
3EB
102
}
330
3EB
100
AcDbXrecord
280
     1
102
RTVSPost2010Prop28
280
     0
102
RTVSPost2010PropOp28
 70
     1
102
RTVSPost2010Prop29
280
     1
102
RTVSPost2010PropOp29
 70
     1
102
RTVSPost2010Prop30
280
     1
102
RTVSPost2010PropOp30
 70
     1
102
RTVSPost2010Prop31
280
     0
102
RTVSPost2010PropOp31
 70
     1
102
RTVSPost2010Prop32
280
     0
102
RTVSPost2010PropOp32
 70
     1
102
RTVSPost2010Prop33
280
     0
102
RTVSPost2010PropOp33
 70
     1
102
RTVSPost2010Prop34
280
     0
102
RTVSPost2010PropOp34
 70
     1
102
RTVSPost2010Prop35
280
     0
102
RTVSPost2010PropOp35
 70
     1
102
RTVSPost2010Prop36
280
     0
102
RTVSPost2010PropOp36
 70
     1
102
RTVSPost2010Prop37
 90
       50
102
RTVSPost2010PropOp37
 70
     1
102
RTVSPost2010Prop38
140
0.0
102
RTVSPost2010PropOp38
 70
     1
102
RTVSPost2010Prop39
140
1.0
102
RTVSPost2010PropOp39
 70
     1
102
RTVSPost2010Prop40
 90
        0
102
RTVSPost2010PropOp40
 70
     1
102
RTVSPost2010Prop41ColorIndex
 90
       18
102
RTVSPost2010Prop41ColorRGB
 90
        0
102
RTVSPost2010PropOp41
 70
     1
102
RTVSPost2010Prop42
 90
       50
102
RTVSPost2010PropOp42
 70
     1
102
RTVSPost2010Prop43
 90
        3
102
RTVSPost2010PropOp43
 70
     1
102
RTVSPost2010Prop44ColorIndex
 90
        5
102
RTVSPost2010Prop44ColorRGB
 90
      255
102
RTVSPost2010PropOp44
 70
     1
102
RTVSPost2010Prop45
280
     0
102
RTVSPost2010PropOp45
 70
     1
102
RTVSPost2010Prop46
 90
       50
102
RTVSPost2010PropOp46
 70
     1
102
RTVSPost2010Prop47
 90
       50
102
RTVSPost2010PropOp47
 70
     1
102
RTVSPost2010Prop48
 90
       50
102
RTVSPost2010PropOp48
 70
     1
102
RTVSPost2010Prop49
280
     0
102
RTVSPost2010PropOp49
 70
     1
102
RTVSPost2010Prop50
 90
       50
102
RTVSPost2010PropOp50
 70
     1
102
RTVSPost2010Prop51ColorIndex
 90
      256
102
RTVSPost2010Prop51ColorRGB
 90
-16777216
102
RTVSPost2010PropOp51
 70
     0
102
RTVSPost2010Prop52
140
1.0
102
RTVSPost2010PropOp52
 70
     0
102
RTVSPost2010Prop53
 90
        2
102
RTVSPost2010PropOp53
 70
     1
102
RTVSPost2010Prop54
  1
strokes_ogs.tif
102
RTVSPost2010PropOp54
 70
     1
102
RTVSPost2010Prop55
280
     0
102
RTVSPost2010PropOp55
 70
     1
102
RTVSPost2010Prop56
140
1.0
102
RTVSPost2010PropOp56
 70
     1
102
RTVSPost2010Prop57
140
1.0
102
RTVSPost2010PropOp57
 70
     1
102
RTVSPropertyOp0
 70
     1
102
RTVSPropertyOp1
 70
     1
102
RTVSPropertyOp2
 70
     1
102
RTVSPropertyOp3
 70
     1
102
RTVSPropertyOp4
 70
     1
102
RTVSPropertyOp5
 70
     1
102
RTVSPropertyOp6
 70
     1
102
RTVSPropertyOp7
 70
     1
102
RTVSPropertyOp8
 70
     1
102
RTVSPropertyOp9
 70
     1
102
RTVSPropertyOp10
 70
     1
102
RTVSPropertyOp11
 70
     1
102
RTVSPropertyOp12
 70
     1
102
RTVSPropertyOp13
 70
     1
102
RTVSPropertyOp14
 70
     1
102
RTVSPropertyOp15
 70
     1
102
RTVSPropertyOp16
 70
     1
102
RTVSPropertyOp17
 70
     1
102
RTVSPropertyOp18
 70
     1
102
RTVSPropertyOp19
 70
     1
102
RTVSPropertyOp20
 70
     1
102
RTVSPropertyOp21
 70
     1
102
RTVSPropertyOp22
 70
     1
102
RTVSPropertyOp23
 70
     1
102
RTVSPropertyOp24
 70
     1
102
RTVSPropertyOp25
 70
     1
102
RTVSPropertyOp26
 70
     1
102
RTVSPropertyOp27
 70
     1
102
RTVSPropertyOp28
 70
     1
102
RTVSPropertyOp29
 70
     1
102
RTVSPropertyOp30
 70
     1
102
RTVSPropertyOp31
 70
     1
102
RTVSPropertyOp32
 70
     1
102
RTVSPropertyOp33
 70
     1
102
RTVSPropertyOp34
 70
     1
102
RTVSPropertyOp35
 70
     1
102
RTVSPropertyOp36
 70
     1
102
RTVSPropertyOp37
 70
     1
102
RTVSPropertyOp38
 70
     1
102
RTVSPropertyOp39
 70
     1
102
RTVSPropertyOp40
 70
     1
102
RTVSPropertyOp41
 70
     1
102
RTVSPropertyOp42
 70
     1
102
RTVSPropertyOp43
 70
     1
102
RTVSPropertyOp44
 70
     1
102
RTVSPropertyOp45
 70
     1
102
RTVSPropertyOp46
 70
     1
102
RTVSPropertyOp47
 70
     1
102
RTVSPropertyOp48
 70
     1
102
RTVSPropertyOp49
 70
     1
102
RTVSPropertyOp50
 70
     1
102
RTVSPropertyOp51
 70
     0
102
RTVSPropertyOp52
 70
     0
102
RTVSPropertyOp53
 70
     1
102
RTVSPropertyOp54
 70
     1
102
RTVSPropertyOp55
 70
     1
102
RTVSPropertyOp56
 70
     1
102
RTVSPropertyOp57
 70
     1
102
RTVSPropertyOp58
 70
     1
102
RTVSPropertyOp59
 70
     1
102
RTVSPropertyOp60
 70
     1
102
RTVSPropertyOp61
 70
     1
102
RTVSPropertyOp62
 70
     1
  0
XRECORD
  5
3F0
102
{ACAD_REACTORS
330
3EF
102
}
330
3EF
100
AcDbXrecord
280
     1
102
RTVSPost2010Prop28
280
     0
102
RTVSPost2010PropOp28
 70
     1
102
RTVSPost2010Prop29
280
     1
102
RTVSPost2010PropOp29
 70
     1
102
RTVSPost2010Prop30
280
     1
102
RTVSPost2010PropOp30
 70
     1
102
RTVSPost2010Prop31
280
     0
102
RTVSPost2010PropOp31
 70
     1
102
RTVSPost2010Prop32
280
     0
102
RTVSPost2010PropOp32
 70
     1
102
RTVSPost2010Prop33
280
     0
102
RTVSPost2010PropOp33
 70
     1
102
RTVSPost2010Prop34
280
     0
102
RTVSPost2010PropOp34
 70
     1
102
RTVSPost2010Prop35
280
     0
102
RTVSPost2010PropOp35
 70
     1
102
RTVSPost2010Prop36
280
     0
102
RTVSPost2010PropOp36
 70
     1
102
RTVSPost2010Prop37
 90
       50
102
RTVSPost2010PropOp37
 70
     1
102
RTVSPost2010Prop38
140
0.0
102
RTVSPost2010PropOp38
 70
     1
102
RTVSPost2010Prop39
140
1.0
102
RTVSPost2010PropOp39
 70
     1
102
RTVSPost2010Prop40
 90
        0
102
RTVSPost2010PropOp40
 70
     1
102
RTVSPost2010Prop41ColorIndex
 90
       18
102
RTVSPost2010Prop41ColorRGB
 90
        0
102
RTVSPost2010PropOp41
 70
     1
102
RTVSPost2010Prop42
 90
       50
102
RTVSPost2010PropOp42
 70
     1
102
RTVSPost2010Prop43
 90
        3
102
RTVSPost2010PropOp43
 70
     1
102
RTVSPost2010Prop44ColorIndex
 90
        5
102
RTVSPost2010Prop44ColorRGB
 90
      255
102
RTVSPost2010PropOp44
 70
     1
102
RTVSPost2010Prop45
280
     0
102
RTVSPost2010PropOp45
 70
     1
102
RTVSPost2010Prop46
 90
       50
102
RTVSPost2010PropOp46
 70
     1
102
RTVSPost2010Prop47
 90
       50
102
RTVSPost2010PropOp47
 70
     1
102
RTVSPost2010Prop48
 90
       50
102
RTVSPost2010PropOp48
 70
     1
102
RTVSPost2010Prop49
280
     0
102
RTVSPost2010PropOp49
 70
     1
102
RTVSPost2010Prop50
 90
       50
102
RTVSPost2010PropOp50
 70
     1
102
RTVSPost2010Prop51ColorIndex
 90
      256
102
RTVSPost2010Prop51ColorRGB
 90
-16777216
102
RTVSPost2010PropOp51
 70
     0
102
RTVSPost2010Prop52
140
1.0
102
RTVSPost2010PropOp52
 70
     0
102
RTVSPost2010Prop53
 90
        2
102
RTVSPost2010PropOp53
 70
     1
102
RTVSPost2010Prop54
  1
strokes_ogs.tif
102
RTVSPost2010PropOp54
 70
     1
102
RTVSPost2010Prop55
280
     0
102
RTVSPost2010PropOp55
 70
     1
102
RTVSPost2010Prop56
140
1.0
102
RTVSPost2010PropOp56
 70
     1
102
RTVSPost2010Prop57
140
1.0
102
RTVSPost2010PropOp57
 70
     1
102
RTVSPropertyOp0
 70
     1
102
RTVSPropertyOp1
 70
     1
102
RTVSPropertyOp2
 70
     1
102
RTVSPropertyOp3
 70
     1
102
RTVSPropertyOp4
 70
     1
102
RTVSPropertyOp5
 70
     1
102
RTVSPropertyOp6
 70
     1
102
RTVSPropertyOp7
 70
     1
102
RTVSPropertyOp8
 70
     1
102
RTVSPropertyOp9
 70
     1
102
RTVSPropertyOp10
 70
     1
102
RTVSPropertyOp11
 70
     1
102
RTVSPropertyOp12
 70
     1
102
RTVSPropertyOp13
 70
     1
102
RTVSPropertyOp14
 70
     1
102
RTVSPropertyOp15
 70
     1
102
RTVSPropertyOp16
 70
     1
102
RTVSPropertyOp17
 70
     1
102
RTVSPropertyOp18
 70
     1
102
RTVSPropertyOp19
 70
     1
102
RTVSPropertyOp20
 70
     1
102
RTVSPropertyOp21
 70
     1
102
RTVSPropertyOp22
 70
     1
102
RTVSPropertyOp23
 70
     1
102
RTVSPropertyOp24
 70
     1
102
RTVSPropertyOp25
 70
     1
102
RTVSPropertyOp26
 70
     1
102
RTVSPropertyOp27
 70
     1
102
RTVSPropertyOp28
 70
     1
102
RTVSPropertyOp29
 70
     1
102
RTVSPropertyOp30
 70
     1
102
RTVSPropertyOp31
 70
     1
102
RTVSPropertyOp32
 70
     1
102
RTVSPropertyOp33
 70
     1
102
RTVSPropertyOp34
 70
     1
102
RTVSPropertyOp35
 70
     1
102
RTVSPropertyOp36
 70
     1
102
RTVSPropertyOp37
 70
     1
102
RTVSPropertyOp38
 70
     1
102
RTVSPropertyOp39
 70
     1
102
RTVSPropertyOp40
 70
     1
102
RTVSPropertyOp41
 70
     1
102
RTVSPropertyOp42
 70
     1
102
RTVSPropertyOp43
 70
     1
102
RTVSPropertyOp44
 70
     1
102
RTVSPropertyOp45
 70
     1
102
RTVSPropertyOp46
 70
     1
102
RTVSPropertyOp47
 70
     1
102
RTVSPropertyOp48
 70
     1
102
RTVSPropertyOp49
 70
     1
102
RTVSPropertyOp50
 70
     1
102
RTVSPropertyOp51
 70
     0
102
RTVSPropertyOp52
 70
     0
102
RTVSPropertyOp53
 70
     1
102
RTVSPropertyOp54
 70
     1
102
RTVSPropertyOp55
 70
     1
102
RTVSPropertyOp56
 70
     1
102
RTVSPropertyOp57
 70
     1
102
RTVSPropertyOp58
 70
     1
102
RTVSPropertyOp59
 70
     1
102
RTVSPropertyOp60
 70
     1
102
RTVSPropertyOp61
 70
     1
102
RTVSPropertyOp62
 70
     1
  0
XRECORD
  5
40A
102
{ACAD_REACTORS
330
409
102
}
330
409
100
AcDbXrecord
280
     1
102
RTVSPost2010Prop28
280
     0
102
RTVSPost2010PropOp28
 70
     1
102
RTVSPost2010Prop29
280
     1
102
RTVSPost2010PropOp29
 70
     1
102
RTVSPost2010Prop30
280
     1
102
RTVSPost2010PropOp30
 70
     1
102
RTVSPost2010Prop31
280
     0
102
RTVSPost2010PropOp31
 70
     1
102
RTVSPost2010Prop32
280
     0
102
RTVSPost2010PropOp32
 70
     1
102
RTVSPost2010Prop33
280
     0
102
RTVSPost2010PropOp33
 70
     1
102
RTVSPost2010Prop34
280
     0
102
RTVSPost2010PropOp34
 70
     1
102
RTVSPost2010Prop35
280
     0
102
RTVSPost2010PropOp35
 70
     1
102
RTVSPost2010Prop36
280
     0
102
RTVSPost2010PropOp36
 70
     1
102
RTVSPost2010Prop37
 90
       50
102
RTVSPost2010PropOp37
 70
     0
102
RTVSPost2010Prop38
140
0.0
102
RTVSPost2010PropOp38
 70
     0
102
RTVSPost2010Prop39
140
1.0
102
RTVSPost2010PropOp39
 70
     0
102
RTVSPost2010Prop40
 90
        0
102
RTVSPost2010PropOp40
 70
     0
102
RTVSPost2010Prop41ColorIndex
 90
       18
102
RTVSPost2010Prop41ColorRGB
 90
        0
102
RTVSPost2010PropOp41
 70
     0
102
RTVSPost2010Prop42
 90
       50
102
RTVSPost2010PropOp42
 70
     0
102
RTVSPost2010Prop43
 90
        3
102
RTVSPost2010PropOp43
 70
     0
102
RTVSPost2010Prop44ColorIndex
 90
        5
102
RTVSPost2010Prop44ColorRGB
 90
      255
102
RTVSPost2010PropOp44
 70
     0
102
RTVSPost2010Prop45
280
     0
102
RTVSPost2010PropOp45
 70
     1
102
RTVSPost2010Prop46
 90
       50
102
RTVSPost2010PropOp46
 70
     0
102
RTVSPost2010Prop47
 90
       50
102
RTVSPost2010PropOp47
 70
     0
102
RTVSPost2010Prop48
 90
       50
102
RTVSPost2010PropOp48
 70
     0
102
RTVSPost2010Prop49
280
     0
102
RTVSPost2010PropOp49
 70
     1
102
RTVSPost2010Prop50
 90
       50
102
RTVSPost2010PropOp50
 70
     0
102
RTVSPost2010Prop51ColorIndex
 90
      256
102
RTVSPost2010Prop51ColorRGB
 90
-16777216
102
RTVSPost2010PropOp51
 70
     0
102
RTVSPost2010Prop52
140
1.0
102
RTVSPost2010PropOp52
 70
     0
102
RTVSPost2010Prop53
 90
        2
102
RTVSPost2010PropOp53
 70
     0
102
RTVSPost2010Prop54
  1
strokes_ogs.tif
102
RTVSPost2010PropOp54
 70
     0
102
RTVSPost2010Prop55
280
     0
102
RTVSPost2010PropOp55
 70
     1
102
RTVSPost2010Prop56
140
1.0
102
RTVSPost2010PropOp56
 70
     0
102
RTVSPost2010Prop57
140
1.0
102
RTVSPost2010PropOp57
 70
     0
102
RTVSPropertyOp0
 70
     0
102
RTVSPropertyOp1
 70
     0
102
RTVSPropertyOp2
 70
     0
102
RTVSPropertyOp3
 70
     0
102
RTVSPropertyOp4
 70
     0
102
RTVSPropertyOp5
 70
     0
102
RTVSPropertyOp6
 70
     0
102
RTVSPropertyOp7
 70
     0
102
RTVSPropertyOp8
 70
     0
102
RTVSPropertyOp9
 70
     0
102
RTVSPropertyOp10
 70
     0
102
RTVSPropertyOp11
 70
     0
102
RTVSPropertyOp12
 70
     0
102
RTVSPropertyOp13
 70
     0
102
RTVSPropertyOp14
 70
     2
102
RTVSPropertyOp15
 70
     0
102
RTVSPropertyOp16
 70
     0
102
RTVSPropertyOp17
 70
     0
102
RTVSPropertyOp18
 70
     0
102
RTVSPropertyOp19
 70
     0
102
RTVSPropertyOp20
 70
     0
102
RTVSPropertyOp21
 70
     0
102
RTVSPropertyOp22
 70
     0
102
RTVSPropertyOp23
 70
     0
102
RTVSPropertyOp24
 70
     0
102
RTVSPropertyOp25
 70
     0
102
RTVSPropertyOp26
 70
     0
102
RTVSPropertyOp27
 70
     0
102
RTVSPropertyOp28
 70
     1
102
RTVSPropertyOp29
 70
     1
102
RTVSPropertyOp30
 70
     1
102
RTVSPropertyOp31
 70
     1
102
RTVSPropertyOp32
 70
     1
102
RTVSPropertyOp33
 70
     1
102
RTVSPropertyOp34
 70
     1
102
RTVSPropertyOp35
 70
     1
102
RTVSPropertyOp36
 70
     1
102
RTVSPropertyOp37
 70
     0
102
RTVSPropertyOp38
 70
     0
102
RTVSPropertyOp39
 70
     0
102
RTVSPropertyOp40
 70
     0
102
RTVSPropertyOp41
 70
     0
102
RTVSPropertyOp42
 70
     0
102
RTVSPropertyOp43
 70
     0
102
RTVSPropertyOp44
 70
     0
102
RTVSPropertyOp45
 70
     1
102
RTVSPropertyOp46
 70
     0
102
RTVSPropertyOp47
 70
     0
102
RTVSPropertyOp48
 70
     0
102
RTVSPropertyOp49
 70
     1
102
RTVSPropertyOp50
 70
     0
102
RTVSPropertyOp51
 70
     0
102
RTVSPropertyOp52
 70
     0
102
RTVSPropertyOp53
 70
     0
102
RTVSPropertyOp54
 70
     0
102
RTVSPropertyOp55
 70
     1
102
RTVSPropertyOp56
 70
     0
102
RTVSPropertyOp57
 70
     0
102
RTVSPropertyOp58
 70
     1
102
RTVSPropertyOp59
 70
     1
102
RTVSPropertyOp60
 70
     1
102
RTVSPropertyOp61
 70
     1
102
RTVSPropertyOp62
 70
     1
  0
XRECORD
  5
3F8
102
{ACAD_REACTORS
330
3F7
102
}
330
3F7
100
AcDbXrecord
280
     1
102
RTVSPost2010Prop28
280
     0
102
RTVSPost2010PropOp28
 70
     1
102
RTVSPost2010Prop29
280
     1
102
RTVSPost2010PropOp29
 70
     1
102
RTVSPost2010Prop30
280
     1
102
RTVSPost2010PropOp30
 70
     1
102
RTVSPost2010Prop31
280
     0
102
RTVSPost2010PropOp31
 70
     1
102
RTVSPost2010Prop32
280
     0
102
RTVSPost2010PropOp32
 70
     1
102
RTVSPost2010Prop33
280
     0
102
RTVSPost2010PropOp33
 70
     1
102
RTVSPost2010Prop34
280
     0
102
RTVSPost2010PropOp34
 70
     1
102
RTVSPost2010Prop35
280
     0
102
RTVSPost2010PropOp35
 70
     1
102
RTVSPost2010Prop36
280
     0
102
RTVSPost2010PropOp36
 70
     1
102
RTVSPost2010Prop37
 90
       50
102
RTVSPost2010PropOp37
 70
     1
102
RTVSPost2010Prop38
140
0.0
102
RTVSPost2010PropOp38
 70
     1
102
RTVSPost2010Prop39
140
1.0
102
RTVSPost2010PropOp39
 70
     1
102
RTVSPost2010Prop40
 90
        0
102
RTVSPost2010PropOp40
 70
     1
102
RTVSPost2010Prop41ColorIndex
 90
       18
102
RTVSPost2010Prop41ColorRGB
 90
        0
102
RTVSPost2010PropOp41
 70
     1
102
RTVSPost2010Prop42
 90
       50
102
RTVSPost2010PropOp42
 70
     1
102
RTVSPost2010Prop43
 90
        3
102
RTVSPost2010PropOp43
 70
     1
102
RTVSPost2010Prop44ColorIndex
 90
        5
102
RTVSPost2010Prop44ColorRGB
 90
      255
102
RTVSPost2010PropOp44
 70
     1
102
RTVSPost2010Prop45
280
     0
102
RTVSPost2010PropOp45
 70
     1
102
RTVSPost2010Prop46
 90
       50
102
RTVSPost2010PropOp46
 70
     1
102
RTVSPost2010Prop47
 90
       50
102
RTVSPost2010PropOp47
 70
     1
102
RTVSPost2010Prop48
 90
       50
102
RTVSPost2010PropOp48
 70
     1
102
RTVSPost2010Prop49
280
     0
102
RTVSPost2010PropOp49
 70
     1
102
RTVSPost2010Prop50
 90
       50
102
RTVSPost2010PropOp50
 70
     1
102
RTVSPost2010Prop51ColorIndex
 90
      256
102
RTVSPost2010Prop51ColorRGB
 90
-16777216
102
RTVSPost2010PropOp51
 70
     0
102
RTVSPost2010Prop52
140
1.0
102
RTVSPost2010PropOp52
 70
     0
102
RTVSPost2010Prop53
 90
        2
102
RTVSPost2010PropOp53
 70
     1
102
RTVSPost2010Prop54
  1
strokes_ogs.tif
102
RTVSPost2010PropOp54
 70
     1
102
RTVSPost2010Prop55
280
     0
102
RTVSPost2010PropOp55
 70
     1
102
RTVSPost2010Prop56
140
1.0
102
RTVSPost2010PropOp56
 70
     1
102
RTVSPost2010Prop57
140
1.0
102
RTVSPost2010PropOp57
 70
     1
102
RTVSPropertyOp0
 70
     1
102
RTVSPropertyOp1
 70
     1
102
RTVSPropertyOp2
 70
     1
102
RTVSPropertyOp3
 70
     1
102
RTVSPropertyOp4
 70
     1
102
RTVSPropertyOp5
 70
     1
102
RTVSPropertyOp6
 70
     1
102
RTVSPropertyOp7
 70
     1
102
RTVSPropertyOp8
 70
     1
102
RTVSPropertyOp9
 70
     1
102
RTVSPropertyOp10
 70
     1
102
RTVSPropertyOp11
 70
     1
102
RTVSPropertyOp12
 70
     1
102
RTVSPropertyOp13
 70
     1
102
RTVSPropertyOp14
 70
     1
102
RTVSPropertyOp15
 70
     1
102
RTVSPropertyOp16
 70
     1
102
RTVSPropertyOp17
 70
     1
102
RTVSPropertyOp18
 70
     1
102
RTVSPropertyOp19
 70
     1
102
RTVSPropertyOp20
 70
     1
102
RTVSPropertyOp21
 70
     1
102
RTVSPropertyOp22
 70
     1
102
RTVSPropertyOp23
 70
     1
102
RTVSPropertyOp24
 70
     1
102
RTVSPropertyOp25
 70
     1
102
RTVSPropertyOp26
 70
     1
102
RTVSPropertyOp27
 70
     1
102
RTVSPropertyOp28
 70
     1
102
RTVSPropertyOp29
 70
     1
102
RTVSPropertyOp30
 70
     1
102
RTVSPropertyOp31
 70
     1
102
RTVSPropertyOp32
 70
     1
102
RTVSPropertyOp33
 70
     1
102
RTVSPropertyOp34
 70
     1
102
RTVSPropertyOp35
 70
     1
102
RTVSPropertyOp36
 70
     1
102
RTVSPropertyOp37
 70
     1
102
RTVSPropertyOp38
 70
     1
102
RTVSPropertyOp39
 70
     1
102
RTVSPropertyOp40
 70
     1
102
RTVSPropertyOp41
 70
     1
102
RTVSPropertyOp42
 70
     1
102
RTVSPropertyOp43
 70
     1
102
RTVSPropertyOp44
 70
     1
102
RTVSPropertyOp45
 70
     1
102
RTVSPropertyOp46
 70
     1
102
RTVSPropertyOp47
 70
     1
102
RTVSPropertyOp48
 70
     1
102
RTVSPropertyOp49
 70
     1
102
RTVSPropertyOp50
 70
     1
102
RTVSPropertyOp51
 70
     0
102
RTVSPropertyOp52
 70
     0
102
RTVSPropertyOp53
 70
     1
102
RTVSPropertyOp54
 70
     1
102
RTVSPropertyOp55
 70
     1
102
RTVSPropertyOp56
 70
     1
102
RTVSPropertyOp57
 70
     1
102
RTVSPropertyOp58
 70
     1
102
RTVSPropertyOp59
 70
     1
102
RTVSPropertyOp60
 70
     1
102
RTVSPropertyOp61
 70
     1
102
RTVSPropertyOp62
 70
     1
  0
XRECORD
  5
3DC
102
{ACAD_REACTORS
330
3DB
102
}
330
3DB
100
AcDbXrecord
280
     1
102
RTVSPost2010Prop28
280
     0
102
RTVSPost2010PropOp28
 70
     1
102
RTVSPost2010Prop29
280
     1
102
RTVSPost2010PropOp29
 70
     1
102
RTVSPost2010Prop30
280
     1
102
RTVSPost2010PropOp30
 70
     1
102
RTVSPost2010Prop31
280
     0
102
RTVSPost2010PropOp31
 70
     1
102
RTVSPost2010Prop32
280
     0
102
RTVSPost2010PropOp32
 70
     1
102
RTVSPost2010Prop33
280
     0
102
RTVSPost2010PropOp33
 70
     1
102
RTVSPost2010Prop34
280
     0
102
RTVSPost2010PropOp34
 70
     1
102
RTVSPost2010Prop35
280
     0
102
RTVSPost2010PropOp35
 70
     1
102
RTVSPost2010Prop36
280
     0
102
RTVSPost2010PropOp36
 70
     1
102
RTVSPost2010Prop37
 90
       50
102
RTVSPost2010PropOp37
 70
     1
102
RTVSPost2010Prop38
140
0.0
102
RTVSPost2010PropOp38
 70
     1
102
RTVSPost2010Prop39
140
1.0
102
RTVSPost2010PropOp39
 70
     1
102
RTVSPost2010Prop40
 90
        0
102
RTVSPost2010PropOp40
 70
     1
102
RTVSPost2010Prop41ColorIndex
 90
       18
102
RTVSPost2010Prop41ColorRGB
 90
        0
102
RTVSPost2010PropOp41
 70
     1
102
RTVSPost2010Prop42
 90
       50
102
RTVSPost2010PropOp42
 70
     1
102
RTVSPost2010Prop43
 90
        3
102
RTVSPost2010PropOp43
 70
     1
102
RTVSPost2010Prop44ColorIndex
 90
        5
102
RTVSPost2010Prop44ColorRGB
 90
      255
102
RTVSPost2010PropOp44
 70
     1
102
RTVSPost2010Prop45
280
     0
102
RTVSPost2010PropOp45
 70
     1
102
RTVSPost2010Prop46
 90
       50
102
RTVSPost2010PropOp46
 70
     1
102
RTVSPost2010Prop47
 90
       50
102
RTVSPost2010PropOp47
 70
     1
102
RTVSPost2010Prop48
 90
       50
102
RTVSPost2010PropOp48
 70
     1
102
RTVSPost2010Prop49
280
     0
102
RTVSPost2010PropOp49
 70
     1
102
RTVSPost2010Prop50
 90
       50
102
RTVSPost2010PropOp50
 70
     1
102
RTVSPost2010Prop51ColorIndex
 90
      256
102
RTVSPost2010Prop51ColorRGB
 90
-16777216
102
RTVSPost2010PropOp51
 70
     0
102
RTVSPost2010Prop52
140
1.0
102
RTVSPost2010PropOp52
 70
     0
102
RTVSPost2010Prop53
 90
        2
102
RTVSPost2010PropOp53
 70
     1
102
RTVSPost2010Prop54
  1
strokes_ogs.tif
102
RTVSPost2010PropOp54
 70
     1
102
RTVSPost2010Prop55
280
     0
102
RTVSPost2010PropOp55
 70
     1
102
RTVSPost2010Prop56
140
1.0
102
RTVSPost2010PropOp56
 70
     1
102
RTVSPost2010Prop57
140
1.0
102
RTVSPost2010PropOp57
 70
     1
102
RTVSPropertyOp0
 70
     1
102
RTVSPropertyOp1
 70
     1
102
RTVSPropertyOp2
 70
     1
102
RTVSPropertyOp3
 70
     1
102
RTVSPropertyOp4
 70
     1
102
RTVSPropertyOp5
 70
     1
102
RTVSPropertyOp6
 70
     1
102
RTVSPropertyOp7
 70
     1
102
RTVSPropertyOp8
 70
     1
102
RTVSPropertyOp9
 70
     1
102
RTVSPropertyOp10
 70
     1
102
RTVSPropertyOp11
 70
     1
102
RTVSPropertyOp12
 70
     1
102
RTVSPropertyOp13
 70
     1
102
RTVSPropertyOp14
 70
     1
102
RTVSPropertyOp15
 70
     1
102
RTVSPropertyOp16
 70
     1
102
RTVSPropertyOp17
 70
     1
102
RTVSPropertyOp18
 70
     1
102
RTVSPropertyOp19
 70
     1
102
RTVSPropertyOp20
 70
     1
102
RTVSPropertyOp21
 70
     1
102
RTVSPropertyOp22
 70
     1
102
RTVSPropertyOp23
 70
     1
102
RTVSPropertyOp24
 70
     1
102
RTVSPropertyOp25
 70
     1
102
RTVSPropertyOp26
 70
     1
102
RTVSPropertyOp27
 70
     1
102
RTVSPropertyOp28
 70
     1
102
RTVSPropertyOp29
 70
     1
102
RTVSPropertyOp30
 70
     1
102
RTVSPropertyOp31
 70
     1
102
RTVSPropertyOp32
 70
     1
102
RTVSPropertyOp33
 70
     1
102
RTVSPropertyOp34
 70
     1
102
RTVSPropertyOp35
 70
     1
102
RTVSPropertyOp36
 70
     1
102
RTVSPropertyOp37
 70
     1
102
RTVSPropertyOp38
 70
     1
102
RTVSPropertyOp39
 70
     1
102
RTVSPropertyOp40
 70
     1
102
RTVSPropertyOp41
 70
     1
102
RTVSPropertyOp42
 70
     1
102
RTVSPropertyOp43
 70
     1
102
RTVSPropertyOp44
 70
     1
102
RTVSPropertyOp45
 70
     1
102
RTVSPropertyOp46
 70
     1
102
RTVSPropertyOp47
 70
     1
102
RTVSPropertyOp48
 70
     1
102
RTVSPropertyOp49
 70
     1
102
RTVSPropertyOp50
 70
     1
102
RTVSPropertyOp51
 70
     0
102
RTVSPropertyOp52
 70
     0
102
RTVSPropertyOp53
 70
     1
102
RTVSPropertyOp54
 70
     1
102
RTVSPropertyOp55
 70
     1
102
RTVSPropertyOp56
 70
     1
102
RTVSPropertyOp57
 70
     1
102
RTVSPropertyOp58
 70
     1
102
RTVSPropertyOp59
 70
     1
102
RTVSPropertyOp60
 70
     1
102
RTVSPropertyOp61
 70
     1
102
RTVSPropertyOp62
 70
     1
  0
XRECORD
  5
3DE
102
{ACAD_REACTORS
330
3DD
102
}
330
3DD
100
AcDbXrecord
280
     1
102
RTVSPost2010Prop28
280
     0
102
RTVSPost2010PropOp28
 70
     1
102
RTVSPost2010Prop29
280
     1
102
RTVSPost2010PropOp29
 70
     1
102
RTVSPost2010Prop30
280
     1
102
RTVSPost2010PropOp30
 70
     1
102
RTVSPost2010Prop31
280
     0
102
RTVSPost2010PropOp31
 70
     1
102
RTVSPost2010Prop32
280
     0
102
RTVSPost2010PropOp32
 70
     1
102
RTVSPost2010Prop33
280
     0
102
RTVSPost2010PropOp33
 70
     1
102
RTVSPost2010Prop34
280
     0
102
RTVSPost2010PropOp34
 70
     1
102
RTVSPost2010Prop35
280
     0
102
RTVSPost2010PropOp35
 70
     1
102
RTVSPost2010Prop36
280
     0
102
RTVSPost2010PropOp36
 70
     1
102
RTVSPost2010Prop37
 90
       50
102
RTVSPost2010PropOp37
 70
     1
102
RTVSPost2010Prop38
140
0.0
102
RTVSPost2010PropOp38
 70
     1
102
RTVSPost2010Prop39
140
1.0
102
RTVSPost2010PropOp39
 70
     1
102
RTVSPost2010Prop40
 90
        0
102
RTVSPost2010PropOp40
 70
     1
102
RTVSPost2010Prop41ColorIndex
 90
       18
102
RTVSPost2010Prop41ColorRGB
 90
        0
102
RTVSPost2010PropOp41
 70
     1
102
RTVSPost2010Prop42
 90
       50
102
RTVSPost2010PropOp42
 70
     1
102
RTVSPost2010Prop43
 90
        3
102
RTVSPost2010PropOp43
 70
     1
102
RTVSPost2010Prop44ColorIndex
 90
        5
102
RTVSPost2010Prop44ColorRGB
 90
      255
102
RTVSPost2010PropOp44
 70
     1
102
RTVSPost2010Prop45
280
     0
102
RTVSPost2010PropOp45
 70
     1
102
RTVSPost2010Prop46
 90
       50
102
RTVSPost2010PropOp46
 70
     1
102
RTVSPost2010Prop47
 90
       50
102
RTVSPost2010PropOp47
 70
     1
102
RTVSPost2010Prop48
 90
       50
102
RTVSPost2010PropOp48
 70
     1
102
RTVSPost2010Prop49
280
     0
102
RTVSPost2010PropOp49
 70
     1
102
RTVSPost2010Prop50
 90
       50
102
RTVSPost2010PropOp50
 70
     1
102
RTVSPost2010Prop51ColorIndex
 90
      256
102
RTVSPost2010Prop51ColorRGB
 90
-16777216
102
RTVSPost2010PropOp51
 70
     0
102
RTVSPost2010Prop52
140
1.0
102
RTVSPost2010PropOp52
 70
     0
102
RTVSPost2010Prop53
 90
        2
102
RTVSPost2010PropOp53
 70
     1
102
RTVSPost2010Prop54
  1
strokes_ogs.tif
102
RTVSPost2010PropOp54
 70
     1
102
RTVSPost2010Prop55
280
     0
102
RTVSPost2010PropOp55
 70
     1
102
RTVSPost2010Prop56
140
1.0
102
RTVSPost2010PropOp56
 70
     1
102
RTVSPost2010Prop57
140
1.0
102
RTVSPost2010PropOp57
 70
     1
102
RTVSPropertyOp0
 70
     1
102
RTVSPropertyOp1
 70
     1
102
RTVSPropertyOp2
 70
     1
102
RTVSPropertyOp3
 70
     1
102
RTVSPropertyOp4
 70
     1
102
RTVSPropertyOp5
 70
     1
102
RTVSPropertyOp6
 70
     1
102
RTVSPropertyOp7
 70
     1
102
RTVSPropertyOp8
 70
     1
102
RTVSPropertyOp9
 70
     1
102
RTVSPropertyOp10
 70
     1
102
RTVSPropertyOp11
 70
     1
102
RTVSPropertyOp12
 70
     1
102
RTVSPropertyOp13
 70
     1
102
RTVSPropertyOp14
 70
     1
102
RTVSPropertyOp15
 70
     1
102
RTVSPropertyOp16
 70
     1
102
RTVSPropertyOp17
 70
     1
102
RTVSPropertyOp18
 70
     1
102
RTVSPropertyOp19
 70
     1
102
RTVSPropertyOp20
 70
     1
102
RTVSPropertyOp21
 70
     1
102
RTVSPropertyOp22
 70
     1
102
RTVSPropertyOp23
 70
     1
102
RTVSPropertyOp24
 70
     1
102
RTVSPropertyOp25
 70
     1
102
RTVSPropertyOp26
 70
     1
102
RTVSPropertyOp27
 70
     1
102
RTVSPropertyOp28
 70
     1
102
RTVSPropertyOp29
 70
     1
102
RTVSPropertyOp30
 70
     1
102
RTVSPropertyOp31
 70
     1
102
RTVSPropertyOp32
 70
     1
102
RTVSPropertyOp33
 70
     1
102
RTVSPropertyOp34
 70
     1
102
RTVSPropertyOp35
 70
     1
102
RTVSPropertyOp36
 70
     1
102
RTVSPropertyOp37
 70
     1
102
RTVSPropertyOp38
 70
     1
102
RTVSPropertyOp39
 70
     1
102
RTVSPropertyOp40
 70
     1
102
RTVSPropertyOp41
 70
     1
102
RTVSPropertyOp42
 70
     1
102
RTVSPropertyOp43
 70
     1
102
RTVSPropertyOp44
 70
     1
102
RTVSPropertyOp45
 70
     1
102
RTVSPropertyOp46
 70
     1
102
RTVSPropertyOp47
 70
     1
102
RTVSPropertyOp48
 70
     1
102
RTVSPropertyOp49
 70
     1
102
RTVSPropertyOp50
 70
     1
102
RTVSPropertyOp51
 70
     0
102
RTVSPropertyOp52
 70
     0
102
RTVSPropertyOp53
 70
     1
102
RTVSPropertyOp54
 70
     1
102
RTVSPropertyOp55
 70
     1
102
RTVSPropertyOp56
 70
     1
102
RTVSPropertyOp57
 70
     1
102
RTVSPropertyOp58
 70
     1
102
RTVSPropertyOp59
 70
     1
102
RTVSPropertyOp60
 70
     1
102
RTVSPropertyOp61
 70
     1
102
RTVSPropertyOp62
 70
     1
  0
XRECORD
  5
3E0
102
{ACAD_REACTORS
330
3DF
102
}
330
3DF
100
AcDbXrecord
280
     1
102
RTVSPost2010Prop28
280
     0
102
RTVSPost2010PropOp28
 70
     1
102
RTVSPost2010Prop29
280
     1
102
RTVSPost2010PropOp29
 70
     1
102
RTVSPost2010Prop30
280
     1
102
RTVSPost2010PropOp30
 70
     1
102
RTVSPost2010Prop31
280
     0
102
RTVSPost2010PropOp31
 70
     1
102
RTVSPost2010Prop32
280
     0
102
RTVSPost2010PropOp32
 70
     1
102
RTVSPost2010Prop33
280
     0
102
RTVSPost2010PropOp33
 70
     1
102
RTVSPost2010Prop34
280
     0
102
RTVSPost2010PropOp34
 70
     1
102
RTVSPost2010Prop35
280
     0
102
RTVSPost2010PropOp35
 70
     1
102
RTVSPost2010Prop36
280
     0
102
RTVSPost2010PropOp36
 70
     1
102
RTVSPost2010Prop37
 90
       50
102
RTVSPost2010PropOp37
 70
     1
102
RTVSPost2010Prop38
140
0.0
102
RTVSPost2010PropOp38
 70
     1
102
RTVSPost2010Prop39
140
1.0
102
RTVSPost2010PropOp39
 70
     1
102
RTVSPost2010Prop40
 90
        0
102
RTVSPost2010PropOp40
 70
     1
102
RTVSPost2010Prop41ColorIndex
 90
       18
102
RTVSPost2010Prop41ColorRGB
 90
        0
102
RTVSPost2010PropOp41
 70
     1
102
RTVSPost2010Prop42
 90
       50
102
RTVSPost2010PropOp42
 70
     1
102
RTVSPost2010Prop43
 90
        3
102
RTVSPost2010PropOp43
 70
     1
102
RTVSPost2010Prop44ColorIndex
 90
        5
102
RTVSPost2010Prop44ColorRGB
 90
      255
102
RTVSPost2010PropOp44
 70
     1
102
RTVSPost2010Prop45
280
     0
102
RTVSPost2010PropOp45
 70
     1
102
RTVSPost2010Prop46
 90
       50
102
RTVSPost2010PropOp46
 70
     1
102
RTVSPost2010Prop47
 90
       50
102
RTVSPost2010PropOp47
 70
     1
102
RTVSPost2010Prop48
 90
       50
102
RTVSPost2010PropOp48
 70
     1
102
RTVSPost2010Prop49
280
     0
102
RTVSPost2010PropOp49
 70
     1
102
RTVSPost2010Prop50
 90
       50
102
RTVSPost2010PropOp50
 70
     1
102
RTVSPost2010Prop51ColorIndex
 90
      256
102
RTVSPost2010Prop51ColorRGB
 90
-16777216
102
RTVSPost2010PropOp51
 70
     0
102
RTVSPost2010Prop52
140
1.0
102
RTVSPost2010PropOp52
 70
     0
102
RTVSPost2010Prop53
 90
        2
102
RTVSPost2010PropOp53
 70
     1
102
RTVSPost2010Prop54
  1
strokes_ogs.tif
102
RTVSPost2010PropOp54
 70
     1
102
RTVSPost2010Prop55
280
     0
102
RTVSPost2010PropOp55
 70
     1
102
RTVSPost2010Prop56
140
1.0
102
RTVSPost2010PropOp56
 70
     1
102
RTVSPost2010Prop57
140
1.0
102
RTVSPost2010PropOp57
 70
     1
102
RTVSPropertyOp0
 70
     1
102
RTVSPropertyOp1
 70
     1
102
RTVSPropertyOp2
 70
     1
102
RTVSPropertyOp3
 70
     1
102
RTVSPropertyOp4
 70
     1
102
RTVSPropertyOp5
 70
     1
102
RTVSPropertyOp6
 70
     1
102
RTVSPropertyOp7
 70
     1
102
RTVSPropertyOp8
 70
     1
102
RTVSPropertyOp9
 70
     1
102
RTVSPropertyOp10
 70
     1
102
RTVSPropertyOp11
 70
     1
102
RTVSPropertyOp12
 70
     1
102
RTVSPropertyOp13
 70
     1
102
RTVSPropertyOp14
 70
     1
102
RTVSPropertyOp15
 70
     1
102
RTVSPropertyOp16
 70
     1
102
RTVSPropertyOp17
 70
     1
102
RTVSPropertyOp18
 70
     1
102
RTVSPropertyOp19
 70
     1
102
RTVSPropertyOp20
 70
     1
102
RTVSPropertyOp21
 70
     1
102
RTVSPropertyOp22
 70
     1
102
RTVSPropertyOp23
 70
     1
102
RTVSPropertyOp24
 70
     1
102
RTVSPropertyOp25
 70
     1
102
RTVSPropertyOp26
 70
     1
102
RTVSPropertyOp27
 70
     1
102
RTVSPropertyOp28
 70
     1
102
RTVSPropertyOp29
 70
     1
102
RTVSPropertyOp30
 70
     1
102
RTVSPropertyOp31
 70
     1
102
RTVSPropertyOp32
 70
     1
102
RTVSPropertyOp33
 70
     1
102
RTVSPropertyOp34
 70
     1
102
RTVSPropertyOp35
 70
     1
102
RTVSPropertyOp36
 70
     1
102
RTVSPropertyOp37
 70
     1
102
RTVSPropertyOp38
 70
     1
102
RTVSPropertyOp39
 70
     1
102
RTVSPropertyOp40
 70
     1
102
RTVSPropertyOp41
 70
     1
102
RTVSPropertyOp42
 70
     1
102
RTVSPropertyOp43
 70
     1
102
RTVSPropertyOp44
 70
     1
102
RTVSPropertyOp45
 70
     1
102
RTVSPropertyOp46
 70
     1
102
RTVSPropertyOp47
 70
     1
102
RTVSPropertyOp48
 70
     1
102
RTVSPropertyOp49
 70
     1
102
RTVSPropertyOp50
 70
     1
102
RTVSPropertyOp51
 70
     0
102
RTVSPropertyOp52
 70
     0
102
RTVSPropertyOp53
 70
     1
102
RTVSPropertyOp54
 70
     1
102
RTVSPropertyOp55
 70
     1
102
RTVSPropertyOp56
 70
     1
102
RTVSPropertyOp57
 70
     1
102
RTVSPropertyOp58
 70
     1
102
RTVSPropertyOp59
 70
     1
102
RTVSPropertyOp60
 70
     1
102
RTVSPropertyOp61
 70
     1
102
RTVSPropertyOp62
 70
     1
  0
XRECORD
  5
3E2
102
{ACAD_REACTORS
330
3E1
102
}
330
3E1
100
AcDbXrecord
280
     1
102
RTVSPost2010Prop28
280
     0
102
RTVSPost2010PropOp28
 70
     1
102
RTVSPost2010Prop29
280
     1
102
RTVSPost2010PropOp29
 70
     1
102
RTVSPost2010Prop30
280
     1
102
RTVSPost2010PropOp30
 70
     1
102
RTVSPost2010Prop31
280
     0
102
RTVSPost2010PropOp31
 70
     1
102
RTVSPost2010Prop32
280
     0
102
RTVSPost2010PropOp32
 70
     1
102
RTVSPost2010Prop33
280
     0
102
RTVSPost2010PropOp33
 70
     1
102
RTVSPost2010Prop34
280
     0
102
RTVSPost2010PropOp34
 70
     1
102
RTVSPost2010Prop35
280
     0
102
RTVSPost2010PropOp35
 70
     1
102
RTVSPost2010Prop36
280
     0
102
RTVSPost2010PropOp36
 70
     1
102
RTVSPost2010Prop37
 90
       50
102
RTVSPost2010PropOp37
 70
     1
102
RTVSPost2010Prop38
140
0.0
102
RTVSPost2010PropOp38
 70
     1
102
RTVSPost2010Prop39
140
1.0
102
RTVSPost2010PropOp39
 70
     1
102
RTVSPost2010Prop40
 90
        0
102
RTVSPost2010PropOp40
 70
     1
102
RTVSPost2010Prop41ColorIndex
 90
       18
102
RTVSPost2010Prop41ColorRGB
 90
        0
102
RTVSPost2010PropOp41
 70
     1
102
RTVSPost2010Prop42
 90
       50
102
RTVSPost2010PropOp42
 70
     1
102
RTVSPost2010Prop43
 90
        3
102
RTVSPost2010PropOp43
 70
     1
102
RTVSPost2010Prop44ColorIndex
 90
        5
102
RTVSPost2010Prop44ColorRGB
 90
      255
102
RTVSPost2010PropOp44
 70
     1
102
RTVSPost2010Prop45
280
     0
102
RTVSPost2010PropOp45
 70
     1
102
RTVSPost2010Prop46
 90
       50
102
RTVSPost2010PropOp46
 70
     1
102
RTVSPost2010Prop47
 90
       50
102
RTVSPost2010PropOp47
 70
     1
102
RTVSPost2010Prop48
 90
       50
102
RTVSPost2010PropOp48
 70
     1
102
RTVSPost2010Prop49
280
     0
102
RTVSPost2010PropOp49
 70
     1
102
RTVSPost2010Prop50
 90
       50
102
RTVSPost2010PropOp50
 70
     1
102
RTVSPost2010Prop51ColorIndex
 90
      256
102
RTVSPost2010Prop51ColorRGB
 90
-16777216
102
RTVSPost2010PropOp51
 70
     0
102
RTVSPost2010Prop52
140
1.0
102
RTVSPost2010PropOp52
 70
     0
102
RTVSPost2010Prop53
 90
        2
102
RTVSPost2010PropOp53
 70
     1
102
RTVSPost2010Prop54
  1
strokes_ogs.tif
102
RTVSPost2010PropOp54
 70
     1
102
RTVSPost2010Prop55
280
     0
102
RTVSPost2010PropOp55
 70
     1
102
RTVSPost2010Prop56
140
1.0
102
RTVSPost2010PropOp56
 70
     1
102
RTVSPost2010Prop57
140
1.0
102
RTVSPost2010PropOp57
 70
     1
102
RTVSPropertyOp0
 70
     1
102
RTVSPropertyOp1
 70
     1
102
RTVSPropertyOp2
 70
     1
102
RTVSPropertyOp3
 70
     1
102
RTVSPropertyOp4
 70
     1
102
RTVSPropertyOp5
 70
     1
102
RTVSPropertyOp6
 70
     1
102
RTVSPropertyOp7
 70
     1
102
RTVSPropertyOp8
 70
     1
102
RTVSPropertyOp9
 70
     1
102
RTVSPropertyOp10
 70
     1
102
RTVSPropertyOp11
 70
     1
102
RTVSPropertyOp12
 70
     1
102
RTVSPropertyOp13
 70
     1
102
RTVSPropertyOp14
 70
     1
102
RTVSPropertyOp15
 70
     1
102
RTVSPropertyOp16
 70
     1
102
RTVSPropertyOp17
 70
     1
102
RTVSPropertyOp18
 70
     1
102
RTVSPropertyOp19
 70
     1
102
RTVSPropertyOp20
 70
     1
102
RTVSPropertyOp21
 70
     1
102
RTVSPropertyOp22
 70
     1
102
RTVSPropertyOp23
 70
     1
102
RTVSPropertyOp24
 70
     1
102
RTVSPropertyOp25
 70
     1
102
RTVSPropertyOp26
 70
     1
102
RTVSPropertyOp27
 70
     1
102
RTVSPropertyOp28
 70
     1
102
RTVSPropertyOp29
 70
     1
102
RTVSPropertyOp30
 70
     1
102
RTVSPropertyOp31
 70
     1
102
RTVSPropertyOp32
 70
     1
102
RTVSPropertyOp33
 70
     1
102
RTVSPropertyOp34
 70
     1
102
RTVSPropertyOp35
 70
     1
102
RTVSPropertyOp36
 70
     1
102
RTVSPropertyOp37
 70
     1
102
RTVSPropertyOp38
 70
     1
102
RTVSPropertyOp39
 70
     1
102
RTVSPropertyOp40
 70
     1
102
RTVSPropertyOp41
 70
     1
102
RTVSPropertyOp42
 70
     1
102
RTVSPropertyOp43
 70
     1
102
RTVSPropertyOp44
 70
     1
102
RTVSPropertyOp45
 70
     1
102
RTVSPropertyOp46
 70
     1
102
RTVSPropertyOp47
 70
     1
102
RTVSPropertyOp48
 70
     1
102
RTVSPropertyOp49
 70
     1
102
RTVSPropertyOp50
 70
     1
102
RTVSPropertyOp51
 70
     0
102
RTVSPropertyOp52
 70
     0
102
RTVSPropertyOp53
 70
     1
102
RTVSPropertyOp54
 70
     1
102
RTVSPropertyOp55
 70
     1
102
RTVSPropertyOp56
 70
     1
102
RTVSPropertyOp57
 70
     1
102
RTVSPropertyOp58
 70
     1
102
RTVSPropertyOp59
 70
     1
102
RTVSPropertyOp60
 70
     1
102
RTVSPropertyOp61
 70
     1
102
RTVSPropertyOp62
 70
     1
  0
XRECORD
  5
3EA
102
{ACAD_REACTORS
330
3E9
102
}
330
3E9
100
AcDbXrecord
280
     1
102
RTVSPost2010Prop28
280
     0
102
RTVSPost2010PropOp28
 70
     1
102
RTVSPost2010Prop29
280
     1
102
RTVSPost2010PropOp29
 70
     1
102
RTVSPost2010Prop30
280
     1
102
RTVSPost2010PropOp30
 70
     1
102
RTVSPost2010Prop31
280
     0
102
RTVSPost2010PropOp31
 70
     1
102
RTVSPost2010Prop32
280
     0
102
RTVSPost2010PropOp32
 70
     1
102
RTVSPost2010Prop33
280
     0
102
RTVSPost2010PropOp33
 70
     1
102
RTVSPost2010Prop34
280
     0
102
RTVSPost2010PropOp34
 70
     1
102
RTVSPost2010Prop35
280
     0
102
RTVSPost2010PropOp35
 70
     1
102
RTVSPost2010Prop36
280
     0
102
RTVSPost2010PropOp36
 70
     1
102
RTVSPost2010Prop37
 90
       50
102
RTVSPost2010PropOp37
 70
     1
102
RTVSPost2010Prop38
140
0.0
102
RTVSPost2010PropOp38
 70
     1
102
RTVSPost2010Prop39
140
1.0
102
RTVSPost2010PropOp39
 70
     1
102
RTVSPost2010Prop40
 90
        0
102
RTVSPost2010PropOp40
 70
     1
102
RTVSPost2010Prop41ColorIndex
 90
       18
102
RTVSPost2010Prop41ColorRGB
 90
        0
102
RTVSPost2010PropOp41
 70
     1
102
RTVSPost2010Prop42
 90
       50
102
RTVSPost2010PropOp42
 70
     1
102
RTVSPost2010Prop43
 90
        3
102
RTVSPost2010PropOp43
 70
     1
102
RTVSPost2010Prop44ColorIndex
 90
        5
102
RTVSPost2010Prop44ColorRGB
 90
      255
102
RTVSPost2010PropOp44
 70
     1
102
RTVSPost2010Prop45
280
     0
102
RTVSPost2010PropOp45
 70
     1
102
RTVSPost2010Prop46
 90
       50
102
RTVSPost2010PropOp46
 70
     1
102
RTVSPost2010Prop47
 90
       50
102
RTVSPost2010PropOp47
 70
     1
102
RTVSPost2010Prop48
 90
       50
102
RTVSPost2010PropOp48
 70
     1
102
RTVSPost2010Prop49
280
     0
102
RTVSPost2010PropOp49
 70
     1
102
RTVSPost2010Prop50
 90
       50
102
RTVSPost2010PropOp50
 70
     1
102
RTVSPost2010Prop51ColorIndex
 90
      256
102
RTVSPost2010Prop51ColorRGB
 90
-16777216
102
RTVSPost2010PropOp51
 70
     0
102
RTVSPost2010Prop52
140
1.0
102
RTVSPost2010PropOp52
 70
     0
102
RTVSPost2010Prop53
 90
        2
102
RTVSPost2010PropOp53
 70
     1
102
RTVSPost2010Prop54
  1
strokes_ogs.tif
102
RTVSPost2010PropOp54
 70
     1
102
RTVSPost2010Prop55
280
     0
102
RTVSPost2010PropOp55
 70
     1
102
RTVSPost2010Prop56
140
1.0
102
RTVSPost2010PropOp56
 70
     1
102
RTVSPost2010Prop57
140
1.0
102
RTVSPost2010PropOp57
 70
     1
102
RTVSPropertyOp0
 70
     1
102
RTVSPropertyOp1
 70
     1
102
RTVSPropertyOp2
 70
     1
102
RTVSPropertyOp3
 70
     1
102
RTVSPropertyOp4
 70
     1
102
RTVSPropertyOp5
 70
     1
102
RTVSPropertyOp6
 70
     1
102
RTVSPropertyOp7
 70
     1
102
RTVSPropertyOp8
 70
     1
102
RTVSPropertyOp9
 70
     1
102
RTVSPropertyOp10
 70
     1
102
RTVSPropertyOp11
 70
     1
102
RTVSPropertyOp12
 70
     1
102
RTVSPropertyOp13
 70
     1
102
RTVSPropertyOp14
 70
     1
102
RTVSPropertyOp15
 70
     1
102
RTVSPropertyOp16
 70
     1
102
RTVSPropertyOp17
 70
     1
102
RTVSPropertyOp18
 70
     1
102
RTVSPropertyOp19
 70
     1
102
RTVSPropertyOp20
 70
     1
102
RTVSPropertyOp21
 70
     1
102
RTVSPropertyOp22
 70
     1
102
RTVSPropertyOp23
 70
     1
102
RTVSPropertyOp24
 70
     1
102
RTVSPropertyOp25
 70
     1
102
RTVSPropertyOp26
 70
     1
102
RTVSPropertyOp27
 70
     1
102
RTVSPropertyOp28
 70
     1
102
RTVSPropertyOp29
 70
     1
102
RTVSPropertyOp30
 70
     1
102
RTVSPropertyOp31
 70
     1
102
RTVSPropertyOp32
 70
     1
102
RTVSPropertyOp33
 70
     1
102
RTVSPropertyOp34
 70
     1
102
RTVSPropertyOp35
 70
     1
102
RTVSPropertyOp36
 70
     1
102
RTVSPropertyOp37
 70
     1
102
RTVSPropertyOp38
 70
     1
102
RTVSPropertyOp39
 70
     1
102
RTVSPropertyOp40
 70
     1
102
RTVSPropertyOp41
 70
     1
102
RTVSPropertyOp42
 70
     1
102
RTVSPropertyOp43
 70
     1
102
RTVSPropertyOp44
 70
     1
102
RTVSPropertyOp45
 70
     1
102
RTVSPropertyOp46
 70
     1
102
RTVSPropertyOp47
 70
     1
102
RTVSPropertyOp48
 70
     1
102
RTVSPropertyOp49
 70
     1
102
RTVSPropertyOp50
 70
     1
102
RTVSPropertyOp51
 70
     0
102
RTVSPropertyOp52
 70
     0
102
RTVSPropertyOp53
 70
     1
102
RTVSPropertyOp54
 70
     1
102
RTVSPropertyOp55
 70
     1
102
RTVSPropertyOp56
 70
     1
102
RTVSPropertyOp57
 70
     1
102
RTVSPropertyOp58
 70
     1
102
RTVSPropertyOp59
 70
     1
102
RTVSPropertyOp60
 70
     1
102
RTVSPropertyOp61
 70
     1
102
RTVSPropertyOp62
 70
     1
  0
XRECORD
  5
406
102
{ACAD_REACTORS
330
405
102
}
330
405
100
AcDbXrecord
280
     1
102
RTVSPost2010Prop28
280
     0
102
RTVSPost2010PropOp28
 70
     1
102
RTVSPost2010Prop29
280
     1
102
RTVSPost2010PropOp29
 70
     1
102
RTVSPost2010Prop30
280
     1
102
RTVSPost2010PropOp30
 70
     1
102
RTVSPost2010Prop31
280
     0
102
RTVSPost2010PropOp31
 70
     1
102
RTVSPost2010Prop32
280
     0
102
RTVSPost2010PropOp32
 70
     1
102
RTVSPost2010Prop33
280
     0
102
RTVSPost2010PropOp33
 70
     1
102
RTVSPost2010Prop34
280
     0
102
RTVSPost2010PropOp34
 70
     1
102
RTVSPost2010Prop35
280
     0
102
RTVSPost2010PropOp35
 70
     1
102
RTVSPost2010Prop36
280
     0
102
RTVSPost2010PropOp36
 70
     1
102
RTVSPost2010Prop37
 90
       50
102
RTVSPost2010PropOp37
 70
     0
102
RTVSPost2010Prop38
140
0.0
102
RTVSPost2010PropOp38
 70
     0
102
RTVSPost2010Prop39
140
1.0
102
RTVSPost2010PropOp39
 70
     0
102
RTVSPost2010Prop40
 90
        0
102
RTVSPost2010PropOp40
 70
     0
102
RTVSPost2010Prop41ColorIndex
 90
       18
102
RTVSPost2010Prop41ColorRGB
 90
        0
102
RTVSPost2010PropOp41
 70
     0
102
RTVSPost2010Prop42
 90
       50
102
RTVSPost2010PropOp42
 70
     0
102
RTVSPost2010Prop43
 90
        3
102
RTVSPost2010PropOp43
 70
     0
102
RTVSPost2010Prop44ColorIndex
 90
        5
102
RTVSPost2010Prop44ColorRGB
 90
      255
102
RTVSPost2010PropOp44
 70
     0
102
RTVSPost2010Prop45
280
     0
102
RTVSPost2010PropOp45
 70
     1
102
RTVSPost2010Prop46
 90
       50
102
RTVSPost2010PropOp46
 70
     0
102
RTVSPost2010Prop47
 90
       50
102
RTVSPost2010PropOp47
 70
     0
102
RTVSPost2010Prop48
 90
       50
102
RTVSPost2010PropOp48
 70
     0
102
RTVSPost2010Prop49
280
     0
102
RTVSPost2010PropOp49
 70
     1
102
RTVSPost2010Prop50
 90
       50
102
RTVSPost2010PropOp50
 70
     0
102
RTVSPost2010Prop51ColorIndex
 90
      256
102
RTVSPost2010Prop51ColorRGB
 90
-16777216
102
RTVSPost2010PropOp51
 70
     0
102
RTVSPost2010Prop52
140
1.0
102
RTVSPost2010PropOp52
 70
     0
102
RTVSPost2010Prop53
 90
        2
102
RTVSPost2010PropOp53
 70
     0
102
RTVSPost2010Prop54
  1
strokes_ogs.tif
102
RTVSPost2010PropOp54
 70
     0
102
RTVSPost2010Prop55
280
     0
102
RTVSPost2010PropOp55
 70
     1
102
RTVSPost2010Prop56
140
1.0
102
RTVSPost2010PropOp56
 70
     0
102
RTVSPost2010Prop57
140
1.0
102
RTVSPost2010PropOp57
 70
     0
102
RTVSPropertyOp0
 70
     0
102
RTVSPropertyOp1
 70
     0
102
RTVSPropertyOp2
 70
     0
102
RTVSPropertyOp3
 70
     0
102
RTVSPropertyOp4
 70
     0
102
RTVSPropertyOp5
 70
     0
102
RTVSPropertyOp6
 70
     0
102
RTVSPropertyOp7
 70
     0
102
RTVSPropertyOp8
 70
     0
102
RTVSPropertyOp9
 70
     0
102
RTVSPropertyOp10
 70
     0
102
RTVSPropertyOp11
 70
     0
102
RTVSPropertyOp12
 70
     0
102
RTVSPropertyOp13
 70
     0
102
RTVSPropertyOp14
 70
     2
102
RTVSPropertyOp15
 70
     0
102
RTVSPropertyOp16
 70
     0
102
RTVSPropertyOp17
 70
     0
102
RTVSPropertyOp18
 70
     0
102
RTVSPropertyOp19
 70
     0
102
RTVSPropertyOp20
 70
     0
102
RTVSPropertyOp21
 70
     0
102
RTVSPropertyOp22
 70
     0
102
RTVSPropertyOp23
 70
     0
102
RTVSPropertyOp24
 70
     0
102
RTVSPropertyOp25
 70
     0
102
RTVSPropertyOp26
 70
     0
102
RTVSPropertyOp27
 70
     0
102
RTVSPropertyOp28
 70
     1
102
RTVSPropertyOp29
 70
     1
102
RTVSPropertyOp30
 70
     1
102
RTVSPropertyOp31
 70
     1
102
RTVSPropertyOp32
 70
     1
102
RTVSPropertyOp33
 70
     1
102
RTVSPropertyOp34
 70
     1
102
RTVSPropertyOp35
 70
     1
102
RTVSPropertyOp36
 70
     1
102
RTVSPropertyOp37
 70
     0
102
RTVSPropertyOp38
 70
     0
102
RTVSPropertyOp39
 70
     0
102
RTVSPropertyOp40
 70
     0
102
RTVSPropertyOp41
 70
     0
102
RTVSPropertyOp42
 70
     0
102
RTVSPropertyOp43
 70
     0
102
RTVSPropertyOp44
 70
     0
102
RTVSPropertyOp45
 70
     1
102
RTVSPropertyOp46
 70
     0
102
RTVSPropertyOp47
 70
     0
102
RTVSPropertyOp48
 70
     0
102
RTVSPropertyOp49
 70
     1
102
RTVSPropertyOp50
 70
     0
102
RTVSPropertyOp51
 70
     0
102
RTVSPropertyOp52
 70
     0
102
RTVSPropertyOp53
 70
     0
102
RTVSPropertyOp54
 70
     0
102
RTVSPropertyOp55
 70
     1
102
RTVSPropertyOp56
 70
     0
102
RTVSPropertyOp57
 70
     0
102
RTVSPropertyOp58
 70
     1
102
RTVSPropertyOp59
 70
     1
102
RTVSPropertyOp60
 70
     1
102
RTVSPropertyOp61
 70
     1
102
RTVSPropertyOp62
 70
     1
  0
XRECORD
  5
3F6
102
{ACAD_REACTORS
330
3F5
102
}
330
3F5
100
AcDbXrecord
280
     1
102
RTVSPost2010Prop28
280
     0
102
RTVSPost2010PropOp28
 70
     1
102
RTVSPost2010Prop29
280
     1
102
RTVSPost2010PropOp29
 70
     1
102
RTVSPost2010Prop30
280
     1
102
RTVSPost2010PropOp30
 70
     1
102
RTVSPost2010Prop31
280
     0
102
RTVSPost2010PropOp31
 70
     1
102
RTVSPost2010Prop32
280
     0
102
RTVSPost2010PropOp32
 70
     1
102
RTVSPost2010Prop33
280
     0
102
RTVSPost2010PropOp33
 70
     1
102
RTVSPost2010Prop34
280
     0
102
RTVSPost2010PropOp34
 70
     1
102
RTVSPost2010Prop35
280
     0
102
RTVSPost2010PropOp35
 70
     1
102
RTVSPost2010Prop36
280
     0
102
RTVSPost2010PropOp36
 70
     1
102
RTVSPost2010Prop37
 90
       50
102
RTVSPost2010PropOp37
 70
     1
102
RTVSPost2010Prop38
140
0.0
102
RTVSPost2010PropOp38
 70
     1
102
RTVSPost2010Prop39
140
1.0
102
RTVSPost2010PropOp39
 70
     1
102
RTVSPost2010Prop40
 90
        0
102
RTVSPost2010PropOp40
 70
     1
102
RTVSPost2010Prop41ColorIndex
 90
       18
102
RTVSPost2010Prop41ColorRGB
 90
        0
102
RTVSPost2010PropOp41
 70
     1
102
RTVSPost2010Prop42
 90
       50
102
RTVSPost2010PropOp42
 70
     1
102
RTVSPost2010Prop43
 90
        3
102
RTVSPost2010PropOp43
 70
     1
102
RTVSPost2010Prop44ColorIndex
 90
        5
102
RTVSPost2010Prop44ColorRGB
 90
      255
102
RTVSPost2010PropOp44
 70
     1
102
RTVSPost2010Prop45
280
     0
102
RTVSPost2010PropOp45
 70
     1
102
RTVSPost2010Prop46
 90
       50
102
RTVSPost2010PropOp46
 70
     1
102
RTVSPost2010Prop47
 90
       50
102
RTVSPost2010PropOp47
 70
     1
102
RTVSPost2010Prop48
 90
       50
102
RTVSPost2010PropOp48
 70
     1
102
RTVSPost2010Prop49
280
     0
102
RTVSPost2010PropOp49
 70
     1
102
RTVSPost2010Prop50
 90
       50
102
RTVSPost2010PropOp50
 70
     1
102
RTVSPost2010Prop51ColorIndex
 90
      256
102
RTVSPost2010Prop51ColorRGB
 90
-16777216
102
RTVSPost2010PropOp51
 70
     0
102
RTVSPost2010Prop52
140
1.0
102
RTVSPost2010PropOp52
 70
     0
102
RTVSPost2010Prop53
 90
        2
102
RTVSPost2010PropOp53
 70
     1
102
RTVSPost2010Prop54
  1
strokes_ogs.tif
102
RTVSPost2010PropOp54
 70
     1
102
RTVSPost2010Prop55
280
     0
102
RTVSPost2010PropOp55
 70
     1
102
RTVSPost2010Prop56
140
1.0
102
RTVSPost2010PropOp56
 70
     1
102
RTVSPost2010Prop57
140
1.0
102
RTVSPost2010PropOp57
 70
     1
102
RTVSPropertyOp0
 70
     1
102
RTVSPropertyOp1
 70
     1
102
RTVSPropertyOp2
 70
     1
102
RTVSPropertyOp3
 70
     1
102
RTVSPropertyOp4
 70
     1
102
RTVSPropertyOp5
 70
     1
102
RTVSPropertyOp6
 70
     1
102
RTVSPropertyOp7
 70
     1
102
RTVSPropertyOp8
 70
     1
102
RTVSPropertyOp9
 70
     1
102
RTVSPropertyOp10
 70
     1
102
RTVSPropertyOp11
 70
     1
102
RTVSPropertyOp12
 70
     1
102
RTVSPropertyOp13
 70
     1
102
RTVSPropertyOp14
 70
     1
102
RTVSPropertyOp15
 70
     1
102
RTVSPropertyOp16
 70
     1
102
RTVSPropertyOp17
 70
     1
102
RTVSPropertyOp18
 70
     1
102
RTVSPropertyOp19
 70
     1
102
RTVSPropertyOp20
 70
     1
102
RTVSPropertyOp21
 70
     1
102
RTVSPropertyOp22
 70
     1
102
RTVSPropertyOp23
 70
     1
102
RTVSPropertyOp24
 70
     1
102
RTVSPropertyOp25
 70
     1
102
RTVSPropertyOp26
 70
     1
102
RTVSPropertyOp27
 70
     1
102
RTVSPropertyOp28
 70
     1
102
RTVSPropertyOp29
 70
     1
102
RTVSPropertyOp30
 70
     1
102
RTVSPropertyOp31
 70
     1
102
RTVSPropertyOp32
 70
     1
102
RTVSPropertyOp33
 70
     1
102
RTVSPropertyOp34
 70
     1
102
RTVSPropertyOp35
 70
     1
102
RTVSPropertyOp36
 70
     1
102
RTVSPropertyOp37
 70
     1
102
RTVSPropertyOp38
 70
     1
102
RTVSPropertyOp39
 70
     1
102
RTVSPropertyOp40
 70
     1
102
RTVSPropertyOp41
 70
     1
102
RTVSPropertyOp42
 70
     1
102
RTVSPropertyOp43
 70
     1
102
RTVSPropertyOp44
 70
     1
102
RTVSPropertyOp45
 70
     1
102
RTVSPropertyOp46
 70
     1
102
RTVSPropertyOp47
 70
     1
102
RTVSPropertyOp48
 70
     1
102
RTVSPropertyOp49
 70
     1
102
RTVSPropertyOp50
 70
     1
102
RTVSPropertyOp51
 70
     0
102
RTVSPropertyOp52
 70
     0
102
RTVSPropertyOp53
 70
     1
102
RTVSPropertyOp54
 70
     1
102
RTVSPropertyOp55
 70
     1
102
RTVSPropertyOp56
 70
     1
102
RTVSPropertyOp57
 70
     1
102
RTVSPropertyOp58
 70
     1
102
RTVSPropertyOp59
 70
     1
102
RTVSPropertyOp60
 70
     1
102
RTVSPropertyOp61
 70
     1
102
RTVSPropertyOp62
 70
     1
  0
XRECORD
  5
408
102
{ACAD_REACTORS
330
407
102
}
330
407
100
AcDbXrecord
280
     1
102
RTVSPost2010Prop28
280
     0
102
RTVSPost2010PropOp28
 70
     1
102
RTVSPost2010Prop29
280
     1
102
RTVSPost2010PropOp29
 70
     1
102
RTVSPost2010Prop30
280
     1
102
RTVSPost2010PropOp30
 70
     1
102
RTVSPost2010Prop31
280
     0
102
RTVSPost2010PropOp31
 70
     1
102
RTVSPost2010Prop32
280
     0
102
RTVSPost2010PropOp32
 70
     1
102
RTVSPost2010Prop33
280
     0
102
RTVSPost2010PropOp33
 70
     1
102
RTVSPost2010Prop34
280
     0
102
RTVSPost2010PropOp34
 70
     1
102
RTVSPost2010Prop35
280
     0
102
RTVSPost2010PropOp35
 70
     1
102
RTVSPost2010Prop36
280
     0
102
RTVSPost2010PropOp36
 70
     1
102
RTVSPost2010Prop37
 90
       50
102
RTVSPost2010PropOp37
 70
     0
102
RTVSPost2010Prop38
140
0.0
102
RTVSPost2010PropOp38
 70
     0
102
RTVSPost2010Prop39
140
1.0
102
RTVSPost2010PropOp39
 70
     0
102
RTVSPost2010Prop40
 90
        0
102
RTVSPost2010PropOp40
 70
     0
102
RTVSPost2010Prop41ColorIndex
 90
       18
102
RTVSPost2010Prop41ColorRGB
 90
        0
102
RTVSPost2010PropOp41
 70
     0
102
RTVSPost2010Prop42
 90
       50
102
RTVSPost2010PropOp42
 70
     0
102
RTVSPost2010Prop43
 90
        3
102
RTVSPost2010PropOp43
 70
     0
102
RTVSPost2010Prop44ColorIndex
 90
        5
102
RTVSPost2010Prop44ColorRGB
 90
      255
102
RTVSPost2010PropOp44
 70
     0
102
RTVSPost2010Prop45
280
     0
102
RTVSPost2010PropOp45
 70
     1
102
RTVSPost2010Prop46
 90
       50
102
RTVSPost2010PropOp46
 70
     0
102
RTVSPost2010Prop47
 90
       50
102
RTVSPost2010PropOp47
 70
     0
102
RTVSPost2010Prop48
 90
       50
102
RTVSPost2010PropOp48
 70
     0
102
RTVSPost2010Prop49
280
     0
102
RTVSPost2010PropOp49
 70
     1
102
RTVSPost2010Prop50
 90
       50
102
RTVSPost2010PropOp50
 70
     0
102
RTVSPost2010Prop51ColorIndex
 90
      256
102
RTVSPost2010Prop51ColorRGB
 90
-16777216
102
RTVSPost2010PropOp51
 70
     0
102
RTVSPost2010Prop52
140
1.0
102
RTVSPost2010PropOp52
 70
     0
102
RTVSPost2010Prop53
 90
        2
102
RTVSPost2010PropOp53
 70
     0
102
RTVSPost2010Prop54
  1
strokes_ogs.tif
102
RTVSPost2010PropOp54
 70
     0
102
RTVSPost2010Prop55
280
     0
102
RTVSPost2010PropOp55
 70
     1
102
RTVSPost2010Prop56
140
1.0
102
RTVSPost2010PropOp56
 70
     0
102
RTVSPost2010Prop57
140
1.0
102
RTVSPost2010PropOp57
 70
     0
102
RTVSPropertyOp0
 70
     0
102
RTVSPropertyOp1
 70
     0
102
RTVSPropertyOp2
 70
     0
102
RTVSPropertyOp3
 70
     0
102
RTVSPropertyOp4
 70
     0
102
RTVSPropertyOp5
 70
     0
102
RTVSPropertyOp6
 70
     0
102
RTVSPropertyOp7
 70
     0
102
RTVSPropertyOp8
 70
     0
102
RTVSPropertyOp9
 70
     0
102
RTVSPropertyOp10
 70
     0
102
RTVSPropertyOp11
 70
     0
102
RTVSPropertyOp12
 70
     0
102
RTVSPropertyOp13
 70
     0
102
RTVSPropertyOp14
 70
     2
102
RTVSPropertyOp15
 70
     0
102
RTVSPropertyOp16
 70
     0
102
RTVSPropertyOp17
 70
     0
102
RTVSPropertyOp18
 70
     0
102
RTVSPropertyOp19
 70
     0
102
RTVSPropertyOp20
 70
     0
102
RTVSPropertyOp21
 70
     0
102
RTVSPropertyOp22
 70
     0
102
RTVSPropertyOp23
 70
     0
102
RTVSPropertyOp24
 70
     0
102
RTVSPropertyOp25
 70
     0
102
RTVSPropertyOp26
 70
     0
102
RTVSPropertyOp27
 70
     0
102
RTVSPropertyOp28
 70
     1
102
RTVSPropertyOp29
 70
     1
102
RTVSPropertyOp30
 70
     1
102
RTVSPropertyOp31
 70
     1
102
RTVSPropertyOp32
 70
     1
102
RTVSPropertyOp33
 70
     1
102
RTVSPropertyOp34
 70
     1
102
RTVSPropertyOp35
 70
     1
102
RTVSPropertyOp36
 70
     1
102
RTVSPropertyOp37
 70
     0
102
RTVSPropertyOp38
 70
     0
102
RTVSPropertyOp39
 70
     0
102
RTVSPropertyOp40
 70
     0
102
RTVSPropertyOp41
 70
     0
102
RTVSPropertyOp42
 70
     0
102
RTVSPropertyOp43
 70
     0
102
RTVSPropertyOp44
 70
     0
102
RTVSPropertyOp45
 70
     1
102
RTVSPropertyOp46
 70
     0
102
RTVSPropertyOp47
 70
     0
102
RTVSPropertyOp48
 70
     0
102
RTVSPropertyOp49
 70
     1
102
RTVSPropertyOp50
 70
     0
102
RTVSPropertyOp51
 70
     0
102
RTVSPropertyOp52
 70
     0
102
RTVSPropertyOp53
 70
     0
102
RTVSPropertyOp54
 70
     0
102
RTVSPropertyOp55
 70
     1
102
RTVSPropertyOp56
 70
     0
102
RTVSPropertyOp57
 70
     0
102
RTVSPropertyOp58
 70
     1
102
RTVSPropertyOp59
 70
     1
102
RTVSPropertyOp60
 70
     1
102
RTVSPropertyOp61
 70
     1
102
RTVSPropertyOp62
 70
     1
  0
XRECORD
  5
3EE
102
{ACAD_REACTORS
330
3ED
102
}
330
3ED
100
AcDbXrecord
280
     1
102
RTVSPost2010Prop28
280
     0
102
RTVSPost2010PropOp28
 70
     1
102
RTVSPost2010Prop29
280
     1
102
RTVSPost2010PropOp29
 70
     1
102
RTVSPost2010Prop30
280
     1
102
RTVSPost2010PropOp30
 70
     1
102
RTVSPost2010Prop31
280
     0
102
RTVSPost2010PropOp31
 70
     1
102
RTVSPost2010Prop32
280
     0
102
RTVSPost2010PropOp32
 70
     1
102
RTVSPost2010Prop33
280
     0
102
RTVSPost2010PropOp33
 70
     1
102
RTVSPost2010Prop34
280
     0
102
RTVSPost2010PropOp34
 70
     1
102
RTVSPost2010Prop35
280
     0
102
RTVSPost2010PropOp35
 70
     1
102
RTVSPost2010Prop36
280
     0
102
RTVSPost2010PropOp36
 70
     1
102
RTVSPost2010Prop37
 90
       50
102
RTVSPost2010PropOp37
 70
     1
102
RTVSPost2010Prop38
140
0.0
102
RTVSPost2010PropOp38
 70
     1
102
RTVSPost2010Prop39
140
1.0
102
RTVSPost2010PropOp39
 70
     1
102
RTVSPost2010Prop40
 90
        0
102
RTVSPost2010PropOp40
 70
     1
102
RTVSPost2010Prop41ColorIndex
 90
       18
102
RTVSPost2010Prop41ColorRGB
 90
        0
102
RTVSPost2010PropOp41
 70
     1
102
RTVSPost2010Prop42
 90
       50
102
RTVSPost2010PropOp42
 70
     1
102
RTVSPost2010Prop43
 90
        3
102
RTVSPost2010PropOp43
 70
     1
102
RTVSPost2010Prop44ColorIndex
 90
        5
102
RTVSPost2010Prop44ColorRGB
 90
      255
102
RTVSPost2010PropOp44
 70
     1
102
RTVSPost2010Prop45
280
     0
102
RTVSPost2010PropOp45
 70
     1
102
RTVSPost2010Prop46
 90
       50
102
RTVSPost2010PropOp46
 70
     1
102
RTVSPost2010Prop47
 90
       50
102
RTVSPost2010PropOp47
 70
     1
102
RTVSPost2010Prop48
 90
       50
102
RTVSPost2010PropOp48
 70
     1
102
RTVSPost2010Prop49
280
     0
102
RTVSPost2010PropOp49
 70
     1
102
RTVSPost2010Prop50
 90
       50
102
RTVSPost2010PropOp50
 70
     1
102
RTVSPost2010Prop51ColorIndex
 90
      256
102
RTVSPost2010Prop51ColorRGB
 90
-16777216
102
RTVSPost2010PropOp51
 70
     0
102
RTVSPost2010Prop52
140
1.0
102
RTVSPost2010PropOp52
 70
     0
102
RTVSPost2010Prop53
 90
        2
102
RTVSPost2010PropOp53
 70
     1
102
RTVSPost2010Prop54
  1
strokes_ogs.tif
102
RTVSPost2010PropOp54
 70
     1
102
RTVSPost2010Prop55
280
     0
102
RTVSPost2010PropOp55
 70
     1
102
RTVSPost2010Prop56
140
1.0
102
RTVSPost2010PropOp56
 70
     1
102
RTVSPost2010Prop57
140
1.0
102
RTVSPost2010PropOp57
 70
     1
102
RTVSPropertyOp0
 70
     1
102
RTVSPropertyOp1
 70
     1
102
RTVSPropertyOp2
 70
     1
102
RTVSPropertyOp3
 70
     1
102
RTVSPropertyOp4
 70
     1
102
RTVSPropertyOp5
 70
     1
102
RTVSPropertyOp6
 70
     1
102
RTVSPropertyOp7
 70
     1
102
RTVSPropertyOp8
 70
     1
102
RTVSPropertyOp9
 70
     1
102
RTVSPropertyOp10
 70
     1
102
RTVSPropertyOp11
 70
     1
102
RTVSPropertyOp12
 70
     1
102
RTVSPropertyOp13
 70
     1
102
RTVSPropertyOp14
 70
     1
102
RTVSPropertyOp15
 70
     1
102
RTVSPropertyOp16
 70
     1
102
RTVSPropertyOp17
 70
     1
102
RTVSPropertyOp18
 70
     1
102
RTVSPropertyOp19
 70
     1
102
RTVSPropertyOp20
 70
     1
102
RTVSPropertyOp21
 70
     1
102
RTVSPropertyOp22
 70
     1
102
RTVSPropertyOp23
 70
     1
102
RTVSPropertyOp24
 70
     1
102
RTVSPropertyOp25
 70
     1
102
RTVSPropertyOp26
 70
     1
102
RTVSPropertyOp27
 70
     1
102
RTVSPropertyOp28
 70
     1
102
RTVSPropertyOp29
 70
     1
102
RTVSPropertyOp30
 70
     1
102
RTVSPropertyOp31
 70
     1
102
RTVSPropertyOp32
 70
     1
102
RTVSPropertyOp33
 70
     1
102
RTVSPropertyOp34
 70
     1
102
RTVSPropertyOp35
 70
     1
102
RTVSPropertyOp36
 70
     1
102
RTVSPropertyOp37
 70
     1
102
RTVSPropertyOp38
 70
     1
102
RTVSPropertyOp39
 70
     1
102
RTVSPropertyOp40
 70
     1
102
RTVSPropertyOp41
 70
     1
102
RTVSPropertyOp42
 70
     1
102
RTVSPropertyOp43
 70
     1
102
RTVSPropertyOp44
 70
     1
102
RTVSPropertyOp45
 70
     1
102
RTVSPropertyOp46
 70
     1
102
RTVSPropertyOp47
 70
     1
102
RTVSPropertyOp48
 70
     1
102
RTVSPropertyOp49
 70
     1
102
RTVSPropertyOp50
 70
     1
102
RTVSPropertyOp51
 70
     0
102
RTVSPropertyOp52
 70
     0
102
RTVSPropertyOp53
 70
     1
102
RTVSPropertyOp54
 70
     1
102
RTVSPropertyOp55
 70
     1
102
RTVSPropertyOp56
 70
     1
102
RTVSPropertyOp57
 70
     1
102
RTVSPropertyOp58
 70
     1
102
RTVSPropertyOp59
 70
     1
102
RTVSPropertyOp60
 70
     1
102
RTVSPropertyOp61
 70
     1
102
RTVSPropertyOp62
 70
     1
  0
XRECORD
  5
404
102
{ACAD_REACTORS
330
403
102
}
330
403
100
AcDbXrecord
280
     1
102
RTVSPost2010Prop28
280
     0
102
RTVSPost2010PropOp28
 70
     1
102
RTVSPost2010Prop29
280
     1
102
RTVSPost2010PropOp29
 70
     1
102
RTVSPost2010Prop30
280
     1
102
RTVSPost2010PropOp30
 70
     1
102
RTVSPost2010Prop31
280
     0
102
RTVSPost2010PropOp31
 70
     1
102
RTVSPost2010Prop32
280
     0
102
RTVSPost2010PropOp32
 70
     1
102
RTVSPost2010Prop33
280
     0
102
RTVSPost2010PropOp33
 70
     1
102
RTVSPost2010Prop34
280
     0
102
RTVSPost2010PropOp34
 70
     1
102
RTVSPost2010Prop35
280
     0
102
RTVSPost2010PropOp35
 70
     1
102
RTVSPost2010Prop36
280
     0
102
RTVSPost2010PropOp36
 70
     1
102
RTVSPost2010Prop37
 90
       50
102
RTVSPost2010PropOp37
 70
     1
102
RTVSPost2010Prop38
140
0.0
102
RTVSPost2010PropOp38
 70
     1
102
RTVSPost2010Prop39
140
1.0
102
RTVSPost2010PropOp39
 70
     1
102
RTVSPost2010Prop40
 90
        0
102
RTVSPost2010PropOp40
 70
     1
102
RTVSPost2010Prop41ColorIndex
 90
       18
102
RTVSPost2010Prop41ColorRGB
 90
        0
102
RTVSPost2010PropOp41
 70
     1
102
RTVSPost2010Prop42
 90
       50
102
RTVSPost2010PropOp42
 70
     1
102
RTVSPost2010Prop43
 90
        3
102
RTVSPost2010PropOp43
 70
     1
102
RTVSPost2010Prop44ColorIndex
 90
        5
102
RTVSPost2010Prop44ColorRGB
 90
      255
102
RTVSPost2010PropOp44
 70
     1
102
RTVSPost2010Prop45
280
     0
102
RTVSPost2010PropOp45
 70
     1
102
RTVSPost2010Prop46
 90
       50
102
RTVSPost2010PropOp46
 70
     1
102
RTVSPost2010Prop47
 90
       50
102
RTVSPost2010PropOp47
 70
     1
102
RTVSPost2010Prop48
 90
       50
102
RTVSPost2010PropOp48
 70
     1
102
RTVSPost2010Prop49
280
     0
102
RTVSPost2010PropOp49
 70
     1
102
RTVSPost2010Prop50
 90
       50
102
RTVSPost2010PropOp50
 70
     1
102
RTVSPost2010Prop51ColorIndex
 90
      256
102
RTVSPost2010Prop51ColorRGB
 90
-16777216
102
RTVSPost2010PropOp51
 70
     0
102
RTVSPost2010Prop52
140
1.0
102
RTVSPost2010PropOp52
 70
     0
102
RTVSPost2010Prop53
 90
        2
102
RTVSPost2010PropOp53
 70
     1
102
RTVSPost2010Prop54
  1
strokes_ogs.tif
102
RTVSPost2010PropOp54
 70
     1
102
RTVSPost2010Prop55
280
     0
102
RTVSPost2010PropOp55
 70
     1
102
RTVSPost2010Prop56
140
1.0
102
RTVSPost2010PropOp56
 70
     1
102
RTVSPost2010Prop57
140
1.0
102
RTVSPost2010PropOp57
 70
     1
102
RTVSPropertyOp0
 70
     1
102
RTVSPropertyOp1
 70
     1
102
RTVSPropertyOp2
 70
     1
102
RTVSPropertyOp3
 70
     1
102
RTVSPropertyOp4
 70
     1
102
RTVSPropertyOp5
 70
     1
102
RTVSPropertyOp6
 70
     1
102
RTVSPropertyOp7
 70
     1
102
RTVSPropertyOp8
 70
     1
102
RTVSPropertyOp9
 70
     1
102
RTVSPropertyOp10
 70
     1
102
RTVSPropertyOp11
 70
     1
102
RTVSPropertyOp12
 70
     1
102
RTVSPropertyOp13
 70
     1
102
RTVSPropertyOp14
 70
     1
102
RTVSPropertyOp15
 70
     1
102
RTVSPropertyOp16
 70
     1
102
RTVSPropertyOp17
 70
     1
102
RTVSPropertyOp18
 70
     1
102
RTVSPropertyOp19
 70
     1
102
RTVSPropertyOp20
 70
     1
102
RTVSPropertyOp21
 70
     1
102
RTVSPropertyOp22
 70
     1
102
RTVSPropertyOp23
 70
     1
102
RTVSPropertyOp24
 70
     1
102
RTVSPropertyOp25
 70
     1
102
RTVSPropertyOp26
 70
     1
102
RTVSPropertyOp27
 70
     1
102
RTVSPropertyOp28
 70
     1
102
RTVSPropertyOp29
 70
     1
102
RTVSPropertyOp30
 70
     1
102
RTVSPropertyOp31
 70
     1
102
RTVSPropertyOp32
 70
     1
102
RTVSPropertyOp33
 70
     1
102
RTVSPropertyOp34
 70
     1
102
RTVSPropertyOp35
 70
     1
102
RTVSPropertyOp36
 70
     1
102
RTVSPropertyOp37
 70
     1
102
RTVSPropertyOp38
 70
     1
102
RTVSPropertyOp39
 70
     1
102
RTVSPropertyOp40
 70
     1
102
RTVSPropertyOp41
 70
     1
102
RTVSPropertyOp42
 70
     1
102
RTVSPropertyOp43
 70
     1
102
RTVSPropertyOp44
 70
     1
102
RTVSPropertyOp45
 70
     1
102
RTVSPropertyOp46
 70
     1
102
RTVSPropertyOp47
 70
     1
102
RTVSPropertyOp48
 70
     1
102
RTVSPropertyOp49
 70
     1
102
RTVSPropertyOp50
 70
     1
102
RTVSPropertyOp51
 70
     0
102
RTVSPropertyOp52
 70
     0
102
RTVSPropertyOp53
 70
     1
102
RTVSPropertyOp54
 70
     1
102
RTVSPropertyOp55
 70
     1
102
RTVSPropertyOp56
 70
     1
102
RTVSPropertyOp57
 70
     1
102
RTVSPropertyOp58
 70
     1
102
RTVSPropertyOp59
 70
     1
102
RTVSPropertyOp60
 70
     1
102
RTVSPropertyOp61
 70
     1
102
RTVSPropertyOp62
 70
     1
  0
XRECORD
  5
402
102
{ACAD_REACTORS
330
401
102
}
330
401
100
AcDbXrecord
280
     1
102
RTVSPost2010Prop28
280
     0
102
RTVSPost2010PropOp28
 70
     1
102
RTVSPost2010Prop29
280
     1
102
RTVSPost2010PropOp29
 70
     1
102
RTVSPost2010Prop30
280
     1
102
RTVSPost2010PropOp30
 70
     1
102
RTVSPost2010Prop31
280
     0
102
RTVSPost2010PropOp31
 70
     1
102
RTVSPost2010Prop32
280
     0
102
RTVSPost2010PropOp32
 70
     1
102
RTVSPost2010Prop33
280
     0
102
RTVSPost2010PropOp33
 70
     1
102
RTVSPost2010Prop34
280
     0
102
RTVSPost2010PropOp34
 70
     1
102
RTVSPost2010Prop35
280
     0
102
RTVSPost2010PropOp35
 70
     1
102
RTVSPost2010Prop36
280
     0
102
RTVSPost2010PropOp36
 70
     1
102
RTVSPost2010Prop37
 90
       50
102
RTVSPost2010PropOp37
 70
     1
102
RTVSPost2010Prop38
140
0.0
102
RTVSPost2010PropOp38
 70
     1
102
RTVSPost2010Prop39
140
1.0
102
RTVSPost2010PropOp39
 70
     1
102
RTVSPost2010Prop40
 90
        0
102
RTVSPost2010PropOp40
 70
     1
102
RTVSPost2010Prop41ColorIndex
 90
       18
102
RTVSPost2010Prop41ColorRGB
 90
        0
102
RTVSPost2010PropOp41
 70
     1
102
RTVSPost2010Prop42
 90
       50
102
RTVSPost2010PropOp42
 70
     1
102
RTVSPost2010Prop43
 90
        3
102
RTVSPost2010PropOp43
 70
     1
102
RTVSPost2010Prop44ColorIndex
 90
        5
102
RTVSPost2010Prop44ColorRGB
 90
      255
102
RTVSPost2010PropOp44
 70
     1
102
RTVSPost2010Prop45
280
     0
102
RTVSPost2010PropOp45
 70
     1
102
RTVSPost2010Prop46
 90
       50
102
RTVSPost2010PropOp46
 70
     1
102
RTVSPost2010Prop47
 90
       50
102
RTVSPost2010PropOp47
 70
     1
102
RTVSPost2010Prop48
 90
       50
102
RTVSPost2010PropOp48
 70
     1
102
RTVSPost2010Prop49
280
     0
102
RTVSPost2010PropOp49
 70
     1
102
RTVSPost2010Prop50
 90
       50
102
RTVSPost2010PropOp50
 70
     1
102
RTVSPost2010Prop51ColorIndex
 90
      256
102
RTVSPost2010Prop51ColorRGB
 90
-16777216
102
RTVSPost2010PropOp51
 70
     0
102
RTVSPost2010Prop52
140
1.0
102
RTVSPost2010PropOp52
 70
     0
102
RTVSPost2010Prop53
 90
        2
102
RTVSPost2010PropOp53
 70
     1
102
RTVSPost2010Prop54
  1
strokes_ogs.tif
102
RTVSPost2010PropOp54
 70
     1
102
RTVSPost2010Prop55
280
     0
102
RTVSPost2010PropOp55
 70
     1
102
RTVSPost2010Prop56
140
1.0
102
RTVSPost2010PropOp56
 70
     1
102
RTVSPost2010Prop57
140
1.0
102
RTVSPost2010PropOp57
 70
     1
102
RTVSPropertyOp0
 70
     1
102
RTVSPropertyOp1
 70
     1
102
RTVSPropertyOp2
 70
     1
102
RTVSPropertyOp3
 70
     1
102
RTVSPropertyOp4
 70
     1
102
RTVSPropertyOp5
 70
     1
102
RTVSPropertyOp6
 70
     1
102
RTVSPropertyOp7
 70
     1
102
RTVSPropertyOp8
 70
     1
102
RTVSPropertyOp9
 70
     1
102
RTVSPropertyOp10
 70
     1
102
RTVSPropertyOp11
 70
     1
102
RTVSPropertyOp12
 70
     1
102
RTVSPropertyOp13
 70
     1
102
RTVSPropertyOp14
 70
     1
102
RTVSPropertyOp15
 70
     1
102
RTVSPropertyOp16
 70
     1
102
RTVSPropertyOp17
 70
     1
102
RTVSPropertyOp18
 70
     1
102
RTVSPropertyOp19
 70
     1
102
RTVSPropertyOp20
 70
     1
102
RTVSPropertyOp21
 70
     1
102
RTVSPropertyOp22
 70
     1
102
RTVSPropertyOp23
 70
     1
102
RTVSPropertyOp24
 70
     1
102
RTVSPropertyOp25
 70
     1
102
RTVSPropertyOp26
 70
     1
102
RTVSPropertyOp27
 70
     1
102
RTVSPropertyOp28
 70
     1
102
RTVSPropertyOp29
 70
     1
102
RTVSPropertyOp30
 70
     1
102
RTVSPropertyOp31
 70
     1
102
RTVSPropertyOp32
 70
     1
102
RTVSPropertyOp33
 70
     1
102
RTVSPropertyOp34
 70
     1
102
RTVSPropertyOp35
 70
     1
102
RTVSPropertyOp36
 70
     1
102
RTVSPropertyOp37
 70
     1
102
RTVSPropertyOp38
 70
     1
102
RTVSPropertyOp39
 70
     1
102
RTVSPropertyOp40
 70
     1
102
RTVSPropertyOp41
 70
     1
102
RTVSPropertyOp42
 70
     1
102
RTVSPropertyOp43
 70
     1
102
RTVSPropertyOp44
 70
     1
102
RTVSPropertyOp45
 70
     1
102
RTVSPropertyOp46
 70
     1
102
RTVSPropertyOp47
 70
     1
102
RTVSPropertyOp48
 70
     1
102
RTVSPropertyOp49
 70
     1
102
RTVSPropertyOp50
 70
     1
102
RTVSPropertyOp51
 70
     0
102
RTVSPropertyOp52
 70
     0
102
RTVSPropertyOp53
 70
     1
102
RTVSPropertyOp54
 70
     1
102
RTVSPropertyOp55
 70
     1
102
RTVSPropertyOp56
 70
     1
102
RTVSPropertyOp57
 70
     1
102
RTVSPropertyOp58
 70
     1
102
RTVSPropertyOp59
 70
     1
102
RTVSPropertyOp60
 70
     1
102
RTVSPropertyOp61
 70
     1
102
RTVSPropertyOp62
 70
     1
  0
XRECORD
  5
3FC
102
{ACAD_REACTORS
330
3FB
102
}
330
3FB
100
AcDbXrecord
280
     1
102
RTVSPost2010Prop28
280
     0
102
RTVSPost2010PropOp28
 70
     1
102
RTVSPost2010Prop29
280
     1
102
RTVSPost2010PropOp29
 70
     1
102
RTVSPost2010Prop30
280
     1
102
RTVSPost2010PropOp30
 70
     1
102
RTVSPost2010Prop31
280
     0
102
RTVSPost2010PropOp31
 70
     1
102
RTVSPost2010Prop32
280
     0
102
RTVSPost2010PropOp32
 70
     1
102
RTVSPost2010Prop33
280
     0
102
RTVSPost2010PropOp33
 70
     1
102
RTVSPost2010Prop34
280
     0
102
RTVSPost2010PropOp34
 70
     1
102
RTVSPost2010Prop35
280
     0
102
RTVSPost2010PropOp35
 70
     1
102
RTVSPost2010Prop36
280
     0
102
RTVSPost2010PropOp36
 70
     1
102
RTVSPost2010Prop37
 90
       50
102
RTVSPost2010PropOp37
 70
     1
102
RTVSPost2010Prop38
140
0.0
102
RTVSPost2010PropOp38
 70
     1
102
RTVSPost2010Prop39
140
1.0
102
RTVSPost2010PropOp39
 70
     1
102
RTVSPost2010Prop40
 90
        0
102
RTVSPost2010PropOp40
 70
     1
102
RTVSPost2010Prop41ColorIndex
 90
       18
102
RTVSPost2010Prop41ColorRGB
 90
        0
102
RTVSPost2010PropOp41
 70
     1
102
RTVSPost2010Prop42
 90
       50
102
RTVSPost2010PropOp42
 70
     1
102
RTVSPost2010Prop43
 90
        3
102
RTVSPost2010PropOp43
 70
     1
102
RTVSPost2010Prop44ColorIndex
 90
        5
102
RTVSPost2010Prop44ColorRGB
 90
      255
102
RTVSPost2010PropOp44
 70
     1
102
RTVSPost2010Prop45
280
     0
102
RTVSPost2010PropOp45
 70
     1
102
RTVSPost2010Prop46
 90
       50
102
RTVSPost2010PropOp46
 70
     1
102
RTVSPost2010Prop47
 90
       50
102
RTVSPost2010PropOp47
 70
     1
102
RTVSPost2010Prop48
 90
       50
102
RTVSPost2010PropOp48
 70
     1
102
RTVSPost2010Prop49
280
     0
102
RTVSPost2010PropOp49
 70
     1
102
RTVSPost2010Prop50
 90
       50
102
RTVSPost2010PropOp50
 70
     1
102
RTVSPost2010Prop51ColorIndex
 90
      256
102
RTVSPost2010Prop51ColorRGB
 90
-16777216
102
RTVSPost2010PropOp51
 70
     0
102
RTVSPost2010Prop52
140
1.0
102
RTVSPost2010PropOp52
 70
     0
102
RTVSPost2010Prop53
 90
        2
102
RTVSPost2010PropOp53
 70
     1
102
RTVSPost2010Prop54
  1
strokes_ogs.tif
102
RTVSPost2010PropOp54
 70
     1
102
RTVSPost2010Prop55
280
     0
102
RTVSPost2010PropOp55
 70
     1
102
RTVSPost2010Prop56
140
1.0
102
RTVSPost2010PropOp56
 70
     1
102
RTVSPost2010Prop57
140
1.0
102
RTVSPost2010PropOp57
 70
     1
102
RTVSPropertyOp0
 70
     1
102
RTVSPropertyOp1
 70
     1
102
RTVSPropertyOp2
 70
     1
102
RTVSPropertyOp3
 70
     1
102
RTVSPropertyOp4
 70
     1
102
RTVSPropertyOp5
 70
     1
102
RTVSPropertyOp6
 70
     1
102
RTVSPropertyOp7
 70
     1
102
RTVSPropertyOp8
 70
     1
102
RTVSPropertyOp9
 70
     1
102
RTVSPropertyOp10
 70
     1
102
RTVSPropertyOp11
 70
     1
102
RTVSPropertyOp12
 70
     1
102
RTVSPropertyOp13
 70
     1
102
RTVSPropertyOp14
 70
     1
102
RTVSPropertyOp15
 70
     1
102
RTVSPropertyOp16
 70
     1
102
RTVSPropertyOp17
 70
     1
102
RTVSPropertyOp18
 70
     1
102
RTVSPropertyOp19
 70
     1
102
RTVSPropertyOp20
 70
     1
102
RTVSPropertyOp21
 70
     1
102
RTVSPropertyOp22
 70
     1
102
RTVSPropertyOp23
 70
     1
102
RTVSPropertyOp24
 70
     1
102
RTVSPropertyOp25
 70
     1
102
RTVSPropertyOp26
 70
     1
102
RTVSPropertyOp27
 70
     1
102
RTVSPropertyOp28
 70
     1
102
RTVSPropertyOp29
 70
     1
102
RTVSPropertyOp30
 70
     1
102
RTVSPropertyOp31
 70
     1
102
RTVSPropertyOp32
 70
     1
102
RTVSPropertyOp33
 70
     1
102
RTVSPropertyOp34
 70
     1
102
RTVSPropertyOp35
 70
     1
102
RTVSPropertyOp36
 70
     1
102
RTVSPropertyOp37
 70
     1
102
RTVSPropertyOp38
 70
     1
102
RTVSPropertyOp39
 70
     1
102
RTVSPropertyOp40
 70
     1
102
RTVSPropertyOp41
 70
     1
102
RTVSPropertyOp42
 70
     1
102
RTVSPropertyOp43
 70
     1
102
RTVSPropertyOp44
 70
     1
102
RTVSPropertyOp45
 70
     1
102
RTVSPropertyOp46
 70
     1
102
RTVSPropertyOp47
 70
     1
102
RTVSPropertyOp48
 70
     1
102
RTVSPropertyOp49
 70
     1
102
RTVSPropertyOp50
 70
     1
102
RTVSPropertyOp51
 70
     0
102
RTVSPropertyOp52
 70
     0
102
RTVSPropertyOp53
 70
     1
102
RTVSPropertyOp54
 70
     1
102
RTVSPropertyOp55
 70
     1
102
RTVSPropertyOp56
 70
     1
102
RTVSPropertyOp57
 70
     1
102
RTVSPropertyOp58
 70
     1
102
RTVSPropertyOp59
 70
     1
102
RTVSPropertyOp60
 70
     1
102
RTVSPropertyOp61
 70
     1
102
RTVSPropertyOp62
 70
     1
  0
XRECORD
  5
3FE
102
{ACAD_REACTORS
330
3FD
102
}
330
3FD
100
AcDbXrecord
280
     1
102
RTVSPost2010Prop28
280
     0
102
RTVSPost2010PropOp28
 70
     1
102
RTVSPost2010Prop29
280
     1
102
RTVSPost2010PropOp29
 70
     1
102
RTVSPost2010Prop30
280
     1
102
RTVSPost2010PropOp30
 70
     1
102
RTVSPost2010Prop31
280
     0
102
RTVSPost2010PropOp31
 70
     1
102
RTVSPost2010Prop32
280
     0
102
RTVSPost2010PropOp32
 70
     1
102
RTVSPost2010Prop33
280
     0
102
RTVSPost2010PropOp33
 70
     1
102
RTVSPost2010Prop34
280
     0
102
RTVSPost2010PropOp34
 70
     1
102
RTVSPost2010Prop35
280
     0
102
RTVSPost2010PropOp35
 70
     1
102
RTVSPost2010Prop36
280
     0
102
RTVSPost2010PropOp36
 70
     1
102
RTVSPost2010Prop37
 90
       50
102
RTVSPost2010PropOp37
 70
     1
102
RTVSPost2010Prop38
140
0.0
102
RTVSPost2010PropOp38
 70
     1
102
RTVSPost2010Prop39
140
1.0
102
RTVSPost2010PropOp39
 70
     1
102
RTVSPost2010Prop40
 90
        0
102
RTVSPost2010PropOp40
 70
     1
102
RTVSPost2010Prop41ColorIndex
 90
       18
102
RTVSPost2010Prop41ColorRGB
 90
        0
102
RTVSPost2010PropOp41
 70
     1
102
RTVSPost2010Prop42
 90
       50
102
RTVSPost2010PropOp42
 70
     1
102
RTVSPost2010Prop43
 90
        3
102
RTVSPost2010PropOp43
 70
     1
102
RTVSPost2010Prop44ColorIndex
 90
        5
102
RTVSPost2010Prop44ColorRGB
 90
      255
102
RTVSPost2010PropOp44
 70
     1
102
RTVSPost2010Prop45
280
     0
102
RTVSPost2010PropOp45
 70
     1
102
RTVSPost2010Prop46
 90
       50
102
RTVSPost2010PropOp46
 70
     1
102
RTVSPost2010Prop47
 90
       50
102
RTVSPost2010PropOp47
 70
     1
102
RTVSPost2010Prop48
 90
       50
102
RTVSPost2010PropOp48
 70
     1
102
RTVSPost2010Prop49
280
     0
102
RTVSPost2010PropOp49
 70
     1
102
RTVSPost2010Prop50
 90
       50
102
RTVSPost2010PropOp50
 70
     1
102
RTVSPost2010Prop51ColorIndex
 90
      256
102
RTVSPost2010Prop51ColorRGB
 90
-16777216
102
RTVSPost2010PropOp51
 70
     0
102
RTVSPost2010Prop52
140
1.0
102
RTVSPost2010PropOp52
 70
     0
102
RTVSPost2010Prop53
 90
        2
102
RTVSPost2010PropOp53
 70
     1
102
RTVSPost2010Prop54
  1
strokes_ogs.tif
102
RTVSPost2010PropOp54
 70
     1
102
RTVSPost2010Prop55
280
     0
102
RTVSPost2010PropOp55
 70
     1
102
RTVSPost2010Prop56
140
1.0
102
RTVSPost2010PropOp56
 70
     1
102
RTVSPost2010Prop57
140
1.0
102
RTVSPost2010PropOp57
 70
     1
102
RTVSPropertyOp0
 70
     1
102
RTVSPropertyOp1
 70
     1
102
RTVSPropertyOp2
 70
     1
102
RTVSPropertyOp3
 70
     1
102
RTVSPropertyOp4
 70
     1
102
RTVSPropertyOp5
 70
     1
102
RTVSPropertyOp6
 70
     1
102
RTVSPropertyOp7
 70
     1
102
RTVSPropertyOp8
 70
     1
102
RTVSPropertyOp9
 70
     1
102
RTVSPropertyOp10
 70
     1
102
RTVSPropertyOp11
 70
     1
102
RTVSPropertyOp12
 70
     1
102
RTVSPropertyOp13
 70
     1
102
RTVSPropertyOp14
 70
     1
102
RTVSPropertyOp15
 70
     1
102
RTVSPropertyOp16
 70
     1
102
RTVSPropertyOp17
 70
     1
102
RTVSPropertyOp18
 70
     1
102
RTVSPropertyOp19
 70
     1
102
RTVSPropertyOp20
 70
     1
102
RTVSPropertyOp21
 70
     1
102
RTVSPropertyOp22
 70
     1
102
RTVSPropertyOp23
 70
     1
102
RTVSPropertyOp24
 70
     1
102
RTVSPropertyOp25
 70
     1
102
RTVSPropertyOp26
 70
     1
102
RTVSPropertyOp27
 70
     1
102
RTVSPropertyOp28
 70
     1
102
RTVSPropertyOp29
 70
     1
102
RTVSPropertyOp30
 70
     1
102
RTVSPropertyOp31
 70
     1
102
RTVSPropertyOp32
 70
     1
102
RTVSPropertyOp33
 70
     1
102
RTVSPropertyOp34
 70
     1
102
RTVSPropertyOp35
 70
     1
102
RTVSPropertyOp36
 70
     1
102
RTVSPropertyOp37
 70
     1
102
RTVSPropertyOp38
 70
     1
102
RTVSPropertyOp39
 70
     1
102
RTVSPropertyOp40
 70
     1
102
RTVSPropertyOp41
 70
     1
102
RTVSPropertyOp42
 70
     1
102
RTVSPropertyOp43
 70
     1
102
RTVSPropertyOp44
 70
     1
102
RTVSPropertyOp45
 70
     1
102
RTVSPropertyOp46
 70
     1
102
RTVSPropertyOp47
 70
     1
102
RTVSPropertyOp48
 70
     1
102
RTVSPropertyOp49
 70
     1
102
RTVSPropertyOp50
 70
     1
102
RTVSPropertyOp51
 70
     0
102
RTVSPropertyOp52
 70
     0
102
RTVSPropertyOp53
 70
     1
102
RTVSPropertyOp54
 70
     1
102
RTVSPropertyOp55
 70
     1
102
RTVSPropertyOp56
 70
     1
102
RTVSPropertyOp57
 70
     1
102
RTVSPropertyOp58
 70
     1
102
RTVSPropertyOp59
 70
     1
102
RTVSPropertyOp60
 70
     1
102
RTVSPropertyOp61
 70
     1
102
RTVSPropertyOp62
 70
     1
  0
XRECORD
  5
3F4
102
{ACAD_REACTORS
330
3F3
102
}
330
3F3
100
AcDbXrecord
280
     1
102
RTVSPost2010Prop28
280
     0
102
RTVSPost2010PropOp28
 70
     1
102
RTVSPost2010Prop29
280
     1
102
RTVSPost2010PropOp29
 70
     1
102
RTVSPost2010Prop30
280
     1
102
RTVSPost2010PropOp30
 70
     1
102
RTVSPost2010Prop31
280
     0
102
RTVSPost2010PropOp31
 70
     1
102
RTVSPost2010Prop32
280
     0
102
RTVSPost2010PropOp32
 70
     1
102
RTVSPost2010Prop33
280
     0
102
RTVSPost2010PropOp33
 70
     1
102
RTVSPost2010Prop34
280
     0
102
RTVSPost2010PropOp34
 70
     1
102
RTVSPost2010Prop35
280
     0
102
RTVSPost2010PropOp35
 70
     1
102
RTVSPost2010Prop36
280
     0
102
RTVSPost2010PropOp36
 70
     1
102
RTVSPost2010Prop37
 90
       50
102
RTVSPost2010PropOp37
 70
     1
102
RTVSPost2010Prop38
140
0.0
102
RTVSPost2010PropOp38
 70
     1
102
RTVSPost2010Prop39
140
1.0
102
RTVSPost2010PropOp39
 70
     1
102
RTVSPost2010Prop40
 90
        0
102
RTVSPost2010PropOp40
 70
     1
102
RTVSPost2010Prop41ColorIndex
 90
       18
102
RTVSPost2010Prop41ColorRGB
 90
        0
102
RTVSPost2010PropOp41
 70
     1
102
RTVSPost2010Prop42
 90
       50
102
RTVSPost2010PropOp42
 70
     1
102
RTVSPost2010Prop43
 90
        3
102
RTVSPost2010PropOp43
 70
     1
102
RTVSPost2010Prop44ColorIndex
 90
        5
102
RTVSPost2010Prop44ColorRGB
 90
      255
102
RTVSPost2010PropOp44
 70
     1
102
RTVSPost2010Prop45
280
     0
102
RTVSPost2010PropOp45
 70
     1
102
RTVSPost2010Prop46
 90
       50
102
RTVSPost2010PropOp46
 70
     1
102
RTVSPost2010Prop47
 90
       50
102
RTVSPost2010PropOp47
 70
     1
102
RTVSPost2010Prop48
 90
       50
102
RTVSPost2010PropOp48
 70
     1
102
RTVSPost2010Prop49
280
     0
102
RTVSPost2010PropOp49
 70
     1
102
RTVSPost2010Prop50
 90
       50
102
RTVSPost2010PropOp50
 70
     1
102
RTVSPost2010Prop51ColorIndex
 90
      256
102
RTVSPost2010Prop51ColorRGB
 90
-16777216
102
RTVSPost2010PropOp51
 70
     0
102
RTVSPost2010Prop52
140
1.0
102
RTVSPost2010PropOp52
 70
     0
102
RTVSPost2010Prop53
 90
        2
102
RTVSPost2010PropOp53
 70
     1
102
RTVSPost2010Prop54
  1
strokes_ogs.tif
102
RTVSPost2010PropOp54
 70
     1
102
RTVSPost2010Prop55
280
     0
102
RTVSPost2010PropOp55
 70
     1
102
RTVSPost2010Prop56
140
1.0
102
RTVSPost2010PropOp56
 70
     1
102
RTVSPost2010Prop57
140
1.0
102
RTVSPost2010PropOp57
 70
     1
102
RTVSPropertyOp0
 70
     1
102
RTVSPropertyOp1
 70
     1
102
RTVSPropertyOp2
 70
     1
102
RTVSPropertyOp3
 70
     1
102
RTVSPropertyOp4
 70
     1
102
RTVSPropertyOp5
 70
     1
102
RTVSPropertyOp6
 70
     1
102
RTVSPropertyOp7
 70
     1
102
RTVSPropertyOp8
 70
     1
102
RTVSPropertyOp9
 70
     1
102
RTVSPropertyOp10
 70
     1
102
RTVSPropertyOp11
 70
     1
102
RTVSPropertyOp12
 70
     1
102
RTVSPropertyOp13
 70
     1
102
RTVSPropertyOp14
 70
     1
102
RTVSPropertyOp15
 70
     1
102
RTVSPropertyOp16
 70
     1
102
RTVSPropertyOp17
 70
     1
102
RTVSPropertyOp18
 70
     1
102
RTVSPropertyOp19
 70
     1
102
RTVSPropertyOp20
 70
     1
102
RTVSPropertyOp21
 70
     1
102
RTVSPropertyOp22
 70
     1
102
RTVSPropertyOp23
 70
     1
102
RTVSPropertyOp24
 70
     1
102
RTVSPropertyOp25
 70
     1
102
RTVSPropertyOp26
 70
     1
102
RTVSPropertyOp27
 70
     1
102
RTVSPropertyOp28
 70
     1
102
RTVSPropertyOp29
 70
     1
102
RTVSPropertyOp30
 70
     1
102
RTVSPropertyOp31
 70
     1
102
RTVSPropertyOp32
 70
     1
102
RTVSPropertyOp33
 70
     1
102
RTVSPropertyOp34
 70
     1
102
RTVSPropertyOp35
 70
     1
102
RTVSPropertyOp36
 70
     1
102
RTVSPropertyOp37
 70
     1
102
RTVSPropertyOp38
 70
     1
102
RTVSPropertyOp39
 70
     1
102
RTVSPropertyOp40
 70
     1
102
RTVSPropertyOp41
 70
     1
102
RTVSPropertyOp42
 70
     1
102
RTVSPropertyOp43
 70
     1
102
RTVSPropertyOp44
 70
     1
102
RTVSPropertyOp45
 70
     1
102
RTVSPropertyOp46
 70
     1
102
RTVSPropertyOp47
 70
     1
102
RTVSPropertyOp48
 70
     1
102
RTVSPropertyOp49
 70
     1
102
RTVSPropertyOp50
 70
     1
102
RTVSPropertyOp51
 70
     0
102
RTVSPropertyOp52
 70
     0
102
RTVSPropertyOp53
 70
     1
102
RTVSPropertyOp54
 70
     1
102
RTVSPropertyOp55
 70
     1
102
RTVSPropertyOp56
 70
     1
102
RTVSPropertyOp57
 70
     1
102
RTVSPropertyOp58
 70
     1
102
RTVSPropertyOp59
 70
     1
102
RTVSPropertyOp60
 70
     1
102
RTVSPropertyOp61
 70
     1
102
RTVSPropertyOp62
 70
     1
  0
XRECORD
  5
3E8
102
{ACAD_REACTORS
330
3E7
102
}
330
3E7
100
AcDbXrecord
280
     1
102
RTVSPost2010Prop28
280
     0
102
RTVSPost2010PropOp28
 70
     1
102
RTVSPost2010Prop29
280
     1
102
RTVSPost2010PropOp29
 70
     1
102
RTVSPost2010Prop30
280
     1
102
RTVSPost2010PropOp30
 70
     1
102
RTVSPost2010Prop31
280
     0
102
RTVSPost2010PropOp31
 70
     1
102
RTVSPost2010Prop32
280
     0
102
RTVSPost2010PropOp32
 70
     1
102
RTVSPost2010Prop33
280
     0
102
RTVSPost2010PropOp33
 70
     1
102
RTVSPost2010Prop34
280
     0
102
RTVSPost2010PropOp34
 70
     1
102
RTVSPost2010Prop35
280
     0
102
RTVSPost2010PropOp35
 70
     1
102
RTVSPost2010Prop36
280
     0
102
RTVSPost2010PropOp36
 70
     1
102
RTVSPost2010Prop37
 90
       50
102
RTVSPost2010PropOp37
 70
     1
102
RTVSPost2010Prop38
140
0.0
102
RTVSPost2010PropOp38
 70
     1
102
RTVSPost2010Prop39
140
1.0
102
RTVSPost2010PropOp39
 70
     1
102
RTVSPost2010Prop40
 90
        0
102
RTVSPost2010PropOp40
 70
     1
102
RTVSPost2010Prop41ColorIndex
 90
       18
102
RTVSPost2010Prop41ColorRGB
 90
        0
102
RTVSPost2010PropOp41
 70
     1
102
RTVSPost2010Prop42
 90
       50
102
RTVSPost2010PropOp42
 70
     1
102
RTVSPost2010Prop43
 90
        3
102
RTVSPost2010PropOp43
 70
     1
102
RTVSPost2010Prop44ColorIndex
 90
        5
102
RTVSPost2010Prop44ColorRGB
 90
      255
102
RTVSPost2010PropOp44
 70
     1
102
RTVSPost2010Prop45
280
     0
102
RTVSPost2010PropOp45
 70
     1
102
RTVSPost2010Prop46
 90
       50
102
RTVSPost2010PropOp46
 70
     1
102
RTVSPost2010Prop47
 90
       50
102
RTVSPost2010PropOp47
 70
     1
102
RTVSPost2010Prop48
 90
       50
102
RTVSPost2010PropOp48
 70
     1
102
RTVSPost2010Prop49
280
     0
102
RTVSPost2010PropOp49
 70
     1
102
RTVSPost2010Prop50
 90
       50
102
RTVSPost2010PropOp50
 70
     1
102
RTVSPost2010Prop51ColorIndex
 90
      256
102
RTVSPost2010Prop51ColorRGB
 90
-16777216
102
RTVSPost2010PropOp51
 70
     0
102
RTVSPost2010Prop52
140
1.0
102
RTVSPost2010PropOp52
 70
     0
102
RTVSPost2010Prop53
 90
        2
102
RTVSPost2010PropOp53
 70
     1
102
RTVSPost2010Prop54
  1
strokes_ogs.tif
102
RTVSPost2010PropOp54
 70
     1
102
RTVSPost2010Prop55
280
     0
102
RTVSPost2010PropOp55
 70
     1
102
RTVSPost2010Prop56
140
1.0
102
RTVSPost2010PropOp56
 70
     1
102
RTVSPost2010Prop57
140
1.0
102
RTVSPost2010PropOp57
 70
     1
102
RTVSPropertyOp0
 70
     1
102
RTVSPropertyOp1
 70
     1
102
RTVSPropertyOp2
 70
     1
102
RTVSPropertyOp3
 70
     1
102
RTVSPropertyOp4
 70
     1
102
RTVSPropertyOp5
 70
     1
102
RTVSPropertyOp6
 70
     1
102
RTVSPropertyOp7
 70
     1
102
RTVSPropertyOp8
 70
     1
102
RTVSPropertyOp9
 70
     1
102
RTVSPropertyOp10
 70
     1
102
RTVSPropertyOp11
 70
     1
102
RTVSPropertyOp12
 70
     1
102
RTVSPropertyOp13
 70
     1
102
RTVSPropertyOp14
 70
     1
102
RTVSPropertyOp15
 70
     1
102
RTVSPropertyOp16
 70
     1
102
RTVSPropertyOp17
 70
     1
102
RTVSPropertyOp18
 70
     1
102
RTVSPropertyOp19
 70
     1
102
RTVSPropertyOp20
 70
     1
102
RTVSPropertyOp21
 70
     1
102
RTVSPropertyOp22
 70
     1
102
RTVSPropertyOp23
 70
     1
102
RTVSPropertyOp24
 70
     1
102
RTVSPropertyOp25
 70
     1
102
RTVSPropertyOp26
 70
     1
102
RTVSPropertyOp27
 70
     1
102
RTVSPropertyOp28
 70
     1
102
RTVSPropertyOp29
 70
     1
102
RTVSPropertyOp30
 70
     1
102
RTVSPropertyOp31
 70
     1
102
RTVSPropertyOp32
 70
     1
102
RTVSPropertyOp33
 70
     1
102
RTVSPropertyOp34
 70
     1
102
RTVSPropertyOp35
 70
     1
102
RTVSPropertyOp36
 70
     1
102
RTVSPropertyOp37
 70
     1
102
RTVSPropertyOp38
 70
     1
102
RTVSPropertyOp39
 70
     1
102
RTVSPropertyOp40
 70
     1
102
RTVSPropertyOp41
 70
     1
102
RTVSPropertyOp42
 70
     1
102
RTVSPropertyOp43
 70
     1
102
RTVSPropertyOp44
 70
     1
102
RTVSPropertyOp45
 70
     1
102
RTVSPropertyOp46
 70
     1
102
RTVSPropertyOp47
 70
     1
102
RTVSPropertyOp48
 70
     1
102
RTVSPropertyOp49
 70
     1
102
RTVSPropertyOp50
 70
     1
102
RTVSPropertyOp51
 70
     0
102
RTVSPropertyOp52
 70
     0
102
RTVSPropertyOp53
 70
     1
102
RTVSPropertyOp54
 70
     1
102
RTVSPropertyOp55
 70
     1
102
RTVSPropertyOp56
 70
     1
102
RTVSPropertyOp57
 70
     1
102
RTVSPropertyOp58
 70
     1
102
RTVSPropertyOp59
 70
     1
102
RTVSPropertyOp60
 70
     1
102
RTVSPropertyOp61
 70
     1
102
RTVSPropertyOp62
 70
     1
  0
XRECORD
  5
400
102
{ACAD_REACTORS
330
3FF
102
}
330
3FF
100
AcDbXrecord
280
     1
102
RTVSPost2010Prop28
280
     0
102
RTVSPost2010PropOp28
 70
     1
102
RTVSPost2010Prop29
280
     1
102
RTVSPost2010PropOp29
 70
     1
102
RTVSPost2010Prop30
280
     1
102
RTVSPost2010PropOp30
 70
     1
102
RTVSPost2010Prop31
280
     0
102
RTVSPost2010PropOp31
 70
     1
102
RTVSPost2010Prop32
280
     0
102
RTVSPost2010PropOp32
 70
     1
102
RTVSPost2010Prop33
280
     0
102
RTVSPost2010PropOp33
 70
     1
102
RTVSPost2010Prop34
280
     0
102
RTVSPost2010PropOp34
 70
     1
102
RTVSPost2010Prop35
280
     0
102
RTVSPost2010PropOp35
 70
     1
102
RTVSPost2010Prop36
280
     0
102
RTVSPost2010PropOp36
 70
     1
102
RTVSPost2010Prop37
 90
       50
102
RTVSPost2010PropOp37
 70
     1
102
RTVSPost2010Prop38
140
0.0
102
RTVSPost2010PropOp38
 70
     1
102
RTVSPost2010Prop39
140
1.0
102
RTVSPost2010PropOp39
 70
     1
102
RTVSPost2010Prop40
 90
        0
102
RTVSPost2010PropOp40
 70
     1
102
RTVSPost2010Prop41ColorIndex
 90
       18
102
RTVSPost2010Prop41ColorRGB
 90
        0
102
RTVSPost2010PropOp41
 70
     1
102
RTVSPost2010Prop42
 90
       50
102
RTVSPost2010PropOp42
 70
     1
102
RTVSPost2010Prop43
 90
        3
102
RTVSPost2010PropOp43
 70
     1
102
RTVSPost2010Prop44ColorIndex
 90
        5
102
RTVSPost2010Prop44ColorRGB
 90
      255
102
RTVSPost2010PropOp44
 70
     1
102
RTVSPost2010Prop45
280
     0
102
RTVSPost2010PropOp45
 70
     1
102
RTVSPost2010Prop46
 90
       50
102
RTVSPost2010PropOp46
 70
     1
102
RTVSPost2010Prop47
 90
       50
102
RTVSPost2010PropOp47
 70
     1
102
RTVSPost2010Prop48
 90
       50
102
RTVSPost2010PropOp48
 70
     1
102
RTVSPost2010Prop49
280
     0
102
RTVSPost2010PropOp49
 70
     1
102
RTVSPost2010Prop50
 90
       50
102
RTVSPost2010PropOp50
 70
     1
102
RTVSPost2010Prop51ColorIndex
 90
      256
102
RTVSPost2010Prop51ColorRGB
 90
-16777216
102
RTVSPost2010PropOp51
 70
     0
102
RTVSPost2010Prop52
140
1.0
102
RTVSPost2010PropOp52
 70
     0
102
RTVSPost2010Prop53
 90
        2
102
RTVSPost2010PropOp53
 70
     1
102
RTVSPost2010Prop54
  1
strokes_ogs.tif
102
RTVSPost2010PropOp54
 70
     1
102
RTVSPost2010Prop55
280
     0
102
RTVSPost2010PropOp55
 70
     1
102
RTVSPost2010Prop56
140
1.0
102
RTVSPost2010PropOp56
 70
     1
102
RTVSPost2010Prop57
140
1.0
102
RTVSPost2010PropOp57
 70
     1
102
RTVSPropertyOp0
 70
     1
102
RTVSPropertyOp1
 70
     1
102
RTVSPropertyOp2
 70
     1
102
RTVSPropertyOp3
 70
     1
102
RTVSPropertyOp4
 70
     1
102
RTVSPropertyOp5
 70
     1
102
RTVSPropertyOp6
 70
     1
102
RTVSPropertyOp7
 70
     1
102
RTVSPropertyOp8
 70
     1
102
RTVSPropertyOp9
 70
     1
102
RTVSPropertyOp10
 70
     1
102
RTVSPropertyOp11
 70
     1
102
RTVSPropertyOp12
 70
     1
102
RTVSPropertyOp13
 70
     1
102
RTVSPropertyOp14
 70
     1
102
RTVSPropertyOp15
 70
     1
102
RTVSPropertyOp16
 70
     1
102
RTVSPropertyOp17
 70
     1
102
RTVSPropertyOp18
 70
     1
102
RTVSPropertyOp19
 70
     1
102
RTVSPropertyOp20
 70
     1
102
RTVSPropertyOp21
 70
     1
102
RTVSPropertyOp22
 70
     1
102
RTVSPropertyOp23
 70
     1
102
RTVSPropertyOp24
 70
     1
102
RTVSPropertyOp25
 70
     1
102
RTVSPropertyOp26
 70
     1
102
RTVSPropertyOp27
 70
     1
102
RTVSPropertyOp28
 70
     1
102
RTVSPropertyOp29
 70
     1
102
RTVSPropertyOp30
 70
     1
102
RTVSPropertyOp31
 70
     1
102
RTVSPropertyOp32
 70
     1
102
RTVSPropertyOp33
 70
     1
102
RTVSPropertyOp34
 70
     1
102
RTVSPropertyOp35
 70
     1
102
RTVSPropertyOp36
 70
     1
102
RTVSPropertyOp37
 70
     1
102
RTVSPropertyOp38
 70
     1
102
RTVSPropertyOp39
 70
     1
102
RTVSPropertyOp40
 70
     1
102
RTVSPropertyOp41
 70
     1
102
RTVSPropertyOp42
 70
     1
102
RTVSPropertyOp43
 70
     1
102
RTVSPropertyOp44
 70
     1
102
RTVSPropertyOp45
 70
     1
102
RTVSPropertyOp46
 70
     1
102
RTVSPropertyOp47
 70
     1
102
RTVSPropertyOp48
 70
     1
102
RTVSPropertyOp49
 70
     1
102
RTVSPropertyOp50
 70
     1
102
RTVSPropertyOp51
 70
     0
102
RTVSPropertyOp52
 70
     0
102
RTVSPropertyOp53
 70
     1
102
RTVSPropertyOp54
 70
     1
102
RTVSPropertyOp55
 70
     1
102
RTVSPropertyOp56
 70
     1
102
RTVSPropertyOp57
 70
     1
102
RTVSPropertyOp58
 70
     1
102
RTVSPropertyOp59
 70
     1
102
RTVSPropertyOp60
 70
     1
102
RTVSPropertyOp61
 70
     1
102
RTVSPropertyOp62
 70
     1
  0
ENDSEC
  0
EOF
